  0
SECTION
  2
HEADER
  9
$ACADVER
  1
AC1015
  9
$ACADMAINTVER
 70
    13
  9
$DWGCODEPAGE
  3
ANSI_932
  9
$INSBASE
 10
0.0
 20
0.0
 30
0.0
  9
$EXTMIN
 10
38.64665603394462
 20
24.76921336735999
 30
0.0
  9
$EXTMAX
 10
131.5597451829206
 20
91.42192032982135
 30
0.0
  9
$LIMMIN
 10
0.0
 20
0.0
  9
$LIMMAX
 10
220.0
 20
170.0
  9
$ORTHOMODE
 70
     1
  9
$REGENMODE
 70
     1
  9
$FILLMODE
 70
     1
  9
$QTEXTMODE
 70
     0
  9
$MIRRTEXT
 70
     1
  9
$LTSCALE
 40
1.0
  9
$ATTMODE
 70
     1
  9
$TEXTSIZE
 40
7.0
  9
$TRACEWID
 40
1.0
  9
$TEXTSTYLE
  7
STANDARD
  9
$CLAYER
  8
2
  9
$CELTYPE
  6
BYLAYER
  9
$CECOLOR
 62
   256
  9
$CELTSCALE
 40
1.0
  9
$DISPSILH
 70
     0
  9
$DIMSCALE
 40
1.0
  9
$DIMASZ
 40
2.5
  9
$DIMEXO
 40
0.625
  9
$DIMDLI
 40
3.75
  9
$DIMRND
 40
0.0
  9
$DIMDLE
 40
0.0
  9
$DIMEXE
 40
1.25
  9
$DIMTP
 40
0.0
  9
$DIMTM
 40
0.0
  9
$DIMTXT
 40
2.5
  9
$DIMCEN
 40
2.5
  9
$DIMTSZ
 40
0.0
  9
$DIMTOL
 70
     0
  9
$DIMLIM
 70
     0
  9
$DIMTIH
 70
     1
  9
$DIMTOH
 70
     0
  9
$DIMSE1
 70
     0
  9
$DIMSE2
 70
     0
  9
$DIMTAD
 70
     1
  9
$DIMZIN
 70
     8
  9
$DIMBLK
  1

  9
$DIMASO
 70
     1
  9
$DIMSHO
 70
     1
  9
$DIMPOST
  1

  9
$DIMAPOST
  1

  9
$DIMALT
 70
     0
  9
$DIMALTD
 70
     2
  9
$DIMALTF
 40
0.0394
  9
$DIMLFAC
 40
1.0
  9
$DIMTOFL
 70
     1
  9
$DIMTVP
 40
1.0
  9
$DIMTIX
 70
     0
  9
$DIMSOXD
 70
     0
  9
$DIMSAH
 70
     0
  9
$DIMBLK1
  1

  9
$DIMBLK2
  1

  9
$DIMSTYLE
  2
ISO-25
  9
$DIMCLRD
 70
     0
  9
$DIMCLRE
 70
     0
  9
$DIMCLRT
 70
     0
  9
$DIMTFAC
 40
1.0
  9
$DIMGAP
 40
0.625
  9
$DIMJUST
 70
     0
  9
$DIMSD1
 70
     0
  9
$DIMSD2
 70
     0
  9
$DIMTOLJ
 70
     1
  9
$DIMTZIN
 70
     8
  9
$DIMALTZ
 70
     8
  9
$DIMALTTZ
 70
     8
  9
$DIMUPT
 70
     0
  9
$DIMDEC
 70
     4
  9
$DIMTDEC
 70
     4
  9
$DIMALTU
 70
     2
  9
$DIMALTTD
 70
     2
  9
$DIMTXSTY
  7
STANDARD
  9
$DIMAUNIT
 70
     0
  9
$DIMADEC
 70
     0
  9
$DIMALTRND
 40
0.0
  9
$DIMAZIN
 70
     0
  9
$DIMDSEP
 70
    46
  9
$DIMATFIT
 70
     3
  9
$DIMFRAC
 70
     0
  9
$DIMLDRBLK
  1

  9
$DIMLUNIT
 70
     2
  9
$DIMLWD
 70
    -2
  9
$DIMLWE
 70
    -2
  9
$DIMTMOVE
 70
     0
  9
$LUNITS
 70
     2
  9
$LUPREC
 70
     4
  9
$SKETCHINC
 40
1.0
  9
$FILLETRAD
 40
2.0
  9
$AUNITS
 70
     0
  9
$AUPREC
 70
     0
  9
$MENU
  1
.
  9
$ELEVATION
 40
0.0
  9
$PELEVATION
 40
0.0
  9
$THICKNESS
 40
0.0
  9
$LIMCHECK
 70
     0
  9
$CHAMFERA
 40
1.5
  9
$CHAMFERB
 40
1.5
  9
$CHAMFERC
 40
0.0
  9
$CHAMFERD
 40
0.0
  9
$SKPOLY
 70
     0
  9
$TDCREATE
 40
2450687.671712963
  9
$TDUCREATE
 40
2450687.296712962
  9
$TDUPDATE
 40
2454131.485789201
  9
$TDUUPDATE
 40
2454131.110789201
  9
$TDINDWG
 40
0.0844739120
  9
$TDUSRTIMER
 40
0.0844739120
  9
$USRTIMER
 70
     1
  9
$ANGBASE
 50
0.0
  9
$ANGDIR
 70
     0
  9
$PDMODE
 70
     0
  9
$PDSIZE
 40
0.0
  9
$PLINEWID
 40
0.0
  9
$SPLFRAME
 70
     0
  9
$SPLINETYPE
 70
     6
  9
$SPLINESEGS
 70
     8
  9
$HANDSEED
  5
160E
  9
$SURFTAB1
 70
     6
  9
$SURFTAB2
 70
     6
  9
$SURFTYPE
 70
     6
  9
$SURFU
 70
     6
  9
$SURFV
 70
     6
  9
$UCSBASE
  2

  9
$UCSNAME
  2

  9
$UCSORG
 10
0.0
 20
0.0
 30
0.0
  9
$UCSXDIR
 10
1.0
 20
0.0
 30
0.0
  9
$UCSYDIR
 10
0.0
 20
1.0
 30
0.0
  9
$UCSORTHOREF
  2

  9
$UCSORTHOVIEW
 70
     0
  9
$UCSORGTOP
 10
0.0
 20
0.0
 30
0.0
  9
$UCSORGBOTTOM
 10
0.0
 20
0.0
 30
0.0
  9
$UCSORGLEFT
 10
0.0
 20
0.0
 30
0.0
  9
$UCSORGRIGHT
 10
0.0
 20
0.0
 30
0.0
  9
$UCSORGFRONT
 10
0.0
 20
0.0
 30
0.0
  9
$UCSORGBACK
 10
0.0
 20
0.0
 30
0.0
  9
$PUCSBASE
  2

  9
$PUCSNAME
  2

  9
$PUCSORG
 10
0.0
 20
0.0
 30
0.0
  9
$PUCSXDIR
 10
1.0
 20
0.0
 30
0.0
  9
$PUCSYDIR
 10
0.0
 20
1.0
 30
0.0
  9
$PUCSORTHOREF
  2

  9
$PUCSORTHOVIEW
 70
     0
  9
$PUCSORGTOP
 10
0.0
 20
0.0
 30
0.0
  9
$PUCSORGBOTTOM
 10
0.0
 20
0.0
 30
0.0
  9
$PUCSORGLEFT
 10
0.0
 20
0.0
 30
0.0
  9
$PUCSORGRIGHT
 10
0.0
 20
0.0
 30
0.0
  9
$PUCSORGFRONT
 10
0.0
 20
0.0
 30
0.0
  9
$PUCSORGBACK
 10
0.0
 20
0.0
 30
0.0
  9
$USERI1
 70
     0
  9
$USERI2
 70
     0
  9
$USERI3
 70
     0
  9
$USERI4
 70
     0
  9
$USERI5
 70
     0
  9
$USERR1
 40
0.0
  9
$USERR2
 40
0.0
  9
$USERR3
 40
0.0
  9
$USERR4
 40
0.0
  9
$USERR5
 40
0.0
  9
$WORLDVIEW
 70
     1
  9
$SHADEDGE
 70
     3
  9
$SHADEDIF
 70
    70
  9
$TILEMODE
 70
     1
  9
$MAXACTVP
 70
    16
  9
$PINSBASE
 10
0.0
 20
0.0
 30
0.0
  9
$PLIMCHECK
 70
     0
  9
$PEXTMIN
 10
1.000000000000000E+20
 20
1.000000000000000E+20
 30
1.000000000000000E+20
  9
$PEXTMAX
 10
-1.000000000000000E+20
 20
-1.000000000000000E+20
 30
-1.000000000000000E+20
  9
$PLIMMIN
 10
0.0
 20
0.0
  9
$PLIMMAX
 10
420.0
 20
297.0
  9
$UNITMODE
 70
     0
  9
$VISRETAIN
 70
     0
  9
$PLINEGEN
 70
     0
  9
$PSLTSCALE
 70
     1
  9
$TREEDEPTH
 70
  3020
  9
$CMLSTYLE
  2
STANDARD
  9
$CMLJUST
 70
     0
  9
$CMLSCALE
 40
1.0
  9
$PROXYGRAPHICS
 70
     1
  9
$MEASUREMENT
 70
     0
  9
$CELWEIGHT
370
    -1
  9
$ENDCAPS
280
     0
  9
$JOINSTYLE
280
     0
  9
$LWDISPLAY
290
     0
  9
$INSUNITS
 70
     0
  9
$HYPERLINKBASE
  1

  9
$STYLESHEET
  1

  9
$XEDIT
290
     1
  9
$CEPSNTYPE
380
     0
  9
$PSTYLEMODE
290
     1
  9
$FINGERPRINTGUID
  2
{5905E162-39BF-4FAB-B78F-C4F4AB28FF1A}
  9
$VERSIONGUID
  2
{4C9E4182-3187-4A1A-998D-A4ACCE090D44}
  9
$EXTNAMES
290
     1
  9
$PSVPSCALE
 40
0.0
  9
$OLESTARTUP
290
     0
  0
ENDSEC
  0
SECTION
  2
CLASSES
  0
CLASS
  1
DICTIONARYVAR
  2
AcDbDictionaryVar
  3
AutoCAD 2000
 90
        0
280
     0
281
     0
  0
CLASS
  1
LWPOLYLINE
  2
AcDbPolyline
  3
AutoCAD 2000
 90
    32768
280
     0
281
     1
  0
CLASS
  1
ACDBDICTIONARYWDFLT
  2
AcDbDictionaryWithDefault
  3
AutoCAD 2000
 90
        0
280
     0
281
     0
  0
CLASS
  1
ACDBPLACEHOLDER
  2
AcDbPlaceHolder
  3
AutoCAD 2000
 90
        0
280
     0
281
     0
  0
CLASS
  1
LAYOUT
  2
AcDbLayout
  3
AutoCAD 2000
 90
        0
280
     0
281
     0
  0
CLASS
  1
AMGSETTINGSOBJ
  2
AmgSettingsObj
  3
"AcadM|Product Description: AutoCAD Mechanical 2000|Company: Autodesk"
 90
        0
280
     0
281
     0
  0
CLASS
  1
ACME_DOCUMENT
  2
AcMeDbDoc
  3
AcMeServices
 90
        0
280
     0
281
     0
  0
CLASS
  1
ACMESCOPE
  2
AcMeScope
  3
AcMeServices
 90
        0
280
     0
281
     0
  0
CLASS
  1
ACMECOMMANDHISTORY
  2
AcMeCommandHistory
  3
AcMeServices
 90
        0
280
     0
281
     0
  0
CLASS
  1
ACIMSYSVARMAN
  2
AcImSysVarManager
  3
AcMeServices
 90
        0
280
     0
281
     0
  0
CLASS
  1
ACIMREALSYSVAR
  2
AcImRealSysVar
  3
AcMeServices
 90
        0
280
     0
281
     0
  0
CLASS
  1
ACIMINTSYSVAR
  2
AcImIntSysVar
  3
AcMeServices
 90
        0
280
     0
281
     0
  0
CLASS
  1
ACMEDRAWINGMAN
  2
AcMeDrawingMan
  3
AcMeServices
 90
        0
280
     0
281
     0
  0
CLASS
  1
ACMEVIEW
  2
AcMeView
  3
AcMeServices
 90
        0
280
     0
281
     0
  0
CLASS
  1
ACDBENTITYCACHE
  2
AcMeEntityCache
  3
AcMeServices
 90
        0
280
     0
281
     0
  0
CLASS
  1
GSMANAGER
  2
AcMeGSManager
  3
AcMeServices
 90
        0
280
     0
281
     0
  0
CLASS
  1
AMDTINTERNALREACTOR
  2
AmdtInternalReactor
  3
AcMeServices
 90
        0
280
     0
281
     0
  0
CLASS
  1
ACMESTATEMGR
  2
AcMeStateMgr
  3
AcMeServices
 90
        0
280
     0
281
     0
  0
CLASS
  1
ACGREFMASTER
  2
AcGrefMaster
  3
AcAttribServices
 90
        0
280
     0
281
     0
  0
CLASS
  1
AM_DRAWING_MGR
  2
AcDmDwgMgr
  3
AcMechDwgViewMgmt
 90
        0
280
     0
281
     0
  0
CLASS
  1
AM_DWG_DOCUMENT
  2
AcDmDwgDocument
  3
AcMechDwgViewMgmt
 90
        0
280
     0
281
     0
  0
CLASS
  1
AM_DWG_SHEET
  2
AcDmSheet
  3
AcMechDwgViewMgmt
 90
        0
280
     0
281
     0
  0
CLASS
  1
AM_VIEWDIMPARMAP
  2
AcDmViewDimParMap
  3
AcMechDwgViewMgmt
 90
        0
280
     0
281
     0
  0
CLASS
  1
AM_DWGMGR_NAME
  2
AcDmDwgMgrName
  3
AcMechDwgViewMgmt
 90
        0
280
     0
281
     0
  0
CLASS
  1
ACME_DATABASE
  2
AcMeDbDatabase
  3
AcMeServices
 90
        0
280
     0
281
     0
  0
CLASS
  1
ACRFINSADJUSTERMGR
  2
AcRfInsAdjusterMgr
  3
AcMeServices
 90
        0
280
     0
281
     0
  0
CLASS
  1
ACGREFACADMASTER
  2
AcGrefacadMaster
  3
AcGrefServices
 90
        0
280
     0
281
     0
  0
CLASS
  1
AMDTMENUSTATEMGR
  2
AmdtMenuStateMgr
  3
McadcomServices
 90
        0
280
     0
281
     0
  0
CLASS
  1
AMDTMCOMMENUSTATE
  2
AmdtMcomMenuState
  3
McadcomServices
 90
        0
280
     0
281
     0
  0
CLASS
  1
AMIMASTER
  2
AmiMaster
  3
AmiServices
 90
        0
280
     0
281
     0
  0
CLASS
  1
ASAPP
  2
AcAsAppObject
  3
AutoSurfServices
 90
        0
280
     0
281
     0
  0
CLASS
  1
IM_STATIC_MAN
  2
AcImStaticVarManager
  3
AcMeServices
 90
        0
280
     0
281
     0
  0
CLASS
  1
ACIMSTRSYSVAR
  2
AcImStrSysVar
  3
AcMeServices
 90
        0
280
     0
281
     0
  0
CLASS
  1
ACIMDBLSTATICVAR
  2
AcImDblStaticVar
  3
AcMeServices
 90
        0
280
     0
281
     0
  0
CLASS
  1
ACIMSTRSTATICVAR
  2
AcImStrStaticVar
  3
AcMeServices
 90
        0
280
     0
281
     0
  0
CLASS
  1
ACIMINTSTATICVAR
  2
AcImIntStaticVar
  3
AcMeServices
 90
        0
280
     0
281
     0
  0
CLASS
  1
ACASGREFMASTER
  2
AcAsGrefMaster
  3
AutoSurfResolverServices
 90
        0
280
     0
281
     0
  0
CLASS
  1
ACADGREFMODULE
  2
AcAdGrefModule
  3
AdGrefServices
 90
        0
280
     0
281
     0
  0
CLASS
  1
AMDTMAPISURFMOUDULE
  2
AmdtMApiSurfModule
  3
MApiSurfServices
 90
        0
280
     0
281
     0
  0
CLASS
  1
MAPIAMMOUDLE
  2
MApiAmModule
  3
MApiAmServices
 90
        0
280
     0
281
     0
  0
CLASS
  1
AMDTADMENUSTATE
  2
AmdtAdMenuState
  3
DesignerServices
 90
        0
280
     0
281
     0
  0
CLASS
  1
ADAPPL
  2
AcAdAppl
  3
DesignerServices
 90
        0
280
     0
281
     0
  0
CLASS
  1
DEPMGR
  2
AcAdDepMgr
  3
DesignerServices
 90
        0
280
     0
281
     0
  0
CLASS
  1
PARAMMGR
  2
AcAdParamMgr
  3
DesignerServices
 90
        0
280
     0
281
     0
  0
CLASS
  1
PARAMSCOPE
  2
AcAdParamScope
  3
DesignerServices
 90
        0
280
     0
281
     0
  0
CLASS
  1
NAMEDAPPL
  2
AcAdNamedAppl
  3
DesignerServices
 90
        0
280
     0
281
     0
  0
CLASS
  1
AMDTDMMENUSTATE
  2
AmdtDmMenuState
  3
AcMechDwgViewMgmt
 90
        0
280
     0
281
     0
  0
CLASS
  1
MAPIADMODULE
  2
MApiAdModule
  3
MApiAdServices
 90
        0
280
     0
281
     0
  0
CLASS
  1
AMDTAMMENUSTATE
  2
AmdtAmMenuState
  3
DesignerAssemblies
 90
        0
280
     0
281
     0
  0
CLASS
  1
ACAMPROJECT
  2
AcAmProject
  3
DesignerAssemblies
 90
        0
280
     0
281
     0
  0
CLASS
  1
ACAMGRCOMPDEF
  2
AcAmGrCompDef
  3
DesignerAssemblies
 90
        0
280
     0
281
     0
  0
CLASS
  1
ACCMCONTEXT
  2
AcCmContext
  3
DesignerAssemblies
 90
        0
280
     0
281
     0
  0
CLASS
  1
ACAMCOMPDEF
  2
AcAmCompDef
  3
DesignerAssemblies
 90
        0
280
     0
281
     0
  0
CLASS
  1
ACAMCOMPDEFMGR
  2
AcAmCompDefMgr
  3
DesignerAssemblies
 90
        0
280
     0
281
     0
  0
CLASS
  1
AMCONTEXTMGR
  2
AcAmContextMgr
  3
DesignerAssemblies
 90
        0
280
     0
281
     0
  0
CLASS
  1
ACAMCONTEXTMODELER
  2
AcAmContextModeler
  3
DesignerAssemblies
 90
        0
280
     0
281
     0
  0
CLASS
  1
ACMDATADICTIONARY
  2
AcmDataDictionary
  3
"AcmSymBB|Product Description: AutoCAD Mechanical 2000|Company: Autodesk"
 90
        0
280
     0
281
     0
  0
CLASS
  1
ACMDATAENTRYBLOCK
  2
AcmDataEntryBlock
  3
"AcmSymBB|Product Description: AutoCAD Mechanical 2000|Company: Autodesk"
 90
        0
280
     0
281
     0
  0
CLASS
  1
CATALOGSTATE
  2
AcAmCatalogState
  3
DesignerAssemblies
 90
        0
280
     0
281
     0
  0
CLASS
  1
ACAMGRCOMPDEFSET
  2
AcAmGrCompDefSet
  3
DesignerAssemblies
 90
        0
280
     0
281
     0
  0
CLASS
  1
AMDTBROWSERDBTAB
  2
AmdtBrowserDbTab
  3
McadcomServices
 90
        0
280
     0
281
     0
  0
CLASS
  1
CBROWSERAPPOBJECT
  2
CBrowserAppObject
  3
McadcomServices
 90
        0
280
     0
281
     0
  0
CLASS
  1
DM_PLACEHOLDER
  2
AcDmSelsetPlaceholder
  3
AcMechDwgViewMgmt
 90
        0
280
     0
281
     0
  0
CLASS
  1
AMGOBJPROPCFG
  2
AmgObjPropCfg
  3
"AmgLay|Product Description: AutoCAD Mechanical 2000|Company: Autodesk"
 90
        1
280
     0
281
     0
  0
CLASS
  1
LAYER_INDEX
  2
AcDbLayerIndex
  3
AutoCAD 2000
 90
        0
280
     0
281
     0
  0
CLASS
  1
IDBUFFER
  2
AcDbIdBuffer
  3
AutoCAD 2000
 90
        0
280
     0
281
     0
  0
CLASS
  1
ACAMGFILTERDAT
  2
AcAmgFilterDat
  3
"AcadM|Product Description: AutoCAD Mechanical 2000|Company: Autodesk"
 90
        0
280
     0
281
     0
  0
ENDSEC
  0
SECTION
  2
TABLES
  0
TABLE
  2
VPORT
  5
1248
330
0
100
AcDbSymbolTable
 70
     4
  0
VPORT
  5
160D
330
1248
100
AcDbSymbolTableRecord
100
AcDbViewportTableRecord
  2
*Active
 70
     0
 10
0.0
 20
0.0
 11
1.0
 21
1.0
 12
0.0
 22
0.0
 13
0.0
 23
0.0
 14
0.25
 24
0.25
 15
0.5
 25
0.5
 16
0.0
 26
0.0
 36
1.0
 17
134.3449094459406
 27
91.867376
 37
0.0
 40
183.7504095932366
 41
1.462378640776698
 42
50.0
 43
0.0
 44
0.0
 50
0.0
 51
0.0
 71
     0
 72
 20000
 73
     1
 74
     1
 75
     0
 76
     0
 77
     0
 78
     0
281
     0
 65
     0
110
0.0
120
0.0
130
0.0
111
1.0
121
0.0
131
0.0
112
0.0
122
1.0
132
0.0
 79
     0
146
0.0
  0
ENDTAB
  0
TABLE
  2
LTYPE
  5
1245
330
0
100
AcDbSymbolTable
 70
    18
  0
LTYPE
  5
1251
330
1245
100
AcDbSymbolTableRecord
100
AcDbLinetypeTableRecord
  2
BYBLOCK
 70
     0
  3

 72
    65
 73
     0
 40
0.0
  0
LTYPE
  5
1252
330
1245
100
AcDbSymbolTableRecord
100
AcDbLinetypeTableRecord
  2
BYLAYER
 70
     0
  3

 72
    65
 73
     0
 40
0.0
  0
LTYPE
  5
1253
330
1245
100
AcDbSymbolTableRecord
100
AcDbLinetypeTableRecord
  2
CONTINUOUS
 70
     0
  3
Solid line
 72
    65
 73
     0
 40
0.0
  0
LTYPE
  5
125C
330
1245
100
AcDbSymbolTableRecord
100
AcDbLinetypeTableRecord
  2
TENSEN
 70
     0
  3

 72
    65
 73
     2
 40
2.5
 49
1.5
 74
     0
 49
-1.0
 74
     0
  0
LTYPE
  5
125D
330
1245
100
AcDbSymbolTableRecord
100
AcDbLinetypeTableRecord
  2
ITTEN
 70
     0
  3

 72
    65
 73
     4
 40
3.6
 49
2.0
 74
     0
 49
-0.5
 74
     0
 49
0.6
 74
     0
 49
-0.5
 74
     0
  0
LTYPE
  5
12A7
330
1245
100
AcDbSymbolTableRecord
100
AcDbLinetypeTableRecord
  2
HIDDEN
 70
     0
  3
Hidden __ __ __ __ __ __ __ __ __ __ __ __ __ _
 72
    65
 73
     2
 40
0.375
 49
0.25
 74
     0
 49
-0.125
 74
     0
  0
LTYPE
  5
12A8
330
1245
100
AcDbSymbolTableRecord
100
AcDbLinetypeTableRecord
  2
PHANTOM2
 70
     0
  3
Phantom (.5x) ___ _ _ ___ _ _ ___ _ _ ___ _ _
 72
    65
 73
     6
 40
1.25
 49
0.625
 74
     0
 49
-0.125
 74
     0
 49
0.125
 74
     0
 49
-0.125
 74
     0
 49
0.125
 74
     0
 49
-0.125
 74
     0
  0
LTYPE
  5
12A9
330
1245
100
AcDbSymbolTableRecord
100
AcDbLinetypeTableRecord
  2
CENTER
 70
     0
  3
Center ____ _ ____ _ ____ _ ____ _ ____ _ ____
 72
    65
 73
     4
 40
2.0
 49
1.25
 74
     0
 49
-0.25
 74
     0
 49
0.25
 74
     0
 49
-0.25
 74
     0
  0
LTYPE
  5
130B
330
1245
100
AcDbSymbolTableRecord
100
AcDbLinetypeTableRecord
  2
ASULTYPE
 70
     0
  3
実線
 72
    65
 73
     2
 40
3.0
 49
2.5
 74
     0
 49
0.5
 74
     0
  0
LTYPE
  5
130C
330
1245
100
AcDbSymbolTableRecord
100
AcDbLinetypeTableRecord
  2
ASVLTYPE
 70
     0
  3
__ __ __ __ __ __ __ __ __ __ __ __ __ __ __ __ __ __ __ __ __
 72
    65
 73
     2
 40
0.75
 49
0.5
 74
     0
 49
-0.25
 74
     0
  0
LTYPE
  5
134D
330
1245
100
AcDbSymbolTableRecord
100
AcDbLinetypeTableRecord
  2
AM_ISO02W050
 70
     0
  3
__ __ __ __ __ __ __ __ __ __ __ __ __ __ __
 72
    65
 73
     2
 40
7.5
 49
6.0
 74
     0
 49
-1.5
 74
     0
  0
LTYPE
  5
134E
330
1245
100
AcDbSymbolTableRecord
100
AcDbLinetypeTableRecord
  2
AM_ISO08W050
 70
     0
  3
____ . ____ . ____ . ____ . ____ . ____ . ____
 72
    65
 73
     4
 40
18.0
 49
12.0
 74
     0
 49
-1.5
 74
     0
 49
3.0
 74
     0
 49
-1.5
 74
     0
  0
LTYPE
  5
134F
330
1245
100
AcDbSymbolTableRecord
100
AcDbLinetypeTableRecord
  2
AM_ISO09W050
 70
     0
  3
_____ . . _____ . . _____ . . ____ .. ____
 72
    65
 73
     6
 40
22.5
 49
12.0
 74
     0
 49
-1.5
 74
     0
 49
3.0
 74
     0
 49
-1.5
 74
     0
 49
3.0
 74
     0
 49
-1.5
 74
     0
  0
LTYPE
  5
1350
330
1245
100
AcDbSymbolTableRecord
100
AcDbLinetypeTableRecord
  2
Amconstr
 70
     0
  3
_______________________
 72
    65
 73
     2
 40
9999.0
 49
9999.0
 74
     0
 49
0.0
 74
     0
  0
LTYPE
  5
1351
330
1245
100
AcDbSymbolTableRecord
100
AcDbLinetypeTableRecord
  2
AM_ISO08W050x2
 70
     0
  3
__ . __ . __ . __ . __ . __
 72
    65
 73
     4
 40
9.0
 49
6.0
 74
     0
 49
-0.75
 74
     0
 49
1.5
 74
     0
 49
-0.75
 74
     0
  0
LTYPE
  5
1352
330
1245
100
AcDbSymbolTableRecord
100
AcDbLinetypeTableRecord
  2
AM_ISO02W050x2
 70
     0
  3
 _ _ _ _ _ _ _ _ _ _ _ _
 72
    65
 73
     2
 40
3.75
 49
3.0
 74
     0
 49
-0.75
 74
     0
  0
LTYPE
  5
1355
330
1245
100
AcDbSymbolTableRecord
100
AcDbLinetypeTableRecord
  2
Amzigzag
 70
     0
  3
/\/-/\/-/\/-/\/-/\/-/\/
 72
    65
 73
     2
 40
11.00009999999999
 49
0.0001
 74
     4
 75
   135
340
1354
 46
0.04
 50
0.0
 44
0.0
 45
0.0
 49
-11.0
 74
     0
  0
LTYPE
  5
1356
330
1245
100
AcDbSymbolTableRecord
100
AcDbLinetypeTableRecord
  2
CENTER2
 70
     0
  3
Center (.5x) ___ _ ___ _ ___ _ ___ _ ___ _ ___
 72
    65
 73
     4
 40
1.125
 49
0.75
 74
     0
 49
-0.125
 74
     0
 49
0.125
 74
     0
 49
-0.125
 74
     0
  0
LTYPE
  5
1357
330
1245
100
AcDbSymbolTableRecord
100
AcDbLinetypeTableRecord
  2
HIDDEN2
 70
     0
  3
Hidden (.5x) _ _ _ _ _ _ _ _ _ _ _ _ _ _ _ _ _
 72
    65
 73
     2
 40
0.1875
 49
0.125
 74
     0
 49
-0.0625
 74
     0
  0
LTYPE
  5
1358
330
1245
100
AcDbSymbolTableRecord
100
AcDbLinetypeTableRecord
  2
Amzigzag2
 70
     0
  3
/\/-/\/-/\/-/\/-/\/-/\/
 72
    65
 73
     2
 40
0.4401
 49
0.0001
 74
     4
 75
   135
340
1354
 46
0.0016
 50
0.0
 44
0.0
 45
0.0
 49
-0.4400000000000001
 74
     0
  0
ENDTAB
  0
TABLE
  2
LAYER
  5
1242
330
0
100
AcDbSymbolTable
 70
     4
  0
LAYER
  5
124E
330
1242
100
AcDbSymbolTableRecord
100
AcDbLayerTableRecord
  2
0
 70
     0
 62
     7
  6
CONTINUOUS
370
    -3
390
127D
  0
LAYER
  5
1269
330
1242
100
AcDbSymbolTableRecord
100
AcDbLayerTableRecord
  2
2
 70
     0
 62
     7
  6
TENSEN
370
    -3
390
127D
  0
LAYER
  5
126A
330
1242
100
AcDbSymbolTableRecord
100
AcDbLayerTableRecord
  2
1
 70
     0
 62
     1
  6
ITTEN
370
    -3
390
127D
  0
LAYER
  5
126B
330
1242
100
AcDbSymbolTableRecord
100
AcDbLayerTableRecord
  2
3
 70
     0
 62
     5
  6
CONTINUOUS
370
    -3
390
127D
  0
ENDTAB
  0
TABLE
  2
STYLE
  5
1243
330
0
100
AcDbSymbolTable
 70
     2
  0
STYLE
  5
124F
330
1243
100
AcDbSymbolTableRecord
100
AcDbTextStyleTableRecord
  2
STANDARD
 70
     0
 40
7.0
 41
0.8
 50
0.0
 71
     0
 42
7.0
  3
ISOCP
  4
B:\r13\com\fonts\bigfont.shx
  0
STYLE
  5
1354
330
1243
100
AcDbSymbolTableRecord
100
AcDbTextStyleTableRecord
  2

 70
     1
 40
0.0
 41
1.0
 50
0.0
 71
     0
 42
7.0
  3
ltypeshp.shx
  4

  0
ENDTAB
  0
TABLE
  2
VIEW
  5
1246
330
0
100
AcDbSymbolTable
 70
     0
  0
ENDTAB
  0
TABLE
  2
UCS
  5
1247
330
0
100
AcDbSymbolTable
 70
     0
  0
ENDTAB
  0
TABLE
  2
APPID
  5
1249
330
0
100
AcDbSymbolTable
 70
    12
  0
APPID
  5
1250
330
1249
100
AcDbSymbolTableRecord
100
AcDbRegAppTableRecord
  2
ACAD
 70
     0
  0
APPID
  5
1286
330
1249
100
AcDbSymbolTableRecord
100
AcDbRegAppTableRecord
  2
GENIUS_GENDIM_13
 70
     0
  0
APPID
  5
1287
330
1249
100
AcDbSymbolTableRecord
100
AcDbRegAppTableRecord
  2
GENIUS_GENDTOL_13
 70
     0
  0
APPID
  5
1288
330
1249
100
AcDbSymbolTableRecord
100
AcDbRegAppTableRecord
  2
GENIUS_GE3DTOL_13
 70
     0
  0
APPID
  5
128A
330
1249
100
AcDbSymbolTableRecord
100
AcDbRegAppTableRecord
  2
MCAD_NO_VIS
 70
     0
  0
APPID
  5
128B
330
1249
100
AcDbSymbolTableRecord
100
AcDbRegAppTableRecord
  2
ACAD_TEMP_GRAPHIC
 70
     0
  0
APPID
  5
12BE
330
1249
100
AcDbSymbolTableRecord
100
AcDbRegAppTableRecord
  2
AD_DRAW
 70
     0
  0
APPID
  5
12C1
330
1249
100
AcDbSymbolTableRecord
100
AcDbRegAppTableRecord
  2
ACATTRIBSERVICES
 70
     0
  0
APPID
  5
130D
330
1249
100
AcDbSymbolTableRecord
100
AcDbRegAppTableRecord
  2
ASURF_PCURVE_APPNAME
 70
     0
  0
APPID
  5
133C
330
1249
100
AcDbSymbolTableRecord
100
AcDbRegAppTableRecord
  2
DESIGNERASSEMBLIES
 70
     0
  0
APPID
  5
1344
330
1249
100
AcDbSymbolTableRecord
100
AcDbRegAppTableRecord
  2
ACADM_DIM_EDIT
 70
     0
  0
APPID
  5
1345
330
1249
100
AcDbSymbolTableRecord
100
AcDbRegAppTableRecord
  2
AMDT_DM_ADJ
 70
     0
  0
ENDTAB
  0
TABLE
  2
DIMSTYLE
  5
124A
330
0
100
AcDbSymbolTable
 70
     8
100
AcDbDimStyleTable
 71
     0
  0
DIMSTYLE
105
125F
330
124A
100
AcDbSymbolTableRecord
100
AcDbDimStyleTableRecord
  2
STANDARD
 70
     0
284
     8
285
     8
286
     8
340
124F
  0
DIMSTYLE
105
1260
330
124A
100
AcDbSymbolTableRecord
100
AcDbDimStyleTableRecord
  2
ISO-25
 70
     0
 41
2.5
 42
0.625
 43
3.75
 44
1.25
 74
     0
 77
     1
 78
     8
140
2.5
141
2.5
143
0.0394
145
1.0
147
0.625
172
     1
284
     8
285
     8
286
     8
340
124F
  0
DIMSTYLE
105
1261
330
124A
100
AcDbSymbolTableRecord
100
AcDbDimStyleTableRecord
  2
ISO-35
 70
     0
 41
3.5
 42
0.875
 43
5.25
 44
1.75
 74
     0
 77
     1
 78
     8
140
3.5
141
3.5
143
0.0394
145
1.399999999999999
147
0.875
172
     1
284
     8
285
     8
286
     8
340
124F
  0
DIMSTYLE
105
1262
330
124A
100
AcDbSymbolTableRecord
100
AcDbDimStyleTableRecord
  2
ISO-5
 70
     0
 41
5.0
 42
1.25
 43
7.5
 44
2.5
 74
     0
 77
     1
 78
     8
140
5.0
141
5.0
143
0.0394
145
2.0
147
1.25
172
     1
284
     8
285
     8
286
     8
340
124F
  0
DIMSTYLE
105
1263
330
124A
100
AcDbSymbolTableRecord
100
AcDbDimStyleTableRecord
  2
ISO-7
 70
     0
 41
7.0
 42
1.75
 43
10.5
 44
3.5
 74
     0
 77
     1
 78
     8
140
7.0
141
7.0
143
0.0394
145
2.799999999999999
147
1.75
172
     1
284
     8
285
     8
286
     8
340
124F
  0
DIMSTYLE
105
1264
330
124A
100
AcDbSymbolTableRecord
100
AcDbDimStyleTableRecord
  2
ISO1
 70
     0
 41
10.0
 42
2.5
 43
15.0
 44
5.0
 74
     0
 77
     1
 78
     8
140
10.0
141
10.0
143
0.0394
145
4.0
147
2.5
172
     1
284
     8
285
     8
286
     8
340
124F
  0
DIMSTYLE
105
1265
330
124A
100
AcDbSymbolTableRecord
100
AcDbDimStyleTableRecord
  2
ISO1-4
 70
     0
 41
14.0
 42
3.5
 43
21.0
 44
7.0
 74
     0
 77
     1
 78
     8
140
14.0
141
14.0
143
0.0394
145
5.599999999999999
147
3.5
172
     1
284
     8
285
     8
286
     8
340
124F
  0
DIMSTYLE
105
1266
330
124A
100
AcDbSymbolTableRecord
100
AcDbDimStyleTableRecord
  2
ISO2
 70
     0
 41
20.0
 42
5.0
 43
30.0
 44
10.0
 74
     0
 77
     1
 78
     8
140
20.0
141
20.0
143
0.0394
145
8.0
147
5.0
172
     1
284
     8
285
     8
286
     8
340
124F
  0
ENDTAB
  0
TABLE
  2
BLOCK_RECORD
  5
1241
330
0
100
AcDbSymbolTable
 70
     1
  0
BLOCK_RECORD
  5
1257
102
{ACAD_XDICTIONARY
360
135A
102
}
330
1241
100
AcDbSymbolTableRecord
100
AcDbBlockTableRecord
  2
*MODEL_SPACE
340
1280
  0
BLOCK_RECORD
  5
1254
330
1241
100
AcDbSymbolTableRecord
100
AcDbBlockTableRecord
  2
*PAPER_SPACE
340
1281
  0
BLOCK_RECORD
  5
1333
330
1241
100
AcDbSymbolTableRecord
100
AcDbBlockTableRecord
  2
*U0
340
0
  0
ENDTAB
  0
ENDSEC
  0
SECTION
  2
BLOCKS
  0
BLOCK
  5
126E
330
1257
100
AcDbEntity
  8
0
100
AcDbBlockBegin
  2
*MODEL_SPACE
 70
     0
 10
0.0
 20
0.0
 30
0.0
  3
*MODEL_SPACE
  1

  0
ENDBLK
  5
126F
330
1257
100
AcDbEntity
  8
0
100
AcDbBlockEnd
  0
BLOCK
  5
126C
330
1254
100
AcDbEntity
 67
     1
  8
0
100
AcDbBlockBegin
  2
*PAPER_SPACE
 70
     0
 10
0.0
 20
0.0
 30
0.0
  3
*PAPER_SPACE
  1

  0
ENDBLK
  5
126D
330
1254
100
AcDbEntity
 67
     1
  8
0
100
AcDbBlockEnd
  0
BLOCK
  5
1334
330
1333
100
AcDbEntity
  8
0
100
AcDbBlockBegin
  2
*U0
 70
     1
 10
0.0
 20
0.0
 30
0.0
  3
*U0
  1

  0
ENDBLK
  5
1335
330
1333
100
AcDbEntity
  8
0
100
AcDbBlockEnd
  0
ENDSEC
  0
SECTION
  2
ENTITIES
  0
LINE
  5
14E2
330
1257
100
AcDbEntity
  8
1
100
AcDbLine
 10
38.64665603394462
 20
63.80367690746337
 30
0.0
 11
94.12713330862084
 21
63.80367690746337
 31
0.0
  0
LINE
  5
14E3
330
1257
100
AcDbEntity
  8
1
100
AcDbLine
 10
67.61236737245042
 20
91.42192032982135
 30
0.0
 11
67.61236737245042
 21
37.07634482546265
 31
0.0
  0
LINE
  5
14E5
330
1257
100
AcDbEntity
  8
1
100
AcDbLine
 10
101.2571546478038
 20
63.80367690746337
 30
0.0
 11
131.5597451829206
 21
63.80367690746337
 31
0.0
  0
TEXT
  5
156D
330
1257
100
AcDbEntity
  8
0
100
AcDbText
 10
80.3127172376735
 20
33.06724486342298
 30
0.0
 40
7.0
  1
ZKN-8
 41
0.8
100
AcDbText
  0
TEXT
  5
156E
330
1257
100
AcDbEntity
  8
0
100
AcDbText
 10
80.3127172376735
 20
24.66724486342298
 30
0.0
 40
7.0
  1
ZKN-8-SUS
 41
0.8
100
AcDbText
  0
CIRCLE
  5
156F
330
1257
100
AcDbEntity
  8
0
100
AcDbCircle
 10
67.61236737245042
 20
63.80367690746337
 30
0.0
 40
15.0
  0
CIRCLE
  5
1570
330
1257
100
AcDbEntity
  8
0
100
AcDbCircle
 10
67.61236737245042
 20
63.80367690746337
 30
0.0
 40
11.5
  0
CIRCLE
  5
1571
330
1257
100
AcDbEntity
  8
0
100
AcDbCircle
 10
67.61236737245042
 20
63.80367690746337
 30
0.0
 40
8.0
  0
LINE
  5
1572
330
1257
100
AcDbEntity
  8
0
100
AcDbLine
 10
105.2677916119914
 20
63.80367690746337
 30
0.0
 11
105.2677916119914
 21
77.80367690746337
 31
0.0
  0
LINE
  5
1573
330
1257
100
AcDbEntity
  8
0
100
AcDbLine
 10
106.2677916119914
 20
78.80367690746337
 30
0.0
 11
114.2677916119914
 21
78.80367690746337
 31
0.0
  0
LINE
  5
1574
330
1257
100
AcDbEntity
  8
0
100
AcDbLine
 10
116.2677916119914
 20
76.80367690746336
 30
0.0
 11
116.2677916119914
 21
63.80367690746337
 31
0.0
  0
LINE
  5
1575
330
1257
100
AcDbEntity
  8
0
100
AcDbLine
 10
116.2677916119914
 20
63.80367690746337
 30
0.0
 11
116.2677916119914
 21
72.80367690746337
 31
0.0
  0
LINE
  5
1576
330
1257
100
AcDbEntity
  8
0
100
AcDbLine
 10
116.2677916119914
 20
72.80367690746337
 30
0.0
 11
126.2677916119914
 21
72.80367690746337
 31
0.0
  0
LINE
  5
1577
330
1257
100
AcDbEntity
  8
0
100
AcDbLine
 10
126.2677916119914
 20
72.80367690746337
 30
0.0
 11
126.2677916119914
 21
63.80367690746337
 31
0.0
  0
LINE
  5
157B
330
1257
100
AcDbEntity
  8
2
100
AcDbLine
 10
105.2677916119914
 20
75.30367690746337
 30
0.0
 11
110.6677916119914
 21
75.30367690746337
 31
0.0
  0
LINE
  5
157C
330
1257
100
AcDbEntity
  8
2
100
AcDbLine
 10
110.6677916119914
 20
75.30367690746337
 30
0.0
 11
110.6677916119914
 21
63.80367690746337
 31
0.0
  0
LINE
  5
157D
330
1257
100
AcDbEntity
  8
2
100
AcDbLine
 10
110.6677916119914
 20
71.80367690746336
 30
0.0
 11
109.0677916119914
 21
71.80367690746336
 31
0.0
  0
LINE
  5
157E
330
1257
100
AcDbEntity
  8
2
100
AcDbLine
 10
109.0677916119914
 20
71.80367690746336
 30
0.0
 11
109.0677916119914
 21
63.80367690746337
 31
0.0
  0
LINE
  5
157F
330
1257
100
AcDbEntity
  8
2
100
AcDbLine
 10
126.2677916119914
 20
63.80367690746337
 30
0.0
 11
126.2677916119914
 21
67.80367690746337
 31
0.0
  0
LINE
  5
1580
330
1257
100
AcDbEntity
  8
2
100
AcDbLine
 10
126.2677916119914
 20
67.80367690746337
 30
0.0
 11
116.2677916119914
 21
67.80367690746337
 31
0.0
  0
LINE
  5
1581
330
1257
100
AcDbEntity
  8
2
100
AcDbLine
 10
126.2677916119914
 20
63.80367690746337
 30
0.0
 11
126.2677916119914
 21
67.00367690746337
 31
0.0
  0
LINE
  5
1582
330
1257
100
AcDbEntity
  8
2
100
AcDbLine
 10
126.2677916119914
 20
67.00367690746337
 30
0.0
 11
114.2677916119914
 21
67.00367690746337
 31
0.0
  0
LINE
  5
1583
330
1257
100
AcDbEntity
  8
2
100
AcDbLine
 10
114.2677916119914
 20
67.00367690746337
 30
0.0
 11
114.2677916119914
 21
63.80367690746337
 31
0.0
  0
LINE
  5
1585
330
1257
100
AcDbEntity
  8
2
100
AcDbLine
 10
114.2677916119914
 20
67.00367690746337
 30
0.0
 11
112.3978129511746
 21
63.80367690746337
 31
0.0
  0
LINE
  5
1586
330
1257
100
AcDbEntity
  8
2
100
AcDbLine
 10
126.2677916119914
 20
63.80367690746337
 30
0.0
 11
126.2677916119914
 21
69.30367690746336
 31
0.0
  0
LINE
  5
1587
330
1257
100
AcDbEntity
  8
2
100
AcDbLine
 10
126.2677916119914
 20
69.30367690746336
 30
0.0
 11
111.2677916119914
 21
69.30367690746336
 31
0.0
  0
LINE
  5
1588
330
1257
100
AcDbEntity
  8
2
100
AcDbLine
 10
111.2677916119914
 20
69.30367690746336
 30
0.0
 11
111.2677916119914
 21
63.80367690746337
 31
0.0
  0
LINE
  5
1597
330
1257
100
AcDbEntity
  8
0
100
AcDbLine
 10
105.2677916119914
 20
64.80367690746337
 30
0.0
 11
113.2677916119914
 21
64.80367690746337
 31
0.0
  0
LINE
  5
1598
330
1257
100
AcDbEntity
  8
0
100
AcDbLine
 10
105.2677916119914
 20
65.80367690746337
 30
0.0
 11
113.2677916119914
 21
65.80367690746337
 31
0.0
  0
LINE
  5
1599
330
1257
100
AcDbEntity
  8
0
100
AcDbLine
 10
105.2677916119914
 20
66.80367690746336
 30
0.0
 11
113.2677916119914
 21
66.80367690746336
 31
0.0
  0
LINE
  5
159A
330
1257
100
AcDbEntity
  8
0
100
AcDbLine
 10
105.2677916119914
 20
67.80367690746337
 30
0.0
 11
113.2677916119914
 21
67.80367690746337
 31
0.0
  0
LINE
  5
159B
330
1257
100
AcDbEntity
  8
0
100
AcDbLine
 10
105.2677916119914
 20
68.80367690746337
 30
0.0
 11
113.2677916119914
 21
68.80367690746337
 31
0.0
  0
LINE
  5
159C
330
1257
100
AcDbEntity
  8
0
100
AcDbLine
 10
105.2677916119914
 20
69.80367690746337
 30
0.0
 11
113.2677916119914
 21
69.80367690746337
 31
0.0
  0
LINE
  5
159D
330
1257
100
AcDbEntity
  8
0
100
AcDbLine
 10
105.2677916119914
 20
70.80367690746337
 30
0.0
 11
113.2677916119914
 21
70.80367690746337
 31
0.0
  0
LINE
  5
159E
330
1257
100
AcDbEntity
  8
0
100
AcDbLine
 10
105.2677916119914
 20
71.80367690746336
 30
0.0
 11
113.2677916119914
 21
71.80367690746336
 31
0.0
  0
LINE
  5
159F
330
1257
100
AcDbEntity
  8
0
100
AcDbLine
 10
105.2677916119914
 20
72.80367690746337
 30
0.0
 11
113.2677916119914
 21
72.80367690746337
 31
0.0
  0
LINE
  5
15A0
330
1257
100
AcDbEntity
  8
0
100
AcDbLine
 10
105.2677916119914
 20
73.80367690746337
 30
0.0
 11
113.2677916119914
 21
73.80367690746337
 31
0.0
  0
LINE
  5
15A1
330
1257
100
AcDbEntity
  8
0
100
AcDbLine
 10
105.2677916119914
 20
74.80367690746337
 30
0.0
 11
113.2677916119914
 21
74.80367690746337
 31
0.0
  0
LINE
  5
15A2
330
1257
100
AcDbEntity
  8
0
100
AcDbLine
 10
105.2677916119914
 20
75.80367690746337
 30
0.0
 11
113.2677916119914
 21
75.80367690746337
 31
0.0
  0
LINE
  5
15A3
330
1257
100
AcDbEntity
  8
0
100
AcDbLine
 10
105.2677916119914
 20
76.80367690746336
 30
0.0
 11
113.2677916119914
 21
76.80367690746336
 31
0.0
  0
LINE
  5
15A4
330
1257
100
AcDbEntity
  8
0
100
AcDbLine
 10
105.2677916119914
 20
77.80367690746337
 30
0.0
 11
113.2677916119914
 21
77.80367690746337
 31
0.0
  0
ARC
  5
15A9
330
1257
100
AcDbEntity
  8
0
100
AcDbCircle
 10
106.2677916119914
 20
77.80367690746337
 30
0.0
 40
1.0
100
AcDbArc
 50
90.0
 51
180.0
  0
ARC
  5
15AA
330
1257
100
AcDbEntity
  8
0
100
AcDbCircle
 10
114.2677916119914
 20
76.80367690746336
 30
0.0
 40
2.0
100
AcDbArc
 50
0.0
 51
90.0
  0
LINE
  5
15E9
330
1257
100
AcDbEntity
  8
0
100
AcDbLine
 10
105.2677916119914
 20
49.80367690746337
 30
0.0
 11
113.2677916119914
 21
49.80367690746337
 31
0.0
  0
LINE
  5
15EA
330
1257
100
AcDbEntity
  8
0
100
AcDbLine
 10
105.2677916119914
 20
50.80367690746337
 30
0.0
 11
113.2677916119914
 21
50.80367690746337
 31
0.0
  0
LINE
  5
15EB
330
1257
100
AcDbEntity
  8
0
100
AcDbLine
 10
105.2677916119914
 20
51.80367690746336
 30
0.0
 11
113.2677916119914
 21
51.80367690746336
 31
0.0
  0
LINE
  5
15EC
330
1257
100
AcDbEntity
  8
0
100
AcDbLine
 10
105.2677916119914
 20
52.80367690746337
 30
0.0
 11
113.2677916119914
 21
52.80367690746337
 31
0.0
  0
LINE
  5
15ED
330
1257
100
AcDbEntity
  8
0
100
AcDbLine
 10
105.2677916119914
 20
53.80367690746337
 30
0.0
 11
113.2677916119914
 21
53.80367690746337
 31
0.0
  0
LINE
  5
15EE
330
1257
100
AcDbEntity
  8
0
100
AcDbLine
 10
105.2677916119914
 20
54.80367690746337
 30
0.0
 11
113.2677916119914
 21
54.80367690746337
 31
0.0
  0
LINE
  5
15EF
330
1257
100
AcDbEntity
  8
0
100
AcDbLine
 10
105.2677916119914
 20
55.80367690746337
 30
0.0
 11
113.2677916119914
 21
55.80367690746337
 31
0.0
  0
LINE
  5
15F0
330
1257
100
AcDbEntity
  8
0
100
AcDbLine
 10
105.2677916119914
 20
56.80367690746336
 30
0.0
 11
113.2677916119914
 21
56.80367690746336
 31
0.0
  0
LINE
  5
15F1
330
1257
100
AcDbEntity
  8
0
100
AcDbLine
 10
105.2677916119914
 20
57.80367690746337
 30
0.0
 11
113.2677916119914
 21
57.80367690746337
 31
0.0
  0
LINE
  5
15F2
330
1257
100
AcDbEntity
  8
0
100
AcDbLine
 10
105.2677916119914
 20
58.80367690746337
 30
0.0
 11
113.2677916119914
 21
58.80367690746337
 31
0.0
  0
LINE
  5
15F3
330
1257
100
AcDbEntity
  8
0
100
AcDbLine
 10
105.2677916119914
 20
59.80367690746337
 30
0.0
 11
113.2677916119914
 21
59.80367690746337
 31
0.0
  0
LINE
  5
15F4
330
1257
100
AcDbEntity
  8
0
100
AcDbLine
 10
105.2677916119914
 20
60.80367690746337
 30
0.0
 11
113.2677916119914
 21
60.80367690746337
 31
0.0
  0
LINE
  5
15F5
330
1257
100
AcDbEntity
  8
0
100
AcDbLine
 10
105.2677916119914
 20
61.80367690746336
 30
0.0
 11
113.2677916119914
 21
61.80367690746336
 31
0.0
  0
LINE
  5
15F6
330
1257
100
AcDbEntity
  8
0
100
AcDbLine
 10
105.2677916119914
 20
62.80367690746337
 30
0.0
 11
113.2677916119914
 21
62.80367690746337
 31
0.0
  0
LINE
  5
15F7
330
1257
100
AcDbEntity
  8
2
100
AcDbLine
 10
110.6677916119914
 20
55.80367690746337
 30
0.0
 11
109.0677916119914
 21
55.80367690746337
 31
0.0
  0
LINE
  5
15F8
330
1257
100
AcDbEntity
  8
2
100
AcDbLine
 10
105.2677916119914
 20
52.30367690746337
 30
0.0
 11
110.6677916119914
 21
52.30367690746337
 31
0.0
  0
LINE
  5
15F9
330
1257
100
AcDbEntity
  8
0
100
AcDbLine
 10
106.2677916119914
 20
48.80367690746337
 30
0.0
 11
114.2677916119914
 21
48.80367690746337
 31
0.0
  0
LINE
  5
15FA
330
1257
100
AcDbEntity
  8
2
100
AcDbLine
 10
109.0677916119914
 20
55.80367690746337
 30
0.0
 11
109.0677916119914
 21
63.80367690746337
 31
0.0
  0
LINE
  5
15FB
330
1257
100
AcDbEntity
  8
0
100
AcDbLine
 10
105.2677916119914
 20
63.80367690746337
 30
0.0
 11
105.2677916119914
 21
49.80367690746337
 31
0.0
  0
ARC
  5
15FC
330
1257
100
AcDbEntity
  8
0
100
AcDbCircle
 10
106.2677916119914
 20
49.80367690746337
 30
0.0
 40
1.0
100
AcDbArc
 50
180.0
 51
270.0
  0
LINE
  5
15FD
330
1257
100
AcDbEntity
  8
2
100
AcDbLine
 10
110.6677916119914
 20
52.30367690746337
 30
0.0
 11
110.6677916119914
 21
63.80367690746337
 31
0.0
  0
LINE
  5
15FE
330
1257
100
AcDbEntity
  8
0
100
AcDbLine
 10
126.2677916119914
 20
54.80367690746337
 30
0.0
 11
126.2677916119914
 21
63.80367690746337
 31
0.0
  0
LINE
  5
15FF
330
1257
100
AcDbEntity
  8
0
100
AcDbLine
 10
116.2677916119914
 20
63.80367690746337
 30
0.0
 11
116.2677916119914
 21
54.80367690746337
 31
0.0
  0
LINE
  5
1600
330
1257
100
AcDbEntity
  8
0
100
AcDbLine
 10
116.2677916119914
 20
50.80367690746337
 30
0.0
 11
116.2677916119914
 21
63.80367690746337
 31
0.0
  0
LINE
  5
1601
330
1257
100
AcDbEntity
  8
2
100
AcDbLine
 10
126.2677916119914
 20
58.30367690746337
 30
0.0
 11
111.2677916119914
 21
58.30367690746337
 31
0.0
  0
LINE
  5
1602
330
1257
100
AcDbEntity
  8
2
100
AcDbLine
 10
126.2677916119914
 20
60.60367690746336
 30
0.0
 11
114.2677916119914
 21
60.60367690746336
 31
0.0
  0
LINE
  5
1603
330
1257
100
AcDbEntity
  8
2
100
AcDbLine
 10
126.2677916119914
 20
59.80367690746337
 30
0.0
 11
116.2677916119914
 21
59.80367690746337
 31
0.0
  0
LINE
  5
1604
330
1257
100
AcDbEntity
  8
2
100
AcDbLine
 10
111.2677916119914
 20
58.30367690746337
 30
0.0
 11
111.2677916119914
 21
63.80367690746337
 31
0.0
  0
LINE
  5
1605
330
1257
100
AcDbEntity
  8
2
100
AcDbLine
 10
114.2677916119914
 20
60.60367690746336
 30
0.0
 11
112.3978129511746
 21
63.80367690746337
 31
0.0
  0
LINE
  5
1606
330
1257
100
AcDbEntity
  8
2
100
AcDbLine
 10
114.2677916119914
 20
60.60367690746336
 30
0.0
 11
114.2677916119914
 21
63.80367690746337
 31
0.0
  0
LINE
  5
1607
330
1257
100
AcDbEntity
  8
2
100
AcDbLine
 10
126.2677916119914
 20
63.80367690746337
 30
0.0
 11
126.2677916119914
 21
58.30367690746337
 31
0.0
  0
LINE
  5
1608
330
1257
100
AcDbEntity
  8
2
100
AcDbLine
 10
126.2677916119914
 20
63.80367690746337
 30
0.0
 11
126.2677916119914
 21
60.60367690746336
 31
0.0
  0
LINE
  5
1609
330
1257
100
AcDbEntity
  8
2
100
AcDbLine
 10
126.2677916119914
 20
63.80367690746337
 30
0.0
 11
126.2677916119914
 21
59.80367690746337
 31
0.0
  0
LINE
  5
160A
330
1257
100
AcDbEntity
  8
0
100
AcDbLine
 10
116.2677916119914
 20
54.80367690746337
 30
0.0
 11
126.2677916119914
 21
54.80367690746337
 31
0.0
  0
ARC
  5
160B
330
1257
100
AcDbEntity
  8
0
100
AcDbCircle
 10
114.2677916119914
 20
50.80367690746337
 30
0.0
 40
2.0
100
AcDbArc
 50
270.0
 51
0.0
  0
VIEWPORT
  5
22
330
1254
100
AcDbEntity
 67
     1
  8
0
100
AcDbViewport
 10
261.517699
 20
148.5
 30
0.0
 40
523.0353980000001
 41
297.0
 68
    -1
 69
     1
 12
261.517699
 22
148.5
 13
0.0
 23
0.0
 14
1.0
 24
1.0
 15
10.0
 25
10.0
 16
0.0
 26
0.0
 36
1.0
 17
0.0
 27
0.0
 37
0.0
 42
50.0
 43
0.0
 44
0.0
 45
297.0
 50
0.0
 51
0.0
 72
   100
 90
    32800
  1

281
     0
 71
     1
 74
     0
110
0.0
120
0.0
130
0.0
111
1.0
121
0.0
131
0.0
112
0.0
122
1.0
132
0.0
 79
     0
146
0.0
  0
ENDSEC
  0
SECTION
  2
OBJECTS
  0
DICTIONARY
  5
124C
330
0
100
AcDbDictionary
281
     1
  3
ACAD_GROUP
350
124D
  3
ACAD_LAYOUT
350
127E
  3
ACAD_MLINESTYLE
350
125A
  3
ACAD_PLOTSETTINGS
350
127F
  3
ACAD_PLOTSTYLENAME
350
127C
  3
ACDBVARIABLEDICTIONARY
350
1270
  3
AcmDictionary
350
133D
  3
AMG
350
1283
  3
AMGSNAPSETTINGS
350
1364
  3
DWGPROPS
350
15E1
  3
MAPISURF_MODULE
350
1310
  0
DICTIONARY
  5
135A
330
1257
100
AcDbDictionary
280
     1
281
     1
  3
ACAD_INDEX
360
135B
  0
DICTIONARY
  5
124D
102
{ACAD_REACTORS
330
124C
102
}
330
124C
100
AcDbDictionary
281
     1
  0
DICTIONARY
  5
127E
102
{ACAD_REACTORS
330
124C
102
}
330
124C
100
AcDbDictionary
281
     1
  3
Model
350
1280
  3
ﾚｲｱｳﾄ1
350
1281
  0
DICTIONARY
  5
125A
102
{ACAD_REACTORS
330
124C
102
}
330
124C
100
AcDbDictionary
281
     1
  3
STANDARD
350
125B
  0
DICTIONARY
  5
127F
102
{ACAD_REACTORS
330
124C
102
}
330
124C
100
AcDbDictionary
281
     1
  0
ACDBDICTIONARYWDFLT
  5
127C
102
{ACAD_REACTORS
330
124C
102
}
330
124C
100
AcDbDictionary
281
     1
  3
Normal
350
127D
100
AcDbDictionaryWithDefault
340
127D
  0
DICTIONARY
  5
1270
102
{ACAD_REACTORS
330
124C
102
}
330
124C
100
AcDbDictionary
281
     1
  3
DIMADEC
350
1271
  3
DIMASSOC
350
1363
  3
INDEXCTL
350
1362
  0
DICTIONARY
  5
133D
102
{ACAD_REACTORS
330
124C
102
}
330
124C
100
AcDbDictionary
281
     1
  3
AcmBOMDATA
350
133E
  0
DICTIONARY
  5
1283
102
{ACAD_REACTORS
330
124C
102
}
330
124C
100
AcDbDictionary
281
     1
  3
AcMgSettings
350
1284
  3
AMGLAYCFG
350
134A
  0
DICTIONARY
  5
1364
102
{ACAD_REACTORS
330
124C
102
}
330
124C
100
AcDbDictionary
281
     1
  3
DIMENSION
350
1369
  3
FEA
350
1368
  3
HATCH (1)
350
1365
  3
HATCH (2)
350
1366
  3
SIMPLE WELD
350
136A
  3
SYMBOLS
350
1367
  0
XRECORD
  5
15E1
102
{ACAD_REACTORS
330
124C
102
}
330
124C
100
AcDbXrecord
280
     1
  1
DWGPROPS COOKIE
  2

  3

  4

  6

  7

  8

  9

300
AmdtFileType=84
301
=
302
=
303
=
304
=
305
=
306
=
307
=
308
=
309
=
 40
0.0842373726851852
 41
2450687.671712963
 42
2454131.483340566
  1

 90
        1
  0
DICTIONARY
  5
135B
102
{ACAD_REACTORS
330
135A
102
}
330
135A
100
AcDbDictionary
281
     1
  3
*A1
350
135C
  0
LAYOUT
  5
1280
102
{ACAD_REACTORS
330
127E
102
}
330
127E
100
AcDbPlotSettings
  1

  2
EPSON PM-3700C
  4

  6

 40
0.0
 41
0.0
 42
0.0
 43
0.0
 44
0.0
 45
0.0
 46
0.0
 47
0.0
 48
0.0
 49
0.0
140
0.0
141
0.0
142
1.0
143
1.0
 70
  1712
 72
     0
 73
     0
 74
     0
  7

 75
     0
147
1.0
148
0.0
149
0.0
100
AcDbLayout
  1
Model
 70
     1
 71
     0
 10
0.0
 20
0.0
 11
12.0
 21
9.0
 12
0.0
 22
0.0
 32
0.0
 14
0.0
 24
0.0
 34
0.0
 15
0.0
 25
0.0
 35
0.0
146
0.0
 13
0.0
 23
0.0
 33
0.0
 16
1.0
 26
0.0
 36
0.0
 17
0.0
 27
1.0
 37
0.0
 76
     0
330
1257
  0
LAYOUT
  5
1281
102
{ACAD_REACTORS
330
127E
102
}
330
127E
100
AcDbPlotSettings
  1

  2
EPSON PM-3700C
  4

  6

 40
0.0
 41
0.0
 42
0.0
 43
0.0
 44
0.0
 45
0.0
 46
0.0
 47
0.0
 48
0.0
 49
0.0
140
0.0
141
0.0
142
1.0
143
1.0
 70
   688
 72
     0
 73
     0
 74
     5
  7

 75
    16
147
1.0
148
0.0
149
0.0
100
AcDbLayout
  1
ﾚｲｱｳﾄ1
 70
     1
 71
     1
 10
0.0
 20
0.0
 11
420.0
 21
297.0
 12
0.0
 22
0.0
 32
0.0
 14
1.000000000000000E+20
 24
1.000000000000000E+20
 34
1.000000000000000E+20
 15
-1.000000000000000E+20
 25
-1.000000000000000E+20
 35
-1.000000000000000E+20
146
0.0
 13
0.0
 23
0.0
 33
0.0
 16
1.0
 26
0.0
 36
0.0
 17
0.0
 27
1.0
 37
0.0
 76
     0
330
1254
  0
MLINESTYLE
  5
125B
102
{ACAD_REACTORS
330
125A
102
}
330
125A
100
AcDbMlineStyle
  2
STANDARD
 70
     0
  3

 62
   256
 51
90.0
 52
90.0
 71
     2
 49
0.5
 62
   256
  6
BYLAYER
 49
-0.5
 62
   256
  6
BYLAYER
  0
ACDBPLACEHOLDER
  5
127D
102
{ACAD_REACTORS
330
127C
102
}
330
127C
  0
DICTIONARYVAR
  5
1271
102
{ACAD_REACTORS
330
1270
102
}
330
1270
100
DictionaryVariables
280
     0
  1
0
  0
DICTIONARYVAR
  5
1363
102
{ACAD_REACTORS
330
1270
102
}
330
1270
100
DictionaryVariables
280
     0
  1
1
  0
DICTIONARYVAR
  5
1362
102
{ACAD_REACTORS
330
1270
102
}
330
1270
100
DictionaryVariables
280
     0
  1
1
  0
ACMDATADICTIONARY
  5
133E
102
{ACAD_REACTORS
330
133D
102
}
330
133D
100
AcDbDictionary
281
     1
  3
*A1
350
133F
100
AcmDataDictionary
  0
DICTIONARY
  5
1284
102
{ACAD_REACTORS
330
1283
102
}
330
1283
100
AcDbDictionary
281
     1
  3
DWGSETTINGS
350
1285
  0
ACAMGFILTERDAT
  5
1369
102
{ACAD_REACTORS
330
1364
102
}
330
1364
100
AcAmgFilterDat
 70
    15
  1
DIMENSION,AMDT_*_DIM
  2
*
  3
*
  4
*
  5
*
290
     1
  0
ACAMGFILTERDAT
  5
1368
102
{ACAD_REACTORS
330
1364
102
}
330
1364
100
AcAmgFilterDat
 70
    15
  1
*
  2
AM_FEA-AM_*
  3
*
  4
*
  5
*
290
     1
  0
ACAMGFILTERDAT
  5
1365
102
{ACAD_REACTORS
330
1364
102
}
330
1364
100
AcAmgFilterDat
 70
    15
  1
HATCH
  2
*
  3
*
  4
*
  5
*
290
     1
  0
ACAMGFILTERDAT
  5
1366
102
{ACAD_REACTORS
330
1364
102
}
330
1364
100
AcAmgFilterDat
 70
    15
  1
LINE
  2
8,8N,*-8,*-8N,AM_8,AM_8N,*-AM_8,*-AM_8N
  3
*
  4
*
  5
INSERT,STDPART2D
290
     1
  0
ACAMGFILTERDAT
  5
136A
102
{ACAD_REACTORS
330
1364
102
}
330
1364
100
AcAmgFilterDat
 70
    15
  1
ARC
  2
AM_5
  3
*
  4
2
  5
INSERT
290
     0
  0
ACAMGFILTERDAT
  5
1367
102
{ACAD_REACTORS
330
1364
102
}
330
1364
100
AcAmgFilterDat
 70
    15
  1
ACMFCFRAME,ACMDATUMTARGET,ACMDATUMID,ACMWELDSYM,ACMSURFSYM,ACMFEATID,ACMPARTREF,ACMBALLOON,AMDTEDGESYM,AMGSCREWCALCTABLE
  2
*
  3
*
  4
*
  5
*
290
     1
  0
LAYER_INDEX
  5
135C
102
{ACAD_REACTORS
330
135B
102
}
330
135B
100
AcDbIndex
 40
2454131.485789201
100
AcDbLayerIndex
  8
0
360
135D
 90
       49
  8
2
360
135E
 90
       26
  8
1
360
135F
 90
        3
  8
3
360
1360
 90
        0
  0
ACMDATAENTRYBLOCK
  5
133F
102
{ACAD_REACTORS
330
133E
102
}
330
133E
100
AcmDataEntry
100
AcmDataEntryBlock
  0
IDBUFFER
  5
135D
330
0
100
AcDbIdBuffer
330
15E9
330
15EA
330
15EB
330
15EC
330
15ED
330
15EE
330
15EF
330
15F0
330
15F1
330
15F2
330
15F3
330
15F4
330
15F5
330
15F6
330
15F9
330
15FB
330
15FC
330
15FE
330
15FF
330
1600
330
160A
330
160B
330
156D
330
156E
330
156F
330
1570
330
1571
330
1572
330
1573
330
1574
330
1575
330
1576
330
1577
330
1597
330
1598
330
1599
330
159A
330
159B
330
159C
330
159D
330
159E
330
159F
330
15A0
330
15A1
330
15A2
330
15A3
330
15A4
330
15A9
330
15AA
  0
IDBUFFER
  5
135E
330
0
100
AcDbIdBuffer
330
15F7
330
15F8
330
15FA
330
15FD
330
1601
330
1602
330
1603
330
1604
330
1605
330
1606
330
1607
330
1608
330
1609
330
157B
330
157C
330
157D
330
157E
330
157F
330
1580
330
1581
330
1582
330
1583
330
1585
330
1586
330
1587
330
1588
  0
IDBUFFER
  5
135F
330
0
100
AcDbIdBuffer
330
14E2
330
14E3
330
14E5
  0
IDBUFFER
  5
1360
330
0
100
AcDbIdBuffer
  0
ENDSEC
  0
EOF
