  0
SECTION
  2
HEADER
  9
$ACADVER
  1
AC1009
  9
$INSBASE
 10
0.0
 20
0.0
 30
0.0
  9
$EXTMIN
 10
65.0
 20
46.0
 30
0.0
  9
$EXTMAX
 10
184.910929
 20
104.0
 30
0.0
  9
$LIMMIN
 10
0.0
 20
0.0
  9
$LIMMAX
 10
250.0
 20
160.0
  9
$ORTHOMODE
 70
     0
  9
$REGENMODE
 70
     1
  9
$FILLMODE
 70
     1
  9
$QTEXTMODE
 70
     0
  9
$MIRRTEXT
 70
     1
  9
$DRAGMODE
 70
     0
  9
$LTSCALE
 40
10.0
  9
$OSMODE
 70
     0
  9
$ATTMODE
 70
     2
  9
$TEXTSIZE
 40
5.5
  9
$TRACEWID
 40
0.05
  9
$TEXTSTYLE
  7
STANDARD
  9
$CLAYER
  8
0
  9
$CELTYPE
  6
BYLAYER
  9
$CECOLOR
 62
   256
  9
$DIMSCALE
 40
1.0
  9
$DIMASZ
 40
3.0
  9
$DIMEXO
 40
2.0
  9
$DIMDLI
 40
0.38
  9
$DIMRND
 40
0.0
  9
$DIMDLE
 40
0.0
  9
$DIMEXE
 40
2.0
  9
$DIMTP
 40
0.0
  9
$DIMTM
 40
0.0
  9
$DIMTXT
 40
3.2
  9
$DIMCEN
 40
0.09
  9
$DIMTSZ
 40
0.0
  9
$DIMTOL
 70
     0
  9
$DIMLIM
 70
     0
  9
$DIMTIH
 70
     0
  9
$DIMTOH
 70
     0
  9
$DIMSE1
 70
     0
  9
$DIMSE2
 70
     0
  9
$DIMTAD
 70
     1
  9
$DIMZIN
 70
     0
  9
$DIMBLK
  1

  9
$DIMASO
 70
     0
  9
$DIMSHO
 70
     0
  9
$DIMPOST
  1

  9
$DIMAPOST
  1

  9
$DIMALT
 70
     0
  9
$DIMALTD
 70
     2
  9
$DIMALTF
 40
25.4
  9
$DIMLFAC
 40
1.0
  9
$DIMTOFL
 70
     0
  9
$DIMTVP
 40
0.0
  9
$DIMTIX
 70
     0
  9
$DIMSOXD
 70
     0
  9
$DIMSAH
 70
     0
  9
$DIMBLK1
  1

  9
$DIMBLK2
  1

  9
$DIMSTYLE
  2
STANDARD
  9
$DIMCLRD
 70
     0
  9
$DIMCLRE
 70
     0
  9
$DIMCLRT
 70
     0
  9
$DIMTFAC
 40
1.0
  9
$DIMGAP
 40
0.09
  9
$LUNITS
 70
     2
  9
$LUPREC
 70
     4
  9
$SKETCHINC
 40
0.1
  9
$FILLETRAD
 40
0.0
  9
$AUNITS
 70
     0
  9
$AUPREC
 70
     0
  9
$MENU
  1
ACAD
  9
$ELEVATION
 40
0.0
  9
$PELEVATION
 40
0.0
  9
$THICKNESS
 40
0.0
  9
$LIMCHECK
 70
     0
  9
$BLIPMODE
 70
     0
  9
$CHAMFERA
 40
0.0
  9
$CHAMFERB
 40
0.0
  9
$SKPOLY
 70
     0
  9
$TDCREATE
 40
2450868.806217
  9
$TDUPDATE
 40
2450868.806217
  9
$TDINDWG
 40
0.0
  9
$TDUSRTIMER
 40
0.0
  9
$USRTIMER
 70
     1
  9
$ANGBASE
 50
0.0
  9
$ANGDIR
 70
     0
  9
$PDMODE
 70
     0
  9
$PDSIZE
 40
0.0
  9
$PLINEWID
 40
0.0
  9
$COORDS
 70
     2
  9
$SPLFRAME
 70
     0
  9
$SPLINETYPE
 70
     6
  9
$SPLINESEGS
 70
     8
  9
$ATTDIA
 70
     0
  9
$ATTREQ
 70
     1
  9
$HANDLING
 70
     1
  9
$HANDSEED
  5
1A8
  9
$SURFTAB1
 70
     6
  9
$SURFTAB2
 70
     6
  9
$SURFTYPE
 70
     6
  9
$SURFU
 70
     6
  9
$SURFV
 70
     6
  9
$UCSNAME
  2

  9
$UCSORG
 10
0.0
 20
0.0
 30
0.0
  9
$UCSXDIR
 10
1.0
 20
0.0
 30
0.0
  9
$UCSYDIR
 10
0.0
 20
1.0
 30
0.0
  9
$PUCSNAME
  2

  9
$PUCSORG
 10
0.0
 20
0.0
 30
0.0
  9
$PUCSXDIR
 10
1.0
 20
0.0
 30
0.0
  9
$PUCSYDIR
 10
0.0
 20
1.0
 30
0.0
  9
$USERI1
 70
     0
  9
$USERI2
 70
     0
  9
$USERI3
 70
     0
  9
$USERI4
 70
     0
  9
$USERI5
 70
     0
  9
$USERR1
 40
0.0
  9
$USERR2
 40
0.0
  9
$USERR3
 40
0.0
  9
$USERR4
 40
0.0
  9
$USERR5
 40
0.0
  9
$WORLDVIEW
 70
     1
  9
$SHADEDGE
 70
     3
  9
$SHADEDIF
 70
    70
  9
$TILEMODE
 70
     1
  9
$MAXACTVP
 70
    16
  9
$PLIMCHECK
 70
     0
  9
$PEXTMIN
 10
1.000000E+020
 20
1.000000E+020
 30
1.000000E+020
  9
$PEXTMAX
 10
-1.000000E+020
 20
-1.000000E+020
 30
-1.000000E+020
  9
$PLIMMIN
 10
0.0
 20
0.0
  9
$PLIMMAX
 10
12.0
 20
9.0
  9
$UNITMODE
 70
     0
  9
$VISRETAIN
 70
     0
  9
$PLINEGEN
 70
   284
  9
$PSLTSCALE
 70
     0
  0
ENDSEC
  0
SECTION
  2
TABLES
  0
TABLE
  2
VPORT
 70
     3
  0
VPORT
  2
*ACTIVE
 70
     0
 10
0.0
 20
0.0
 11
1.0
 21
1.0
 12
141.889764
 22
104.826211
 13
0.0
 23
0.0
 14
5.0
 24
5.0
 15
10.0
 25
10.0
 16
0.0
 26
0.0
 36
1.0
 17
0.0
 27
0.0
 37
0.0
 40
209.652421
 41
1.353571
 42
50.0
 43
0.0
 44
0.0
 50
0.0
 51
0.0
 71
     0
 72
   500
 73
     1
 74
     1
 75
     1
 76
     1
 77
     0
 78
     0
  0
ENDTAB
  0
TABLE
  2
LTYPE
 70
     2
  0
LTYPE
  2
CONTINUOUS
 70
     0
  3
Solid line
 72
    65
 73
     0
 40
0.0
  0
LTYPE
  2
CENTER
 70
     0
  3
____ _ ____ _ ____ _ ____ _ ____ _ ____ _ ____
 72
    65
 73
     4
 40
2.0
 49
1.25
 49
-0.25
 49
0.25
 49
-0.25
  0
ENDTAB
  0
TABLE
  2
LAYER
 70
     5
  0
LAYER
  2
0
 70
     0
 62
     7
  6
CONTINUOUS
  0
LAYER
  2
1
 70
     0
 62
     1
  6
CENTER
  0
LAYER
  2
3
 70
     0
 62
     3
  6
CONTINUOUS
  0
LAYER
  2
10
 70
     0
 62
     7
  6
CONTINUOUS
  0
LAYER
  2
11
 70
     0
 62
     3
  6
CONTINUOUS
  0
ENDTAB
  0
TABLE
  2
STYLE
 70
     3
  0
STYLE
  2
STANDARD
 70
     0
 40
0.0
 41
1.0
 50
0.0
 71
     0
 42
0.2
  3
TXT
  4
BIGFONT
  0
STYLE
  2
07500
 70
     0
 40
0.0
 41
0.75
 50
0.0
 71
     0
 42
6.0
  3
TXT
  4
BIGFONT
  0
STYLE
  2
BIGFONT
 70
     0
 40
5.5
 41
0.8
 50
0.0
 71
     0
 42
5.5
  3

  4
bigfont
  0
ENDTAB
  0
TABLE
  2
VIEW
 70
     1
  0
VIEW
  2
ALL
 70
     0
 40
270.0
 10
220.991597
 20
135.0
 41
0.0
 11
0.0
 21
0.0
 31
1.0
 12
0.0
 22
0.0
 32
0.0
 42
0.0
 43
0.0
 44
0.0
 50
0.0
 71
     0
  0
ENDTAB
  0
TABLE
  2
UCS
 70
     0
  0
ENDTAB
  0
TABLE
  2
APPID
 70
     1
  0
APPID
  2
ACAD
 70
     0
  0
ENDTAB
  0
TABLE
  2
DIMSTYLE
 70
     1
  0
DIMSTYLE
  2
STANDARD
 70
     0
  3

  4

  5

  6

  7

 40
1.0
 41
0.18
 42
0.0625
 43
0.38
 44
0.18
 45
0.0
 46
0.0
 47
0.0
 48
0.0
140
0.18
141
0.09
142
0.0
143
25.4
144
1.0
145
0.0
146
1.0
147
0.09
 71
     0
 72
     0
 73
     1
 74
     1
 75
     0
 76
     0
 77
     0
 78
     0
170
     0
171
     2
172
     0
173
     0
174
     0
175
     0
176
     0
177
     0
178
     0
  0
ENDTAB
  0
ENDSEC
  0
SECTION
  2
BLOCKS
  0
BLOCK
  8
0
  2
$MODEL_SPACE
 70
     0
 10
0.0
 20
0.0
 30
0.0
  3
$MODEL_SPACE
  1

  0
ENDBLK
  5
1A1
  8
0
  0
BLOCK
 67
     1
  8
0
  2
$PAPER_SPACE
 70
     0
 10
0.0
 20
0.0
 30
0.0
  3
$PAPER_SPACE
  1

  0
ENDBLK
  5
19F
 67
     1
  8
0
  0
BLOCK
  8
0
  2
QQ
 70
     0
 10
270.0
 20
0.0
 30
0.0
  3
QQ
  1

  0
LINE
  5
2C
  8
11
 10
173.0
 20
36.0
 30
0.0
 11
270.0
 21
36.0
 31
0.0
  0
TEXT
  5
2D
  8
11
 10
175.0
 20
32.5
 30
0.0
 40
2.5
  1
部品名称
  0
LINE
  5
2E
  8
11
 10
173.0
 20
36.0
 30
0.0
 11
173.0
 21
0.0
 31
0.0
  0
LINE
  5
2F
  8
11
 10
173.0
 20
24.0
 30
0.0
 11
270.0
 21
24.0
 31
0.0
  0
TEXT
  5
30
  8
11
 10
175.0
 20
20.5
 30
0.0
 40
2.5
  1
品番
  0
LINE
  5
31
  8
11
 10
173.0
 20
12.0
 30
0.0
 11
270.0
 21
12.0
 31
0.0
  0
TEXT
  5
32
  8
11
 10
175.0
 20
8.5
 30
0.0
 40
2.5
  1
尺度
  0
TEXT
  5
33
  8
11
 10
200.0
 20
8.5
 30
0.0
 40
2.5
  1
図番
  0
LINE
  5
34
  8
11
 10
198.0
 20
0.0
 30
0.0
 11
198.0
 21
12.0
 31
0.0
  0
ENDBLK
  5
35
  8
0
  0
ENDSEC
  0
SECTION
  2
ENTITIES
  0
LINE
  5
36
  8
3
 10
169.910929
 20
98.4
 30
0.0
 11
169.910929
 21
93.6
 31
0.0
  0
LINE
  5
37
  8
0
 10
167.110929
 20
51.0
 30
0.0
 11
165.910929
 21
52.2
 31
0.0
  0
LINE
  5
38
  8
0
 10
165.910929
 20
52.2
 30
0.0
 11
165.910929
 21
78.5
 31
0.0
  0
LINE
  5
39
  8
0
 10
166.910929
 20
79.1
 30
0.0
 11
166.910929
 21
80.4
 31
0.0
  0
LINE
  5
3A
  8
0
 10
162.510929
 20
81.0
 30
0.0
 11
161.910929
 21
81.6
 31
0.0
  0
LINE
  5
3B
  8
0
 10
161.910929
 20
81.6
 30
0.0
 11
161.910929
 21
91.0
 31
0.0
  0
LINE
  5
3C
  8
0
 10
155.510929
 20
93.0
 30
0.0
 11
154.910929
 21
93.6
 31
0.0
  0
LINE
  5
3D
  8
0
 10
154.910929
 20
93.6
 30
0.0
 11
154.910929
 21
98.4
 31
0.0
  0
LINE
  5
3E
  8
0
 10
154.910929
 20
98.4
 30
0.0
 11
155.510929
 21
99.0
 31
0.0
  0
ARC
  5
3F
  8
0
 10
159.910929
 20
91.0
 30
0.0
 40
2.0
 50
360.0
 51
90.0
  0
ARC
  5
40
  8
0
 10
166.310929
 20
80.4
 30
0.0
 40
0.6
 50
0.0
 51
90.0
  0
ARC
  5
41
  8
0
 10
166.310929
 20
79.1
 30
0.0
 40
0.6
 50
270.0
 51
0.0
  0
LINE
  5
42
  8
3
 10
166.587429
 20
51.5235
 30
0.0
 11
166.587429
 21
78.567508
 31
0.0
  0
LINE
  5
43
  8
3
 10
155.382181
 20
98.4
 30
0.0
 11
155.382181
 21
93.6
 31
0.0
  0
LINE
  5
44
  8
3
 10
155.17662
 20
98.4
 30
0.0
 11
155.17662
 21
93.6
 31
0.0
  0
LINE
  5
45
  8
3
 10
155.029208
 20
98.4
 30
0.0
 11
155.029208
 21
93.6
 31
0.0
  0
LINE
  5
46
  8
0
 10
154.940528
 20
98.4
 30
0.0
 11
154.940528
 21
93.6
 31
0.0
  0
LINE
  5
47
  8
3
 10
155.645081
 20
98.4
 30
0.0
 11
155.645081
 21
93.6
 31
0.0
  0
LINE
  5
48
  8
3
 10
155.964281
 20
98.4
 30
0.0
 11
155.964281
 21
93.6
 31
0.0
  0
LINE
  5
49
  8
3
 10
156.338523
 20
98.4
 30
0.0
 11
156.338523
 21
93.6
 31
0.0
  0
LINE
  5
4A
  8
3
 10
156.766328
 20
98.4
 30
0.0
 11
156.766328
 21
93.6
 31
0.0
  0
LINE
  5
4B
  8
3
 10
157.24601
 20
98.4
 30
0.0
 11
157.24601
 21
93.6
 31
0.0
  0
LINE
  5
4C
  8
3
 10
157.775674
 20
98.4
 30
0.0
 11
157.775674
 21
93.6
 31
0.0
  0
LINE
  5
4D
  8
3
 10
158.35323
 20
98.4
 30
0.0
 11
158.35323
 21
93.6
 31
0.0
  0
LINE
  5
4E
  8
3
 10
158.976399
 20
98.4
 30
0.0
 11
158.976399
 21
93.6
 31
0.0
  0
LINE
  5
4F
  8
3
 10
159.642722
 20
98.4
 30
0.0
 11
159.642722
 21
93.6
 31
0.0
  0
LINE
  5
50
  8
3
 10
160.349569
 20
98.4
 30
0.0
 11
160.349569
 21
93.6
 31
0.0
  0
LINE
  5
51
  8
3
 10
161.09415
 20
98.4
 30
0.0
 11
161.09415
 21
93.6
 31
0.0
  0
LINE
  5
52
  8
3
 10
161.873527
 20
98.4
 30
0.0
 11
161.873527
 21
93.6
 31
0.0
  0
LINE
  5
53
  8
3
 10
162.684624
 20
98.4
 30
0.0
 11
162.684624
 21
93.6
 31
0.0
  0
LINE
  5
54
  8
3
 10
163.524239
 20
98.4
 30
0.0
 11
163.524239
 21
93.6
 31
0.0
  0
LINE
  5
55
  8
3
 10
164.38906
 20
98.4
 30
0.0
 11
164.38906
 21
93.6
 31
0.0
  0
LINE
  5
56
  8
3
 10
165.275674
 20
98.4
 30
0.0
 11
165.275674
 21
93.6
 31
0.0
  0
LINE
  5
57
  8
3
 10
166.18058
 20
98.4
 30
0.0
 11
166.18058
 21
93.6
 31
0.0
  0
LINE
  5
58
  8
3
 10
167.100209
 20
98.4
 30
0.0
 11
167.100209
 21
93.6
 31
0.0
  0
LINE
  5
59
  8
3
 10
168.03093
 20
98.4
 30
0.0
 11
168.03093
 21
93.6
 31
0.0
  0
LINE
  5
5A
  8
3
 10
168.969071
 20
98.4
 30
0.0
 11
168.969071
 21
93.6
 31
0.0
  0
LINE
  5
5B
  8
0
 10
177.910929
 20
81.6
 30
0.0
 11
161.910929
 21
81.6
 31
0.0
  0
LINE
  5
5C
  8
0
 10
184.910929
 20
98.4
 30
0.0
 11
154.910929
 21
98.4
 31
0.0
  0
LINE
  5
5D
  8
0
 10
184.910929
 20
93.6
 30
0.0
 11
154.910929
 21
93.6
 31
0.0
  0
LINE
  5
5E
  8
0
 10
184.310929
 20
99.0
 30
0.0
 11
155.510929
 21
99.0
 31
0.0
  0
LINE
  5
5F
  8
0
 10
184.310929
 20
93.0
 30
0.0
 11
155.510929
 21
93.0
 31
0.0
  0
LINE
  5
60
  8
0
 10
177.310929
 20
81.0
 30
0.0
 11
162.510929
 21
81.0
 31
0.0
  0
LINE
  5
61
  8
0
 10
173.910929
 20
78.5
 30
0.0
 11
165.910929
 21
78.5
 31
0.0
  0
LINE
  5
62
  8
0
 10
173.910929
 20
52.2
 30
0.0
 11
165.910929
 21
52.2
 31
0.0
  0
LINE
  5
63
  8
0
 10
172.710929
 20
51.0
 30
0.0
 11
167.110929
 21
51.0
 31
0.0
  0
LINE
  5
64
  8
3
 10
170.852786
 20
98.4
 30
0.0
 11
170.852786
 21
93.6
 31
0.0
  0
LINE
  5
65
  8
3
 10
171.790927
 20
98.4
 30
0.0
 11
171.790927
 21
93.6
 31
0.0
  0
LINE
  5
66
  8
3
 10
171.790927
 20
98.4
 30
0.0
 11
171.790927
 21
93.6
 31
0.0
  0
LINE
  5
67
  8
3
 10
172.721648
 20
98.4
 30
0.0
 11
172.721648
 21
93.6
 31
0.0
  0
LINE
  5
68
  8
3
 10
173.641277
 20
98.4
 30
0.0
 11
173.641277
 21
93.6
 31
0.0
  0
LINE
  5
69
  8
3
 10
174.546184
 20
98.4
 30
0.0
 11
174.546184
 21
93.6
 31
0.0
  0
LINE
  5
6A
  8
3
 10
175.432797
 20
98.4
 30
0.0
 11
175.432797
 21
93.6
 31
0.0
  0
LINE
  5
6B
  8
3
 10
176.297618
 20
98.4
 30
0.0
 11
176.297618
 21
93.6
 31
0.0
  0
LINE
  5
6C
  8
3
 10
177.137234
 20
98.4
 30
0.0
 11
177.137234
 21
93.6
 31
0.0
  0
LINE
  5
6D
  8
3
 10
177.948331
 20
98.4
 30
0.0
 11
177.948331
 21
93.6
 31
0.0
  0
LINE
  5
6E
  8
3
 10
178.727707
 20
98.4
 30
0.0
 11
178.727707
 21
93.6
 31
0.0
  0
LINE
  5
6F
  8
3
 10
179.472289
 20
98.4
 30
0.0
 11
179.472289
 21
93.6
 31
0.0
  0
LINE
  5
70
  8
3
 10
180.179135
 20
98.4
 30
0.0
 11
180.179135
 21
93.6
 31
0.0
  0
LINE
  5
71
  8
3
 10
180.845458
 20
98.4
 30
0.0
 11
180.845458
 21
93.6
 31
0.0
  0
LINE
  5
72
  8
3
 10
181.468627
 20
98.4
 30
0.0
 11
181.468627
 21
93.6
 31
0.0
  0
LINE
  5
73
  8
3
 10
182.046184
 20
98.4
 30
0.0
 11
182.046184
 21
93.6
 31
0.0
  0
LINE
  5
74
  8
3
 10
182.575848
 20
98.4
 30
0.0
 11
182.575848
 21
93.6
 31
0.0
  0
LINE
  5
75
  8
3
 10
183.055529
 20
98.4
 30
0.0
 11
183.055529
 21
93.6
 31
0.0
  0
LINE
  5
76
  8
3
 10
183.483334
 20
98.4
 30
0.0
 11
183.483334
 21
93.6
 31
0.0
  0
LINE
  5
77
  8
3
 10
183.857576
 20
98.4
 30
0.0
 11
183.857576
 21
93.6
 31
0.0
  0
LINE
  5
78
  8
3
 10
184.176776
 20
98.4
 30
0.0
 11
184.176776
 21
93.6
 31
0.0
  0
LINE
  5
79
  8
0
 10
184.88133
 20
98.4
 30
0.0
 11
184.88133
 21
93.6
 31
0.0
  0
LINE
  5
7A
  8
3
 10
184.792649
 20
98.4
 30
0.0
 11
184.792649
 21
93.6
 31
0.0
  0
LINE
  5
7B
  8
3
 10
184.645237
 20
98.4
 30
0.0
 11
184.645237
 21
93.6
 31
0.0
  0
LINE
  5
7C
  8
3
 10
184.439676
 20
98.4
 30
0.0
 11
184.439676
 21
93.6
 31
0.0
  0
LINE
  5
7D
  8
3
 10
173.234429
 20
51.5235
 30
0.0
 11
173.234429
 21
78.567508
 31
0.0
  0
ARC
  5
7E
  8
0
 10
173.510929
 20
79.1
 30
0.0
 40
0.6
 50
180.0
 51
270.0
  0
ARC
  5
7F
  8
0
 10
173.510929
 20
80.4
 30
0.0
 40
0.6
 50
90.0
 51
180.0
  0
ARC
  5
80
  8
0
 10
179.910929
 20
91.0
 30
0.0
 40
2.0
 50
90.0
 51
180.0
  0
LINE
  5
81
  8
0
 10
184.910929
 20
98.4
 30
0.0
 11
184.310929
 21
99.0
 31
0.0
  0
LINE
  5
82
  8
0
 10
184.910929
 20
93.6
 30
0.0
 11
184.910929
 21
98.4
 31
0.0
  0
LINE
  5
83
  8
0
 10
184.310929
 20
93.0
 30
0.0
 11
184.910929
 21
93.6
 31
0.0
  0
LINE
  5
84
  8
0
 10
177.910929
 20
81.6
 30
0.0
 11
177.910929
 21
91.0
 31
0.0
  0
LINE
  5
85
  8
0
 10
177.310929
 20
81.0
 30
0.0
 11
177.910929
 21
81.6
 31
0.0
  0
LINE
  5
86
  8
0
 10
172.910929
 20
79.1
 30
0.0
 11
172.910929
 21
80.4
 31
0.0
  0
LINE
  5
87
  8
0
 10
173.910929
 20
52.2
 30
0.0
 11
173.910929
 21
78.5
 31
0.0
  0
LINE
  5
88
  8
0
 10
172.710929
 20
51.0
 30
0.0
 11
173.910929
 21
52.2
 31
0.0
  0
LINE
  5
89
  8
1
 10
169.910929
 20
104.0
 30
0.0
 11
169.910929
 21
46.0
 31
0.0
  0
ARC
  5
9E
  8
0
 10
90.0
 20
91.0
 30
0.0
 40
2.0
 50
90.0
 51
180.0
  0
LINE
  5
9F
  8
0
 10
94.4
 20
93.0
 30
0.0
 11
65.6
 21
93.0
 31
0.0
  0
LINE
  5
A0
  8
0
 10
94.4
 20
99.0
 30
0.0
 11
65.6
 21
99.0
 31
0.0
  0
LINE
  5
A1
  8
0
 10
95.0
 20
93.6
 30
0.0
 11
65.0
 21
93.6
 31
0.0
  0
LINE
  5
A2
  8
0
 10
95.0
 20
98.4
 30
0.0
 11
65.0
 21
98.4
 31
0.0
  0
LINE
  5
A3
  8
1
 10
80.0
 20
104.0
 30
0.0
 11
80.0
 21
46.0
 31
0.0
  0
LINE
  5
A4
  8
0
 10
84.0
 20
52.2
 30
0.0
 11
84.0
 21
78.5
 31
0.0
  0
LINE
  5
A5
  8
3
 10
83.3235
 20
51.5235
 30
0.0
 11
83.3235
 21
78.567508
 31
0.0
  0
LINE
  5
A6
  8
3
 10
76.6765
 20
51.5235
 30
0.0
 11
76.6765
 21
78.567508
 31
0.0
  0
LINE
  5
A7
  8
0
 10
76.0
 20
52.2
 30
0.0
 11
76.0
 21
78.5
 31
0.0
  0
LINE
  5
A8
  8
0
 10
82.8
 20
51.0
 30
0.0
 11
84.0
 21
52.2
 31
0.0
  0
LINE
  5
A9
  8
0
 10
77.2
 20
51.0
 30
0.0
 11
76.0
 21
52.2
 31
0.0
  0
LINE
  5
AA
  8
0
 10
82.8
 20
51.0
 30
0.0
 11
77.2
 21
51.0
 31
0.0
  0
LINE
  5
AB
  8
0
 10
84.0
 20
52.2
 30
0.0
 11
76.0
 21
52.2
 31
0.0
  0
LINE
  5
AC
  8
3
 10
88.816779
 20
98.4
 30
0.0
 11
88.816779
 21
93.6
 31
0.0
  0
LINE
  5
AD
  8
3
 10
88.037402
 20
98.4
 30
0.0
 11
88.037402
 21
93.6
 31
0.0
  0
LINE
  5
AE
  8
3
 10
87.226305
 20
98.4
 30
0.0
 11
87.226305
 21
93.6
 31
0.0
  0
LINE
  5
AF
  8
3
 10
74.478132
 20
98.4
 30
0.0
 11
74.478132
 21
93.6
 31
0.0
  0
LINE
  5
B0
  8
3
 10
73.613311
 20
98.4
 30
0.0
 11
73.613311
 21
93.6
 31
0.0
  0
LINE
  5
B1
  8
3
 10
72.773695
 20
98.4
 30
0.0
 11
72.773695
 21
93.6
 31
0.0
  0
LINE
  5
B2
  8
3
 10
71.962598
 20
98.4
 30
0.0
 11
71.962598
 21
93.6
 31
0.0
  0
LINE
  5
B3
  8
3
 10
71.183221
 20
98.4
 30
0.0
 11
71.183221
 21
93.6
 31
0.0
  0
LINE
  5
B4
  8
3
 10
70.43864
 20
98.4
 30
0.0
 11
70.43864
 21
93.6
 31
0.0
  0
LINE
  5
B5
  8
3
 10
69.731793
 20
98.4
 30
0.0
 11
69.731793
 21
93.6
 31
0.0
  0
LINE
  5
B6
  8
3
 10
69.065471
 20
98.4
 30
0.0
 11
69.065471
 21
93.6
 31
0.0
  0
LINE
  5
B7
  8
3
 10
68.442301
 20
98.4
 30
0.0
 11
68.442301
 21
93.6
 31
0.0
  0
LINE
  5
B8
  8
3
 10
67.864745
 20
98.4
 30
0.0
 11
67.864745
 21
93.6
 31
0.0
  0
LINE
  5
B9
  8
3
 10
67.335081
 20
98.4
 30
0.0
 11
67.335081
 21
93.6
 31
0.0
  0
LINE
  5
BA
  8
3
 10
66.8554
 20
98.4
 30
0.0
 11
66.8554
 21
93.6
 31
0.0
  0
LINE
  5
BB
  8
3
 10
66.427594
 20
98.4
 30
0.0
 11
66.427594
 21
93.6
 31
0.0
  0
LINE
  5
BC
  8
3
 10
66.053353
 20
98.4
 30
0.0
 11
66.053353
 21
93.6
 31
0.0
  0
LINE
  5
BD
  8
3
 10
65.734152
 20
98.4
 30
0.0
 11
65.734152
 21
93.6
 31
0.0
  0
LINE
  5
BE
  8
0
 10
65.029599
 20
98.4
 30
0.0
 11
65.029599
 21
93.6
 31
0.0
  0
LINE
  5
BF
  8
3
 10
65.118279
 20
98.4
 30
0.0
 11
65.118279
 21
93.6
 31
0.0
  0
LINE
  5
C0
  8
3
 10
65.265691
 20
98.4
 30
0.0
 11
65.265691
 21
93.6
 31
0.0
  0
LINE
  5
C1
  8
3
 10
65.471253
 20
98.4
 30
0.0
 11
65.471253
 21
93.6
 31
0.0
  0
LINE
  5
C2
  8
0
 10
65.0
 20
93.6
 30
0.0
 11
65.0
 21
98.4
 31
0.0
  0
LINE
  5
C3
  8
3
 10
85.521868
 20
98.4
 30
0.0
 11
85.521868
 21
93.6
 31
0.0
  0
LINE
  5
C4
  8
3
 10
84.635255
 20
98.4
 30
0.0
 11
84.635255
 21
93.6
 31
0.0
  0
LINE
  5
C5
  8
3
 10
83.730348
 20
98.4
 30
0.0
 11
83.730348
 21
93.6
 31
0.0
  0
LINE
  5
C6
  8
3
 10
82.81072
 20
98.4
 30
0.0
 11
82.81072
 21
93.6
 31
0.0
  0
LINE
  5
C7
  8
3
 10
81.879999
 20
98.4
 30
0.0
 11
81.879999
 21
93.6
 31
0.0
  0
LINE
  5
C8
  8
3
 10
81.879999
 20
98.4
 30
0.0
 11
81.879999
 21
93.6
 31
0.0
  0
LINE
  5
C9
  8
3
 10
80.941858
 20
98.4
 30
0.0
 11
80.941858
 21
93.6
 31
0.0
  0
LINE
  5
CA
  8
3
 10
79.058142
 20
98.4
 30
0.0
 11
79.058142
 21
93.6
 31
0.0
  0
LINE
  5
CB
  8
3
 10
78.120001
 20
98.4
 30
0.0
 11
78.120001
 21
93.6
 31
0.0
  0
LINE
  5
CC
  8
3
 10
77.18928
 20
98.4
 30
0.0
 11
77.18928
 21
93.6
 31
0.0
  0
LINE
  5
CD
  8
3
 10
76.269652
 20
98.4
 30
0.0
 11
76.269652
 21
93.6
 31
0.0
  0
LINE
  5
CE
  8
3
 10
75.364745
 20
98.4
 30
0.0
 11
75.364745
 21
93.6
 31
0.0
  0
LINE
  5
CF
  8
3
 10
80.0
 20
98.4
 30
0.0
 11
80.0
 21
93.6
 31
0.0
  0
LINE
  5
D0
  8
3
 10
86.386689
 20
98.4
 30
0.0
 11
86.386689
 21
93.6
 31
0.0
  0
LINE
  5
D1
  8
0
 10
87.4
 20
81.0
 30
0.0
 11
72.6
 21
81.0
 31
0.0
  0
LINE
  5
D2
  8
0
 10
88.0
 20
81.6
 30
0.0
 11
72.0
 21
81.6
 31
0.0
  0
LINE
  5
D3
  8
0
 10
72.0
 20
81.6
 30
0.0
 11
72.0
 21
91.0
 31
0.0
  0
LINE
  5
D4
  8
0
 10
72.6
 20
81.0
 30
0.0
 11
72.0
 21
81.6
 31
0.0
  0
LINE
  5
D5
  8
0
 10
65.6
 20
93.0
 30
0.0
 11
65.0
 21
93.6
 31
0.0
  0
ARC
  5
D6
  8
0
 10
70.0
 20
91.0
 30
0.0
 40
2.0
 50
360.0
 51
90.0
  0
LINE
  5
D7
  8
0
 10
88.0
 20
81.6
 30
0.0
 11
88.0
 21
91.0
 31
0.0
  0
LINE
  5
D8
  8
0
 10
84.0
 20
78.5
 30
0.0
 11
76.0
 21
78.5
 31
0.0
  0
ARC
  5
D9
  8
0
 10
76.4
 20
80.4
 30
0.0
 40
0.6
 50
0.0
 51
90.0
  0
ARC
  5
DA
  8
0
 10
76.4
 20
79.1
 30
0.0
 40
0.6
 50
270.0
 51
0.0
  0
LINE
  5
DB
  8
0
 10
77.0
 20
79.1
 30
0.0
 11
77.0
 21
80.4
 31
0.0
  0
ARC
  5
DC
  8
0
 10
83.6
 20
80.4
 30
0.0
 40
0.6
 50
90.0
 51
180.0
  0
ARC
  5
DD
  8
0
 10
83.6
 20
79.1
 30
0.0
 40
0.6
 50
180.0
 51
270.0
  0
LINE
  5
DE
  8
0
 10
83.0
 20
79.1
 30
0.0
 11
83.0
 21
80.4
 31
0.0
  0
LINE
  5
DF
  8
0
 10
87.4
 20
81.0
 30
0.0
 11
88.0
 21
81.6
 31
0.0
  0
LINE
  5
E0
  8
0
 10
65.0
 20
98.4
 30
0.0
 11
65.6
 21
99.0
 31
0.0
  0
LINE
  5
E1
  8
0
 10
95.0
 20
93.6
 30
0.0
 11
95.0
 21
98.4
 31
0.0
  0
LINE
  5
E2
  8
3
 10
94.528747
 20
98.4
 30
0.0
 11
94.528747
 21
93.6
 31
0.0
  0
LINE
  5
E3
  8
3
 10
94.734309
 20
98.4
 30
0.0
 11
94.734309
 21
93.6
 31
0.0
  0
LINE
  5
E4
  8
3
 10
94.881721
 20
98.4
 30
0.0
 11
94.881721
 21
93.6
 31
0.0
  0
LINE
  5
E5
  8
0
 10
94.970401
 20
98.4
 30
0.0
 11
94.970401
 21
93.6
 31
0.0
  0
LINE
  5
E6
  8
3
 10
94.265848
 20
98.4
 30
0.0
 11
94.265848
 21
93.6
 31
0.0
  0
LINE
  5
E7
  8
3
 10
93.946647
 20
98.4
 30
0.0
 11
93.946647
 21
93.6
 31
0.0
  0
LINE
  5
E8
  8
3
 10
93.572406
 20
98.4
 30
0.0
 11
93.572406
 21
93.6
 31
0.0
  0
LINE
  5
E9
  8
3
 10
93.1446
 20
98.4
 30
0.0
 11
93.1446
 21
93.6
 31
0.0
  0
LINE
  5
EA
  8
3
 10
92.664919
 20
98.4
 30
0.0
 11
92.664919
 21
93.6
 31
0.0
  0
LINE
  5
EB
  8
3
 10
92.135255
 20
98.4
 30
0.0
 11
92.135255
 21
93.6
 31
0.0
  0
LINE
  5
EC
  8
3
 10
91.557699
 20
98.4
 30
0.0
 11
91.557699
 21
93.6
 31
0.0
  0
LINE
  5
ED
  8
3
 10
90.934529
 20
98.4
 30
0.0
 11
90.934529
 21
93.6
 31
0.0
  0
LINE
  5
EE
  8
3
 10
90.268207
 20
98.4
 30
0.0
 11
90.268207
 21
93.6
 31
0.0
  0
LINE
  5
EF
  8
3
 10
89.56136
 20
98.4
 30
0.0
 11
89.56136
 21
93.6
 31
0.0
  0
LINE
  5
F0
  8
0
 10
94.4
 20
93.0
 30
0.0
 11
95.0
 21
93.6
 31
0.0
  0
LINE
  5
F1
  8
0
 10
95.0
 20
98.4
 30
0.0
 11
94.4
 21
99.0
 31
0.0
  0
ENDSEC
  0
EOF
