  0
SECTION
  2
HEADER
  9
$ACADVER
  1
AC1009
  9
$INSBASE
 10
0.0
 20
0.0
 30
0.0
  9
$EXTMIN
 10
55.0
 20
53.5
 30
0.0
  9
$EXTMAX
 10
180.589514
 20
106.5
 30
0.0
  9
$LIMMIN
 10
0.0
 20
0.0
  9
$LIMMAX
 10
250.0
 20
160.0
  9
$ORTHOMODE
 70
     0
  9
$REGENMODE
 70
     1
  9
$FILLMODE
 70
     1
  9
$QTEXTMODE
 70
     0
  9
$MIRRTEXT
 70
     1
  9
$DRAGMODE
 70
     0
  9
$LTSCALE
 40
10.0
  9
$OSMODE
 70
     0
  9
$ATTMODE
 70
     2
  9
$TEXTSIZE
 40
5.5
  9
$TRACEWID
 40
0.05
  9
$TEXTSTYLE
  7
STANDARD
  9
$CLAYER
  8
0
  9
$CELTYPE
  6
BYLAYER
  9
$CECOLOR
 62
   256
  9
$DIMSCALE
 40
1.0
  9
$DIMASZ
 40
3.0
  9
$DIMEXO
 40
2.0
  9
$DIMDLI
 40
0.38
  9
$DIMRND
 40
0.0
  9
$DIMDLE
 40
0.0
  9
$DIMEXE
 40
2.0
  9
$DIMTP
 40
0.0
  9
$DIMTM
 40
0.0
  9
$DIMTXT
 40
3.2
  9
$DIMCEN
 40
0.09
  9
$DIMTSZ
 40
0.0
  9
$DIMTOL
 70
     0
  9
$DIMLIM
 70
     0
  9
$DIMTIH
 70
     0
  9
$DIMTOH
 70
     0
  9
$DIMSE1
 70
     0
  9
$DIMSE2
 70
     0
  9
$DIMTAD
 70
     1
  9
$DIMZIN
 70
     0
  9
$DIMBLK
  1

  9
$DIMASO
 70
     0
  9
$DIMSHO
 70
     0
  9
$DIMPOST
  1

  9
$DIMAPOST
  1

  9
$DIMALT
 70
     0
  9
$DIMALTD
 70
     2
  9
$DIMALTF
 40
25.4
  9
$DIMLFAC
 40
1.0
  9
$DIMTOFL
 70
     0
  9
$DIMTVP
 40
0.0
  9
$DIMTIX
 70
     0
  9
$DIMSOXD
 70
     0
  9
$DIMSAH
 70
     0
  9
$DIMBLK1
  1

  9
$DIMBLK2
  1

  9
$DIMSTYLE
  2
STANDARD
  9
$DIMCLRD
 70
     0
  9
$DIMCLRE
 70
     0
  9
$DIMCLRT
 70
     0
  9
$DIMTFAC
 40
1.0
  9
$DIMGAP
 40
0.09
  9
$LUNITS
 70
     2
  9
$LUPREC
 70
     4
  9
$SKETCHINC
 40
0.1
  9
$FILLETRAD
 40
0.0
  9
$AUNITS
 70
     0
  9
$AUPREC
 70
     0
  9
$MENU
  1
ACAD
  9
$ELEVATION
 40
0.0
  9
$PELEVATION
 40
0.0
  9
$THICKNESS
 40
0.0
  9
$LIMCHECK
 70
     0
  9
$BLIPMODE
 70
     0
  9
$CHAMFERA
 40
0.0
  9
$CHAMFERB
 40
0.0
  9
$SKPOLY
 70
     0
  9
$TDCREATE
 40
2450868.805372
  9
$TDUPDATE
 40
2450868.805372
  9
$TDINDWG
 40
0.0
  9
$TDUSRTIMER
 40
0.0
  9
$USRTIMER
 70
     1
  9
$ANGBASE
 50
0.0
  9
$ANGDIR
 70
     0
  9
$PDMODE
 70
     0
  9
$PDSIZE
 40
0.0
  9
$PLINEWID
 40
0.0
  9
$COORDS
 70
     2
  9
$SPLFRAME
 70
     0
  9
$SPLINETYPE
 70
     6
  9
$SPLINESEGS
 70
     8
  9
$ATTDIA
 70
     0
  9
$ATTREQ
 70
     1
  9
$HANDLING
 70
     1
  9
$HANDSEED
  5
1A8
  9
$SURFTAB1
 70
     6
  9
$SURFTAB2
 70
     6
  9
$SURFTYPE
 70
     6
  9
$SURFU
 70
     6
  9
$SURFV
 70
     6
  9
$UCSNAME
  2

  9
$UCSORG
 10
0.0
 20
0.0
 30
0.0
  9
$UCSXDIR
 10
1.0
 20
0.0
 30
0.0
  9
$UCSYDIR
 10
0.0
 20
1.0
 30
0.0
  9
$PUCSNAME
  2

  9
$PUCSORG
 10
0.0
 20
0.0
 30
0.0
  9
$PUCSXDIR
 10
1.0
 20
0.0
 30
0.0
  9
$PUCSYDIR
 10
0.0
 20
1.0
 30
0.0
  9
$USERI1
 70
     0
  9
$USERI2
 70
     0
  9
$USERI3
 70
     0
  9
$USERI4
 70
     0
  9
$USERI5
 70
     0
  9
$USERR1
 40
0.0
  9
$USERR2
 40
0.0
  9
$USERR3
 40
0.0
  9
$USERR4
 40
0.0
  9
$USERR5
 40
0.0
  9
$WORLDVIEW
 70
     1
  9
$SHADEDGE
 70
     3
  9
$SHADEDIF
 70
    70
  9
$TILEMODE
 70
     1
  9
$MAXACTVP
 70
    16
  9
$PLIMCHECK
 70
     0
  9
$PEXTMIN
 10
1.000000E+020
 20
1.000000E+020
 30
1.000000E+020
  9
$PEXTMAX
 10
-1.000000E+020
 20
-1.000000E+020
 30
-1.000000E+020
  9
$PLIMMIN
 10
0.0
 20
0.0
  9
$PLIMMAX
 10
12.0
 20
9.0
  9
$UNITMODE
 70
     0
  9
$VISRETAIN
 70
     0
  9
$PLINEGEN
 70
   284
  9
$PSLTSCALE
 70
     0
  0
ENDSEC
  0
SECTION
  2
TABLES
  0
TABLE
  2
VPORT
 70
     3
  0
VPORT
  2
*ACTIVE
 70
     0
 10
0.0
 20
0.0
 11
1.0
 21
1.0
 12
141.889764
 22
104.826211
 13
0.0
 23
0.0
 14
5.0
 24
5.0
 15
10.0
 25
10.0
 16
0.0
 26
0.0
 36
1.0
 17
0.0
 27
0.0
 37
0.0
 40
209.652421
 41
1.353571
 42
50.0
 43
0.0
 44
0.0
 50
0.0
 51
0.0
 71
     0
 72
   500
 73
     1
 74
     1
 75
     1
 76
     1
 77
     0
 78
     0
  0
ENDTAB
  0
TABLE
  2
LTYPE
 70
     2
  0
LTYPE
  2
CONTINUOUS
 70
     0
  3
Solid line
 72
    65
 73
     0
 40
0.0
  0
LTYPE
  2
CENTER
 70
     0
  3
____ _ ____ _ ____ _ ____ _ ____ _ ____ _ ____
 72
    65
 73
     4
 40
2.0
 49
1.25
 49
-0.25
 49
0.25
 49
-0.25
  0
ENDTAB
  0
TABLE
  2
LAYER
 70
     5
  0
LAYER
  2
0
 70
     0
 62
     7
  6
CONTINUOUS
  0
LAYER
  2
1
 70
     0
 62
     1
  6
CENTER
  0
LAYER
  2
3
 70
     0
 62
     3
  6
CONTINUOUS
  0
LAYER
  2
10
 70
     0
 62
     7
  6
CONTINUOUS
  0
LAYER
  2
11
 70
     0
 62
     3
  6
CONTINUOUS
  0
ENDTAB
  0
TABLE
  2
STYLE
 70
     3
  0
STYLE
  2
STANDARD
 70
     0
 40
0.0
 41
1.0
 50
0.0
 71
     0
 42
0.2
  3
TXT
  4
BIGFONT
  0
STYLE
  2
07500
 70
     0
 40
0.0
 41
0.75
 50
0.0
 71
     0
 42
6.0
  3
TXT
  4
BIGFONT
  0
STYLE
  2
BIGFONT
 70
     0
 40
5.5
 41
0.8
 50
0.0
 71
     0
 42
5.5
  3

  4
bigfont
  0
ENDTAB
  0
TABLE
  2
VIEW
 70
     1
  0
VIEW
  2
ALL
 70
     0
 40
270.0
 10
220.991597
 20
135.0
 41
0.0
 11
0.0
 21
0.0
 31
1.0
 12
0.0
 22
0.0
 32
0.0
 42
0.0
 43
0.0
 44
0.0
 50
0.0
 71
     0
  0
ENDTAB
  0
TABLE
  2
UCS
 70
     0
  0
ENDTAB
  0
TABLE
  2
APPID
 70
     1
  0
APPID
  2
ACAD
 70
     0
  0
ENDTAB
  0
TABLE
  2
DIMSTYLE
 70
     1
  0
DIMSTYLE
  2
STANDARD
 70
     0
  3

  4

  5

  6

  7

 40
1.0
 41
0.18
 42
0.0625
 43
0.38
 44
0.18
 45
0.0
 46
0.0
 47
0.0
 48
0.0
140
0.18
141
0.09
142
0.0
143
25.4
144
1.0
145
0.0
146
1.0
147
0.09
 71
     0
 72
     0
 73
     1
 74
     1
 75
     0
 76
     0
 77
     0
 78
     0
170
     0
171
     2
172
     0
173
     0
174
     0
175
     0
176
     0
177
     0
178
     0
  0
ENDTAB
  0
ENDSEC
  0
SECTION
  2
BLOCKS
  0
BLOCK
  8
0
  2
$MODEL_SPACE
 70
     0
 10
0.0
 20
0.0
 30
0.0
  3
$MODEL_SPACE
  1

  0
ENDBLK
  5
1A1
  8
0
  0
BLOCK
 67
     1
  8
0
  2
$PAPER_SPACE
 70
     0
 10
0.0
 20
0.0
 30
0.0
  3
$PAPER_SPACE
  1

  0
ENDBLK
  5
19F
 67
     1
  8
0
  0
BLOCK
  8
0
  2
QQ
 70
     0
 10
270.0
 20
0.0
 30
0.0
  3
QQ
  1

  0
LINE
  5
2C
  8
11
 10
173.0
 20
36.0
 30
0.0
 11
270.0
 21
36.0
 31
0.0
  0
TEXT
  5
2D
  8
11
 10
175.0
 20
32.5
 30
0.0
 40
2.5
  1
部品名称
  0
LINE
  5
2E
  8
11
 10
173.0
 20
36.0
 30
0.0
 11
173.0
 21
0.0
 31
0.0
  0
LINE
  5
2F
  8
11
 10
173.0
 20
24.0
 30
0.0
 11
270.0
 21
24.0
 31
0.0
  0
TEXT
  5
30
  8
11
 10
175.0
 20
20.5
 30
0.0
 40
2.5
  1
品番
  0
LINE
  5
31
  8
11
 10
173.0
 20
12.0
 30
0.0
 11
270.0
 21
12.0
 31
0.0
  0
TEXT
  5
32
  8
11
 10
175.0
 20
8.5
 30
0.0
 40
2.5
  1
尺度
  0
TEXT
  5
33
  8
11
 10
200.0
 20
8.5
 30
0.0
 40
2.5
  1
図番
  0
LINE
  5
34
  8
11
 10
198.0
 20
0.0
 30
0.0
 11
198.0
 21
12.0
 31
0.0
  0
ENDBLK
  5
35
  8
0
  0
ENDSEC
  0
SECTION
  2
ENTITIES
  0
LINE
  5
36
  8
3
 10
165.589514
 20
100.9
 30
0.0
 11
165.589514
 21
96.1
 31
0.0
  0
LINE
  5
37
  8
0
 10
162.789514
 20
58.5
 30
0.0
 11
161.589514
 21
59.7
 31
0.0
  0
LINE
  5
38
  8
0
 10
161.589514
 20
59.7
 30
0.0
 11
161.589514
 21
81.0
 31
0.0
  0
LINE
  5
39
  8
0
 10
162.589514
 20
81.6
 30
0.0
 11
162.589514
 21
82.9
 31
0.0
  0
LINE
  5
3A
  8
0
 10
158.189514
 20
83.5
 30
0.0
 11
157.589514
 21
84.1
 31
0.0
  0
LINE
  5
3B
  8
0
 10
157.589514
 20
84.1
 30
0.0
 11
157.589514
 21
93.5
 31
0.0
  0
LINE
  5
3C
  8
0
 10
151.189514
 20
95.5
 30
0.0
 11
150.589514
 21
96.1
 31
0.0
  0
LINE
  5
3D
  8
0
 10
150.589514
 20
96.1
 30
0.0
 11
150.589514
 21
100.9
 31
0.0
  0
LINE
  5
3E
  8
0
 10
150.589514
 20
100.9
 30
0.0
 11
151.189514
 21
101.5
 31
0.0
  0
ARC
  5
3F
  8
0
 10
155.589514
 20
93.5
 30
0.0
 40
2.0
 50
360.0
 51
90.0
  0
ARC
  5
40
  8
0
 10
161.989514
 20
82.9
 30
0.0
 40
0.6
 50
0.0
 51
90.0
  0
ARC
  5
41
  8
0
 10
161.989514
 20
81.6
 30
0.0
 40
0.6
 50
270.0
 51
0.0
  0
LINE
  5
42
  8
3
 10
162.266014
 20
59.0235
 30
0.0
 11
162.266014
 21
81.067508
 31
0.0
  0
LINE
  5
43
  8
3
 10
151.060767
 20
100.9
 30
0.0
 11
151.060767
 21
96.1
 31
0.0
  0
LINE
  5
44
  8
3
 10
150.855206
 20
100.9
 30
0.0
 11
150.855206
 21
96.1
 31
0.0
  0
LINE
  5
45
  8
3
 10
150.707794
 20
100.9
 30
0.0
 11
150.707794
 21
96.1
 31
0.0
  0
LINE
  5
46
  8
0
 10
150.619113
 20
100.9
 30
0.0
 11
150.619113
 21
96.1
 31
0.0
  0
LINE
  5
47
  8
3
 10
151.323667
 20
100.9
 30
0.0
 11
151.323667
 21
96.1
 31
0.0
  0
LINE
  5
48
  8
3
 10
151.642867
 20
100.9
 30
0.0
 11
151.642867
 21
96.1
 31
0.0
  0
LINE
  5
49
  8
3
 10
152.017109
 20
100.9
 30
0.0
 11
152.017109
 21
96.1
 31
0.0
  0
LINE
  5
4A
  8
3
 10
152.444914
 20
100.9
 30
0.0
 11
152.444914
 21
96.1
 31
0.0
  0
LINE
  5
4B
  8
3
 10
152.924595
 20
100.9
 30
0.0
 11
152.924595
 21
96.1
 31
0.0
  0
LINE
  5
4C
  8
3
 10
153.454259
 20
100.9
 30
0.0
 11
153.454259
 21
96.1
 31
0.0
  0
LINE
  5
4D
  8
3
 10
154.031816
 20
100.9
 30
0.0
 11
154.031816
 21
96.1
 31
0.0
  0
LINE
  5
4E
  8
3
 10
154.654985
 20
100.9
 30
0.0
 11
154.654985
 21
96.1
 31
0.0
  0
LINE
  5
4F
  8
3
 10
155.321308
 20
100.9
 30
0.0
 11
155.321308
 21
96.1
 31
0.0
  0
LINE
  5
50
  8
3
 10
156.028154
 20
100.9
 30
0.0
 11
156.028154
 21
96.1
 31
0.0
  0
LINE
  5
51
  8
3
 10
156.772736
 20
100.9
 30
0.0
 11
156.772736
 21
96.1
 31
0.0
  0
LINE
  5
52
  8
3
 10
157.552112
 20
100.9
 30
0.0
 11
157.552112
 21
96.1
 31
0.0
  0
LINE
  5
53
  8
3
 10
158.363209
 20
100.9
 30
0.0
 11
158.363209
 21
96.1
 31
0.0
  0
LINE
  5
54
  8
3
 10
159.202825
 20
100.9
 30
0.0
 11
159.202825
 21
96.1
 31
0.0
  0
LINE
  5
55
  8
3
 10
160.067646
 20
100.9
 30
0.0
 11
160.067646
 21
96.1
 31
0.0
  0
LINE
  5
56
  8
3
 10
160.954259
 20
100.9
 30
0.0
 11
160.954259
 21
96.1
 31
0.0
  0
LINE
  5
57
  8
3
 10
161.859166
 20
100.9
 30
0.0
 11
161.859166
 21
96.1
 31
0.0
  0
LINE
  5
58
  8
3
 10
162.778795
 20
100.9
 30
0.0
 11
162.778795
 21
96.1
 31
0.0
  0
LINE
  5
59
  8
3
 10
163.709516
 20
100.9
 30
0.0
 11
163.709516
 21
96.1
 31
0.0
  0
LINE
  5
5A
  8
3
 10
164.647657
 20
100.9
 30
0.0
 11
164.647657
 21
96.1
 31
0.0
  0
LINE
  5
5B
  8
0
 10
173.589514
 20
84.1
 30
0.0
 11
157.589514
 21
84.1
 31
0.0
  0
LINE
  5
5C
  8
0
 10
180.589514
 20
100.9
 30
0.0
 11
150.589514
 21
100.9
 31
0.0
  0
LINE
  5
5D
  8
0
 10
180.589514
 20
96.1
 30
0.0
 11
150.589514
 21
96.1
 31
0.0
  0
LINE
  5
5E
  8
0
 10
179.989514
 20
101.5
 30
0.0
 11
151.189514
 21
101.5
 31
0.0
  0
LINE
  5
5F
  8
0
 10
179.989514
 20
95.5
 30
0.0
 11
151.189514
 21
95.5
 31
0.0
  0
LINE
  5
60
  8
0
 10
172.989514
 20
83.5
 30
0.0
 11
158.189514
 21
83.5
 31
0.0
  0
LINE
  5
61
  8
0
 10
169.589514
 20
81.0
 30
0.0
 11
161.589514
 21
81.0
 31
0.0
  0
LINE
  5
62
  8
0
 10
169.589514
 20
59.7
 30
0.0
 11
161.589514
 21
59.7
 31
0.0
  0
LINE
  5
63
  8
0
 10
168.389514
 20
58.5
 30
0.0
 11
162.789514
 21
58.5
 31
0.0
  0
LINE
  5
64
  8
3
 10
166.531372
 20
100.9
 30
0.0
 11
166.531372
 21
96.1
 31
0.0
  0
LINE
  5
65
  8
3
 10
167.469513
 20
100.9
 30
0.0
 11
167.469513
 21
96.1
 31
0.0
  0
LINE
  5
66
  8
3
 10
167.469513
 20
100.9
 30
0.0
 11
167.469513
 21
96.1
 31
0.0
  0
LINE
  5
67
  8
3
 10
168.400234
 20
100.9
 30
0.0
 11
168.400234
 21
96.1
 31
0.0
  0
LINE
  5
68
  8
3
 10
169.319863
 20
100.9
 30
0.0
 11
169.319863
 21
96.1
 31
0.0
  0
LINE
  5
69
  8
3
 10
170.224769
 20
100.9
 30
0.0
 11
170.224769
 21
96.1
 31
0.0
  0
LINE
  5
6A
  8
3
 10
171.111383
 20
100.9
 30
0.0
 11
171.111383
 21
96.1
 31
0.0
  0
LINE
  5
6B
  8
3
 10
171.976204
 20
100.9
 30
0.0
 11
171.976204
 21
96.1
 31
0.0
  0
LINE
  5
6C
  8
3
 10
172.815819
 20
100.9
 30
0.0
 11
172.815819
 21
96.1
 31
0.0
  0
LINE
  5
6D
  8
3
 10
173.626916
 20
100.9
 30
0.0
 11
173.626916
 21
96.1
 31
0.0
  0
LINE
  5
6E
  8
3
 10
174.406293
 20
100.9
 30
0.0
 11
174.406293
 21
96.1
 31
0.0
  0
LINE
  5
6F
  8
3
 10
175.150874
 20
100.9
 30
0.0
 11
175.150874
 21
96.1
 31
0.0
  0
LINE
  5
70
  8
3
 10
175.857721
 20
100.9
 30
0.0
 11
175.857721
 21
96.1
 31
0.0
  0
LINE
  5
71
  8
3
 10
176.524044
 20
100.9
 30
0.0
 11
176.524044
 21
96.1
 31
0.0
  0
LINE
  5
72
  8
3
 10
177.147213
 20
100.9
 30
0.0
 11
177.147213
 21
96.1
 31
0.0
  0
LINE
  5
73
  8
3
 10
177.724769
 20
100.9
 30
0.0
 11
177.724769
 21
96.1
 31
0.0
  0
LINE
  5
74
  8
3
 10
178.254433
 20
100.9
 30
0.0
 11
178.254433
 21
96.1
 31
0.0
  0
LINE
  5
75
  8
3
 10
178.734115
 20
100.9
 30
0.0
 11
178.734115
 21
96.1
 31
0.0
  0
LINE
  5
76
  8
3
 10
179.16192
 20
100.9
 30
0.0
 11
179.16192
 21
96.1
 31
0.0
  0
LINE
  5
77
  8
3
 10
179.536162
 20
100.9
 30
0.0
 11
179.536162
 21
96.1
 31
0.0
  0
LINE
  5
78
  8
3
 10
179.855362
 20
100.9
 30
0.0
 11
179.855362
 21
96.1
 31
0.0
  0
LINE
  5
79
  8
0
 10
180.559915
 20
100.9
 30
0.0
 11
180.559915
 21
96.1
 31
0.0
  0
LINE
  5
7A
  8
3
 10
180.471235
 20
100.9
 30
0.0
 11
180.471235
 21
96.1
 31
0.0
  0
LINE
  5
7B
  8
3
 10
180.323823
 20
100.9
 30
0.0
 11
180.323823
 21
96.1
 31
0.0
  0
LINE
  5
7C
  8
3
 10
180.118262
 20
100.9
 30
0.0
 11
180.118262
 21
96.1
 31
0.0
  0
LINE
  5
7D
  8
3
 10
168.913014
 20
59.0235
 30
0.0
 11
168.913014
 21
81.067508
 31
0.0
  0
ARC
  5
7E
  8
0
 10
169.189514
 20
81.6
 30
0.0
 40
0.6
 50
180.0
 51
270.0
  0
ARC
  5
7F
  8
0
 10
169.189514
 20
82.9
 30
0.0
 40
0.6
 50
90.0
 51
180.0
  0
ARC
  5
80
  8
0
 10
175.589514
 20
93.5
 30
0.0
 40
2.0
 50
90.0
 51
180.0
  0
LINE
  5
81
  8
0
 10
180.589514
 20
100.9
 30
0.0
 11
179.989514
 21
101.5
 31
0.0
  0
LINE
  5
82
  8
0
 10
180.589514
 20
96.1
 30
0.0
 11
180.589514
 21
100.9
 31
0.0
  0
LINE
  5
83
  8
0
 10
179.989514
 20
95.5
 30
0.0
 11
180.589514
 21
96.1
 31
0.0
  0
LINE
  5
84
  8
0
 10
173.589514
 20
84.1
 30
0.0
 11
173.589514
 21
93.5
 31
0.0
  0
LINE
  5
85
  8
0
 10
172.989514
 20
83.5
 30
0.0
 11
173.589514
 21
84.1
 31
0.0
  0
LINE
  5
86
  8
0
 10
168.589514
 20
81.6
 30
0.0
 11
168.589514
 21
82.9
 31
0.0
  0
LINE
  5
87
  8
0
 10
169.589514
 20
59.7
 30
0.0
 11
169.589514
 21
81.0
 31
0.0
  0
LINE
  5
88
  8
0
 10
168.389514
 20
58.5
 30
0.0
 11
169.589514
 21
59.7
 31
0.0
  0
LINE
  5
89
  8
1
 10
165.589514
 20
106.5
 30
0.0
 11
165.589514
 21
53.5
 31
0.0
  0
ARC
  5
9E
  8
0
 10
73.6
 20
82.9
 30
0.0
 40
0.6
 50
90.0
 51
180.0
  0
ARC
  5
9F
  8
0
 10
73.6
 20
81.6
 30
0.0
 40
0.6
 50
180.0
 51
270.0
  0
LINE
  5
A0
  8
0
 10
72.8
 20
58.5
 30
0.0
 11
74.0
 21
59.7
 31
0.0
  0
LINE
  5
A1
  8
0
 10
84.4
 20
95.5
 30
0.0
 11
55.6
 21
95.5
 31
0.0
  0
LINE
  5
A2
  8
0
 10
84.4
 20
101.5
 30
0.0
 11
55.6
 21
101.5
 31
0.0
  0
LINE
  5
A3
  8
0
 10
85.0
 20
96.1
 30
0.0
 11
55.0
 21
96.1
 31
0.0
  0
LINE
  5
A4
  8
0
 10
85.0
 20
100.9
 30
0.0
 11
55.0
 21
100.9
 31
0.0
  0
LINE
  5
A5
  8
0
 10
77.4
 20
83.5
 30
0.0
 11
62.6
 21
83.5
 31
0.0
  0
LINE
  5
A6
  8
0
 10
78.0
 20
84.1
 30
0.0
 11
62.0
 21
84.1
 31
0.0
  0
LINE
  5
A7
  8
0
 10
74.0
 20
81.0
 30
0.0
 11
66.0
 21
81.0
 31
0.0
  0
LINE
  5
A8
  8
0
 10
74.0
 20
59.7
 30
0.0
 11
66.0
 21
59.7
 31
0.0
  0
LINE
  5
A9
  8
3
 10
66.6765
 20
59.0235
 30
0.0
 11
66.6765
 21
81.067508
 31
0.0
  0
LINE
  5
AA
  8
1
 10
70.0
 20
106.5
 30
0.0
 11
70.0
 21
53.5
 31
0.0
  0
LINE
  5
AB
  8
0
 10
66.0
 20
59.7
 30
0.0
 11
66.0
 21
81.0
 31
0.0
  0
LINE
  5
AC
  8
0
 10
72.8
 20
58.5
 30
0.0
 11
67.2
 21
58.5
 31
0.0
  0
LINE
  5
AD
  8
0
 10
67.2
 20
58.5
 30
0.0
 11
66.0
 21
59.7
 31
0.0
  0
LINE
  5
AE
  8
3
 10
72.81072
 20
100.9
 30
0.0
 11
72.81072
 21
96.1
 31
0.0
  0
LINE
  5
AF
  8
3
 10
71.879999
 20
100.9
 30
0.0
 11
71.879999
 21
96.1
 31
0.0
  0
LINE
  5
B0
  8
3
 10
71.879999
 20
100.9
 30
0.0
 11
71.879999
 21
96.1
 31
0.0
  0
LINE
  5
B1
  8
3
 10
70.941858
 20
100.9
 30
0.0
 11
70.941858
 21
96.1
 31
0.0
  0
LINE
  5
B2
  8
3
 10
69.058142
 20
100.9
 30
0.0
 11
69.058142
 21
96.1
 31
0.0
  0
LINE
  5
B3
  8
3
 10
68.120001
 20
100.9
 30
0.0
 11
68.120001
 21
96.1
 31
0.0
  0
LINE
  5
B4
  8
3
 10
67.18928
 20
100.9
 30
0.0
 11
67.18928
 21
96.1
 31
0.0
  0
LINE
  5
B5
  8
3
 10
70.0
 20
100.9
 30
0.0
 11
70.0
 21
96.1
 31
0.0
  0
LINE
  5
B6
  8
3
 10
66.269652
 20
100.9
 30
0.0
 11
66.269652
 21
96.1
 31
0.0
  0
LINE
  5
B7
  8
3
 10
65.364745
 20
100.9
 30
0.0
 11
65.364745
 21
96.1
 31
0.0
  0
LINE
  5
B8
  8
3
 10
64.478132
 20
100.9
 30
0.0
 11
64.478132
 21
96.1
 31
0.0
  0
LINE
  5
B9
  8
3
 10
63.613311
 20
100.9
 30
0.0
 11
63.613311
 21
96.1
 31
0.0
  0
LINE
  5
BA
  8
3
 10
62.773695
 20
100.9
 30
0.0
 11
62.773695
 21
96.1
 31
0.0
  0
LINE
  5
BB
  8
3
 10
61.962598
 20
100.9
 30
0.0
 11
61.962598
 21
96.1
 31
0.0
  0
LINE
  5
BC
  8
3
 10
61.183221
 20
100.9
 30
0.0
 11
61.183221
 21
96.1
 31
0.0
  0
LINE
  5
BD
  8
3
 10
60.43864
 20
100.9
 30
0.0
 11
60.43864
 21
96.1
 31
0.0
  0
LINE
  5
BE
  8
3
 10
59.731793
 20
100.9
 30
0.0
 11
59.731793
 21
96.1
 31
0.0
  0
LINE
  5
BF
  8
3
 10
59.065471
 20
100.9
 30
0.0
 11
59.065471
 21
96.1
 31
0.0
  0
LINE
  5
C0
  8
3
 10
58.442301
 20
100.9
 30
0.0
 11
58.442301
 21
96.1
 31
0.0
  0
LINE
  5
C1
  8
3
 10
57.864745
 20
100.9
 30
0.0
 11
57.864745
 21
96.1
 31
0.0
  0
LINE
  5
C2
  8
3
 10
57.335081
 20
100.9
 30
0.0
 11
57.335081
 21
96.1
 31
0.0
  0
LINE
  5
C3
  8
3
 10
56.8554
 20
100.9
 30
0.0
 11
56.8554
 21
96.1
 31
0.0
  0
LINE
  5
C4
  8
3
 10
56.427594
 20
100.9
 30
0.0
 11
56.427594
 21
96.1
 31
0.0
  0
LINE
  5
C5
  8
3
 10
56.053353
 20
100.9
 30
0.0
 11
56.053353
 21
96.1
 31
0.0
  0
LINE
  5
C6
  8
3
 10
55.734152
 20
100.9
 30
0.0
 11
55.734152
 21
96.1
 31
0.0
  0
LINE
  5
C7
  8
0
 10
55.029599
 20
100.9
 30
0.0
 11
55.029599
 21
96.1
 31
0.0
  0
LINE
  5
C8
  8
3
 10
55.118279
 20
100.9
 30
0.0
 11
55.118279
 21
96.1
 31
0.0
  0
LINE
  5
C9
  8
3
 10
55.265691
 20
100.9
 30
0.0
 11
55.265691
 21
96.1
 31
0.0
  0
LINE
  5
CA
  8
3
 10
55.471253
 20
100.9
 30
0.0
 11
55.471253
 21
96.1
 31
0.0
  0
LINE
  5
CB
  8
0
 10
55.0
 20
96.1
 30
0.0
 11
55.0
 21
100.9
 31
0.0
  0
LINE
  5
CC
  8
0
 10
55.6
 20
95.5
 30
0.0
 11
55.0
 21
96.1
 31
0.0
  0
LINE
  5
CD
  8
0
 10
62.0
 20
84.1
 30
0.0
 11
62.0
 21
93.5
 31
0.0
  0
LINE
  5
CE
  8
0
 10
62.6
 20
83.5
 30
0.0
 11
62.0
 21
84.1
 31
0.0
  0
LINE
  5
CF
  8
0
 10
67.0
 20
81.6
 30
0.0
 11
67.0
 21
82.9
 31
0.0
  0
ARC
  5
D0
  8
0
 10
66.4
 20
81.6
 30
0.0
 40
0.6
 50
270.0
 51
0.0
  0
ARC
  5
D1
  8
0
 10
66.4
 20
82.9
 30
0.0
 40
0.6
 50
0.0
 51
90.0
  0
ARC
  5
D2
  8
0
 10
60.0
 20
93.5
 30
0.0
 40
2.0
 50
360.0
 51
90.0
  0
LINE
  5
D3
  8
0
 10
55.0
 20
100.9
 30
0.0
 11
55.6
 21
101.5
 31
0.0
  0
LINE
  5
D4
  8
0
 10
74.0
 20
59.7
 30
0.0
 11
74.0
 21
81.0
 31
0.0
  0
LINE
  5
D5
  8
3
 10
73.3235
 20
59.0235
 30
0.0
 11
73.3235
 21
81.067508
 31
0.0
  0
LINE
  5
D6
  8
0
 10
85.0
 20
96.1
 30
0.0
 11
85.0
 21
100.9
 31
0.0
  0
LINE
  5
D7
  8
3
 10
84.528747
 20
100.9
 30
0.0
 11
84.528747
 21
96.1
 31
0.0
  0
LINE
  5
D8
  8
3
 10
84.734309
 20
100.9
 30
0.0
 11
84.734309
 21
96.1
 31
0.0
  0
LINE
  5
D9
  8
3
 10
84.881721
 20
100.9
 30
0.0
 11
84.881721
 21
96.1
 31
0.0
  0
LINE
  5
DA
  8
0
 10
84.970401
 20
100.9
 30
0.0
 11
84.970401
 21
96.1
 31
0.0
  0
LINE
  5
DB
  8
3
 10
84.265848
 20
100.9
 30
0.0
 11
84.265848
 21
96.1
 31
0.0
  0
LINE
  5
DC
  8
3
 10
83.946647
 20
100.9
 30
0.0
 11
83.946647
 21
96.1
 31
0.0
  0
LINE
  5
DD
  8
3
 10
83.572406
 20
100.9
 30
0.0
 11
83.572406
 21
96.1
 31
0.0
  0
LINE
  5
DE
  8
3
 10
83.1446
 20
100.9
 30
0.0
 11
83.1446
 21
96.1
 31
0.0
  0
LINE
  5
DF
  8
3
 10
82.664919
 20
100.9
 30
0.0
 11
82.664919
 21
96.1
 31
0.0
  0
LINE
  5
E0
  8
3
 10
82.135255
 20
100.9
 30
0.0
 11
82.135255
 21
96.1
 31
0.0
  0
LINE
  5
E1
  8
3
 10
81.557699
 20
100.9
 30
0.0
 11
81.557699
 21
96.1
 31
0.0
  0
LINE
  5
E2
  8
3
 10
74.635255
 20
100.9
 30
0.0
 11
74.635255
 21
96.1
 31
0.0
  0
LINE
  5
E3
  8
3
 10
73.730348
 20
100.9
 30
0.0
 11
73.730348
 21
96.1
 31
0.0
  0
LINE
  5
E4
  8
3
 10
80.934529
 20
100.9
 30
0.0
 11
80.934529
 21
96.1
 31
0.0
  0
LINE
  5
E5
  8
3
 10
80.268207
 20
100.9
 30
0.0
 11
80.268207
 21
96.1
 31
0.0
  0
LINE
  5
E6
  8
3
 10
79.56136
 20
100.9
 30
0.0
 11
79.56136
 21
96.1
 31
0.0
  0
LINE
  5
E7
  8
3
 10
78.816779
 20
100.9
 30
0.0
 11
78.816779
 21
96.1
 31
0.0
  0
LINE
  5
E8
  8
3
 10
78.037402
 20
100.9
 30
0.0
 11
78.037402
 21
96.1
 31
0.0
  0
LINE
  5
E9
  8
3
 10
77.226305
 20
100.9
 30
0.0
 11
77.226305
 21
96.1
 31
0.0
  0
LINE
  5
EA
  8
3
 10
76.386689
 20
100.9
 30
0.0
 11
76.386689
 21
96.1
 31
0.0
  0
LINE
  5
EB
  8
3
 10
75.521868
 20
100.9
 30
0.0
 11
75.521868
 21
96.1
 31
0.0
  0
LINE
  5
EC
  8
0
 10
78.0
 20
84.1
 30
0.0
 11
78.0
 21
93.5
 31
0.0
  0
LINE
  5
ED
  8
0
 10
73.0
 20
81.6
 30
0.0
 11
73.0
 21
82.9
 31
0.0
  0
LINE
  5
EE
  8
0
 10
77.4
 20
83.5
 30
0.0
 11
78.0
 21
84.1
 31
0.0
  0
ARC
  5
EF
  8
0
 10
80.0
 20
93.5
 30
0.0
 40
2.0
 50
90.0
 51
180.0
  0
LINE
  5
F0
  8
0
 10
84.4
 20
95.5
 30
0.0
 11
85.0
 21
96.1
 31
0.0
  0
LINE
  5
F1
  8
0
 10
85.0
 20
100.9
 30
0.0
 11
84.4
 21
101.5
 31
0.0
  0
ENDSEC
  0
EOF
