  0
SECTION
  2
HEADER
  9
$ACADVER
  1
AC1009
  9
$INSBASE
 10
0.0
 20
0.0
 30
0.0
  9
$EXTMIN
 10
13.0
 20
10.0
 30
0.0
  9
$EXTMAX
 10
88.107264
 20
60.0
 30
0.0
  9
$LIMMIN
 10
0.0
 20
0.0
  9
$LIMMAX
 10
100.0
 20
70.0
  9
$ORTHOMODE
 70
     0
  9
$REGENMODE
 70
     1
  9
$FILLMODE
 70
     1
  9
$QTEXTMODE
 70
     0
  9
$MIRRTEXT
 70
     1
  9
$DRAGMODE
 70
     0
  9
$LTSCALE
 40
5.0
  9
$OSMODE
 70
     0
  9
$ATTMODE
 70
     2
  9
$TEXTSIZE
 40
3.0
  9
$TRACEWID
 40
0.05
  9
$TEXTSTYLE
  7
STANDARD
  9
$CLAYER
  8
0
  9
$CELTYPE
  6
BYLAYER
  9
$CECOLOR
 62
   256
  9
$DIMSCALE
 40
0.5
  9
$DIMASZ
 40
3.0
  9
$DIMEXO
 40
2.0
  9
$DIMDLI
 40
0.38
  9
$DIMRND
 40
0.0
  9
$DIMDLE
 40
0.0
  9
$DIMEXE
 40
2.0
  9
$DIMTP
 40
0.0
  9
$DIMTM
 40
0.0
  9
$DIMTXT
 40
3.2
  9
$DIMCEN
 40
0.09
  9
$DIMTSZ
 40
0.0
  9
$DIMTOL
 70
     0
  9
$DIMLIM
 70
     0
  9
$DIMTIH
 70
     0
  9
$DIMTOH
 70
     0
  9
$DIMSE1
 70
     0
  9
$DIMSE2
 70
     0
  9
$DIMTAD
 70
     1
  9
$DIMZIN
 70
     0
  9
$DIMBLK
  1

  9
$DIMASO
 70
     0
  9
$DIMSHO
 70
     0
  9
$DIMPOST
  1

  9
$DIMAPOST
  1

  9
$DIMALT
 70
     0
  9
$DIMALTD
 70
     2
  9
$DIMALTF
 40
25.4
  9
$DIMLFAC
 40
1.0
  9
$DIMTOFL
 70
     0
  9
$DIMTVP
 40
0.0
  9
$DIMTIX
 70
     0
  9
$DIMSOXD
 70
     0
  9
$DIMSAH
 70
     0
  9
$DIMBLK1
  1

  9
$DIMBLK2
  1

  9
$DIMSTYLE
  2
STANDARD
  9
$DIMCLRD
 70
     0
  9
$DIMCLRE
 70
     0
  9
$DIMCLRT
 70
     0
  9
$DIMTFAC
 40
1.0
  9
$DIMGAP
 40
0.09
  9
$LUNITS
 70
     2
  9
$LUPREC
 70
     4
  9
$SKETCHINC
 40
0.1
  9
$FILLETRAD
 40
0.0
  9
$AUNITS
 70
     0
  9
$AUPREC
 70
     0
  9
$MENU
  1
ACAD
  9
$ELEVATION
 40
0.0
  9
$PELEVATION
 40
0.0
  9
$THICKNESS
 40
0.0
  9
$LIMCHECK
 70
     0
  9
$BLIPMODE
 70
     0
  9
$CHAMFERA
 40
0.0
  9
$CHAMFERB
 40
0.0
  9
$SKPOLY
 70
     0
  9
$TDCREATE
 40
2450868.803297
  9
$TDUPDATE
 40
2450868.803297
  9
$TDINDWG
 40
0.0
  9
$TDUSRTIMER
 40
0.0
  9
$USRTIMER
 70
     1
  9
$ANGBASE
 50
0.0
  9
$ANGDIR
 70
     0
  9
$PDMODE
 70
     0
  9
$PDSIZE
 40
0.0
  9
$PLINEWID
 40
0.0
  9
$COORDS
 70
     2
  9
$SPLFRAME
 70
     0
  9
$SPLINETYPE
 70
     6
  9
$SPLINESEGS
 70
     8
  9
$ATTDIA
 70
     0
  9
$ATTREQ
 70
     1
  9
$HANDLING
 70
     1
  9
$HANDSEED
  5
187
  9
$SURFTAB1
 70
     6
  9
$SURFTAB2
 70
     6
  9
$SURFTYPE
 70
     6
  9
$SURFU
 70
     6
  9
$SURFV
 70
     6
  9
$UCSNAME
  2

  9
$UCSORG
 10
0.0
 20
0.0
 30
0.0
  9
$UCSXDIR
 10
1.0
 20
0.0
 30
0.0
  9
$UCSYDIR
 10
0.0
 20
1.0
 30
0.0
  9
$PUCSNAME
  2

  9
$PUCSORG
 10
0.0
 20
0.0
 30
0.0
  9
$PUCSXDIR
 10
1.0
 20
0.0
 30
0.0
  9
$PUCSYDIR
 10
0.0
 20
1.0
 30
0.0
  9
$USERI1
 70
     0
  9
$USERI2
 70
     0
  9
$USERI3
 70
     0
  9
$USERI4
 70
     0
  9
$USERI5
 70
     0
  9
$USERR1
 40
0.0
  9
$USERR2
 40
0.0
  9
$USERR3
 40
0.0
  9
$USERR4
 40
0.0
  9
$USERR5
 40
0.0
  9
$WORLDVIEW
 70
     1
  9
$SHADEDGE
 70
     3
  9
$SHADEDIF
 70
    70
  9
$TILEMODE
 70
     1
  9
$MAXACTVP
 70
    16
  9
$PLIMCHECK
 70
     0
  9
$PEXTMIN
 10
1.000000E+020
 20
1.000000E+020
 30
1.000000E+020
  9
$PEXTMAX
 10
-1.000000E+020
 20
-1.000000E+020
 30
-1.000000E+020
  9
$PLIMMIN
 10
0.0
 20
0.0
  9
$PLIMMAX
 10
12.0
 20
9.0
  9
$UNITMODE
 70
     0
  9
$VISRETAIN
 70
     0
  9
$PLINEGEN
 70
   251
  9
$PSLTSCALE
 70
     0
  0
ENDSEC
  0
SECTION
  2
TABLES
  0
TABLE
  2
VPORT
 70
     3
  0
VPORT
  2
*ACTIVE
 70
     0
 10
0.0
 20
0.0
 11
1.0
 21
1.0
 12
62.076772
 22
45.861467
 13
0.0
 23
0.0
 14
5.0
 24
5.0
 15
10.0
 25
10.0
 16
0.0
 26
0.0
 36
1.0
 17
0.0
 27
0.0
 37
0.0
 40
91.722934
 41
1.353571
 42
50.0
 43
0.0
 44
0.0
 50
0.0
 51
0.0
 71
     0
 72
   500
 73
     1
 74
     1
 75
     1
 76
     1
 77
     0
 78
     0
  0
ENDTAB
  0
TABLE
  2
LTYPE
 70
     2
  0
LTYPE
  2
CONTINUOUS
 70
     0
  3
Solid line
 72
    65
 73
     0
 40
0.0
  0
LTYPE
  2
CENTER
 70
     0
  3
____ _ ____ _ ____ _ ____ _ ____ _ ____ _ ____
 72
    65
 73
     4
 40
2.0
 49
1.25
 49
-0.25
 49
0.25
 49
-0.25
  0
ENDTAB
  0
TABLE
  2
LAYER
 70
     5
  0
LAYER
  2
0
 70
     0
 62
     7
  6
CONTINUOUS
  0
LAYER
  2
1
 70
     0
 62
     1
  6
CENTER
  0
LAYER
  2
3
 70
     0
 62
     3
  6
CONTINUOUS
  0
LAYER
  2
10
 70
     0
 62
     7
  6
CONTINUOUS
  0
LAYER
  2
11
 70
     0
 62
     3
  6
CONTINUOUS
  0
ENDTAB
  0
TABLE
  2
STYLE
 70
     3
  0
STYLE
  2
STANDARD
 70
     0
 40
0.0
 41
1.0
 50
0.0
 71
     0
 42
0.2
  3
TXT
  4
BIGFONT
  0
STYLE
  2
07500
 70
     0
 40
0.0
 41
0.75
 50
0.0
 71
     0
 42
6.0
  3
TXT
  4
BIGFONT
  0
STYLE
  2
BIGFONT
 70
     0
 40
3.0
 41
0.8
 50
0.0
 71
     0
 42
3.0
  3

  4
bigfont
  0
ENDTAB
  0
TABLE
  2
VIEW
 70
     1
  0
VIEW
  2
ALL
 70
     0
 40
135.0
 10
110.495798
 20
67.5
 41
0.0
 11
0.0
 21
0.0
 31
1.0
 12
0.0
 22
0.0
 32
0.0
 42
0.0
 43
0.0
 44
0.0
 50
0.0
 71
     0
  0
ENDTAB
  0
TABLE
  2
UCS
 70
     0
  0
ENDTAB
  0
TABLE
  2
APPID
 70
     1
  0
APPID
  2
ACAD
 70
     0
  0
ENDTAB
  0
TABLE
  2
DIMSTYLE
 70
     1
  0
DIMSTYLE
  2
STANDARD
 70
     0
  3

  4

  5

  6

  7

 40
1.0
 41
0.18
 42
0.0625
 43
0.38
 44
0.18
 45
0.0
 46
0.0
 47
0.0
 48
0.0
140
0.18
141
0.09
142
0.0
143
25.4
144
1.0
145
0.0
146
1.0
147
0.09
 71
     0
 72
     0
 73
     1
 74
     1
 75
     0
 76
     0
 77
     0
 78
     0
170
     0
171
     2
172
     0
173
     0
174
     0
175
     0
176
     0
177
     0
178
     0
  0
ENDTAB
  0
ENDSEC
  0
SECTION
  2
BLOCKS
  0
BLOCK
  8
0
  2
$MODEL_SPACE
 70
     0
 10
0.0
 20
0.0
 30
0.0
  3
$MODEL_SPACE
  1

  0
ENDBLK
  5
180
  8
0
  0
BLOCK
 67
     1
  8
0
  2
$PAPER_SPACE
 70
     0
 10
0.0
 20
0.0
 30
0.0
  3
$PAPER_SPACE
  1

  0
ENDBLK
  5
17E
 67
     1
  8
0
  0
BLOCK
  8
0
  2
QQ
 70
     0
 10
270.0
 20
0.0
 30
0.0
  3
QQ
  1

  0
LINE
  5
2C
  8
11
 10
173.0
 20
36.0
 30
0.0
 11
270.0
 21
36.0
 31
0.0
  0
TEXT
  5
2D
  8
11
 10
175.0
 20
32.5
 30
0.0
 40
2.5
  1
部品名称
  0
LINE
  5
2E
  8
11
 10
173.0
 20
36.0
 30
0.0
 11
173.0
 21
0.0
 31
0.0
  0
LINE
  5
2F
  8
11
 10
173.0
 20
24.0
 30
0.0
 11
270.0
 21
24.0
 31
0.0
  0
TEXT
  5
30
  8
11
 10
175.0
 20
20.5
 30
0.0
 40
2.5
  1
品番
  0
LINE
  5
31
  8
11
 10
173.0
 20
12.0
 30
0.0
 11
270.0
 21
12.0
 31
0.0
  0
TEXT
  5
32
  8
11
 10
175.0
 20
8.5
 30
0.0
 40
2.5
  1
尺度
  0
TEXT
  5
33
  8
11
 10
200.0
 20
8.5
 30
0.0
 40
2.5
  1
図番
  0
LINE
  5
34
  8
11
 10
198.0
 20
0.0
 30
0.0
 11
198.0
 21
12.0
 31
0.0
  0
ENDBLK
  5
35
  8
0
  0
ENDSEC
  0
SECTION
  2
ENTITIES
  0
LINE
  5
36
  8
0
 10
87.607264
 20
57.5
 30
0.0
 11
88.107264
 21
57.0
 31
0.0
  0
LINE
  5
37
  8
0
 10
88.107264
 20
57.0
 30
0.0
 11
88.107264
 21
53.0
 31
0.0
  0
LINE
  5
38
  8
0
 10
88.107264
 20
53.0
 30
0.0
 11
87.607264
 21
52.5
 31
0.0
  0
LINE
  5
39
  8
0
 10
82.107264
 20
51.5
 30
0.0
 11
82.107264
 21
43.0
 31
0.0
  0
LINE
  5
3A
  8
0
 10
82.107264
 20
43.0
 30
0.0
 11
81.607264
 21
42.5
 31
0.0
  0
LINE
  5
3B
  8
0
 10
78.307264
 20
42.0
 30
0.0
 11
78.307264
 21
41.0
 31
0.0
  0
ARC
  5
3C
  8
0
 10
78.807264
 20
41.0
 30
0.0
 40
0.5
 50
180.0
 51
270.0
  0
ARC
  5
3D
  8
0
 10
78.807264
 20
42.0
 30
0.0
 40
0.5
 50
90.0
 51
180.0
  0
LINE
  5
3E
  8
0
 10
78.107264
 20
12.5
 30
0.0
 11
79.107264
 21
13.5
 31
0.0
  0
LINE
  5
3F
  8
0
 10
79.107264
 20
13.5
 30
0.0
 11
79.107264
 21
40.5
 31
0.0
  0
LINE
  5
40
  8
3
 10
78.565764
 20
12.9585
 30
0.0
 11
78.565764
 21
40.56219
 31
0.0
  0
ARC
  5
41
  8
0
 10
83.107264
 20
51.5
 30
0.0
 40
1.0
 50
90.0
 51
180.0
  0
LINE
  5
42
  8
3
 10
88.070272
 20
57.0
 30
0.0
 11
88.070272
 21
53.0
 31
0.0
  0
LINE
  5
43
  8
3
 10
87.959524
 20
57.0
 30
0.0
 11
87.959524
 21
53.0
 31
0.0
  0
LINE
  5
44
  8
3
 10
87.775703
 20
57.0
 30
0.0
 11
87.775703
 21
53.0
 31
0.0
  0
LINE
  5
45
  8
3
 10
87.519942
 20
57.0
 30
0.0
 11
87.519942
 21
53.0
 31
0.0
  0
LINE
  5
46
  8
3
 10
87.193819
 20
57.0
 30
0.0
 11
87.193819
 21
53.0
 31
0.0
  0
LINE
  5
47
  8
3
 10
86.799343
 20
57.0
 30
0.0
 11
86.799343
 21
53.0
 31
0.0
  0
LINE
  5
48
  8
3
 10
86.338946
 20
57.0
 30
0.0
 11
86.338946
 21
53.0
 31
0.0
  0
LINE
  5
49
  8
3
 10
85.815468
 20
57.0
 30
0.0
 11
85.815468
 21
53.0
 31
0.0
  0
LINE
  5
4A
  8
3
 10
85.232136
 20
57.0
 30
0.0
 11
85.232136
 21
53.0
 31
0.0
  0
LINE
  5
4B
  8
3
 10
84.592546
 20
57.0
 30
0.0
 11
84.592546
 21
53.0
 31
0.0
  0
LINE
  5
4C
  8
3
 10
83.900641
 20
57.0
 30
0.0
 11
83.900641
 21
53.0
 31
0.0
  0
LINE
  5
4D
  8
3
 10
83.160687
 20
57.0
 30
0.0
 11
83.160687
 21
53.0
 31
0.0
  0
LINE
  5
4E
  8
3
 10
82.377247
 20
57.0
 30
0.0
 11
82.377247
 21
53.0
 31
0.0
  0
LINE
  5
4F
  8
3
 10
81.55515
 20
57.0
 30
0.0
 11
81.55515
 21
53.0
 31
0.0
  0
LINE
  5
50
  8
3
 10
80.699465
 20
57.0
 30
0.0
 11
80.699465
 21
53.0
 31
0.0
  0
LINE
  5
51
  8
3
 10
79.815468
 20
57.0
 30
0.0
 11
79.815468
 21
53.0
 31
0.0
  0
LINE
  5
52
  8
3
 10
78.908609
 20
57.0
 30
0.0
 11
78.908609
 21
53.0
 31
0.0
  0
LINE
  5
53
  8
3
 10
77.984478
 20
57.0
 30
0.0
 11
77.984478
 21
53.0
 31
0.0
  0
LINE
  5
54
  8
3
 10
77.048773
 20
57.0
 30
0.0
 11
77.048773
 21
53.0
 31
0.0
  0
LINE
  5
55
  8
3
 10
75.165755
 20
57.0
 30
0.0
 11
75.165755
 21
53.0
 31
0.0
  0
LINE
  5
56
  8
3
 10
74.230051
 20
57.0
 30
0.0
 11
74.230051
 21
53.0
 31
0.0
  0
LINE
  5
57
  8
3
 10
73.30592
 20
57.0
 30
0.0
 11
73.30592
 21
53.0
 31
0.0
  0
LINE
  5
58
  8
3
 10
72.39906
 20
57.0
 30
0.0
 11
72.39906
 21
53.0
 31
0.0
  0
LINE
  5
59
  8
3
 10
71.515063
 20
57.0
 30
0.0
 11
71.515063
 21
53.0
 31
0.0
  0
LINE
  5
5A
  8
3
 10
70.659378
 20
57.0
 30
0.0
 11
70.659378
 21
53.0
 31
0.0
  0
LINE
  5
5B
  8
3
 10
69.837281
 20
57.0
 30
0.0
 11
69.837281
 21
53.0
 31
0.0
  0
LINE
  5
5C
  8
3
 10
69.053841
 20
57.0
 30
0.0
 11
69.053841
 21
53.0
 31
0.0
  0
LINE
  5
5D
  8
3
 10
68.313888
 20
57.0
 30
0.0
 11
68.313888
 21
53.0
 31
0.0
  0
LINE
  5
5E
  8
3
 10
67.621983
 20
57.0
 30
0.0
 11
67.621983
 21
53.0
 31
0.0
  0
LINE
  5
5F
  8
3
 10
66.982393
 20
57.0
 30
0.0
 11
66.982393
 21
53.0
 31
0.0
  0
LINE
  5
60
  8
3
 10
66.39906
 20
57.0
 30
0.0
 11
66.39906
 21
53.0
 31
0.0
  0
LINE
  5
61
  8
3
 10
65.875582
 20
57.0
 30
0.0
 11
65.875582
 21
53.0
 31
0.0
  0
LINE
  5
62
  8
3
 10
65.415186
 20
57.0
 30
0.0
 11
65.415186
 21
53.0
 31
0.0
  0
LINE
  5
63
  8
3
 10
65.02071
 20
57.0
 30
0.0
 11
65.02071
 21
53.0
 31
0.0
  0
LINE
  5
64
  8
3
 10
64.694586
 20
57.0
 30
0.0
 11
64.694586
 21
53.0
 31
0.0
  0
LINE
  5
65
  8
3
 10
64.438825
 20
57.0
 30
0.0
 11
64.438825
 21
53.0
 31
0.0
  0
LINE
  5
66
  8
3
 10
64.255004
 20
57.0
 30
0.0
 11
64.255004
 21
53.0
 31
0.0
  0
LINE
  5
67
  8
3
 10
64.144256
 20
57.0
 30
0.0
 11
64.144256
 21
53.0
 31
0.0
  0
ARC
  5
68
  8
0
 10
69.107264
 20
51.5
 30
0.0
 40
1.0
 50
0.0
 51
90.0
  0
LINE
  5
69
  8
3
 10
73.648764
 20
12.9585
 30
0.0
 11
73.648764
 21
40.56219
 31
0.0
  0
LINE
  5
6A
  8
0
 10
73.107264
 20
13.5
 30
0.0
 11
73.107264
 21
40.5
 31
0.0
  0
LINE
  5
6B
  8
0
 10
74.107264
 20
12.5
 30
0.0
 11
73.107264
 21
13.5
 31
0.0
  0
ARC
  5
6C
  8
0
 10
73.407264
 20
42.0
 30
0.0
 40
0.5
 50
360.0
 51
90.0
  0
ARC
  5
6D
  8
0
 10
73.407264
 20
41.0
 30
0.0
 40
0.5
 50
270.0
 51
360.0
  0
LINE
  5
6E
  8
0
 10
73.907264
 20
42.0
 30
0.0
 11
73.907264
 21
41.0
 31
0.0
  0
LINE
  5
6F
  8
0
 10
70.107264
 20
43.0
 30
0.0
 11
70.607264
 21
42.5
 31
0.0
  0
LINE
  5
70
  8
0
 10
70.107264
 20
51.5
 30
0.0
 11
70.107264
 21
43.0
 31
0.0
  0
LINE
  5
71
  8
0
 10
64.107264
 20
53.0
 30
0.0
 11
64.607264
 21
52.5
 31
0.0
  0
LINE
  5
72
  8
0
 10
64.107264
 20
57.0
 30
0.0
 11
64.107264
 21
53.0
 31
0.0
  0
LINE
  5
73
  8
0
 10
64.607264
 20
57.5
 30
0.0
 11
64.107264
 21
57.0
 31
0.0
  0
LINE
  5
74
  8
1
 10
76.107264
 20
10.0
 30
0.0
 11
76.107264
 21
60.0
 31
0.0
  0
LINE
  5
75
  8
0
 10
78.107264
 20
12.5
 30
0.0
 11
74.107264
 21
12.5
 31
0.0
  0
LINE
  5
76
  8
0
 10
79.107264
 20
13.5
 30
0.0
 11
73.107264
 21
13.5
 31
0.0
  0
LINE
  5
77
  8
0
 10
79.107264
 20
40.5
 30
0.0
 11
73.107264
 21
40.5
 31
0.0
  0
LINE
  5
78
  8
0
 10
81.607264
 20
42.5
 30
0.0
 11
70.607264
 21
42.5
 31
0.0
  0
LINE
  5
79
  8
0
 10
87.607264
 20
52.5
 30
0.0
 11
64.607264
 21
52.5
 31
0.0
  0
LINE
  5
7A
  8
0
 10
87.607264
 20
57.5
 30
0.0
 11
64.607264
 21
57.5
 31
0.0
  0
LINE
  5
7B
  8
0
 10
88.107264
 20
53.0
 30
0.0
 11
64.107264
 21
53.0
 31
0.0
  0
LINE
  5
7C
  8
0
 10
88.107264
 20
57.0
 30
0.0
 11
64.107264
 21
57.0
 31
0.0
  0
LINE
  5
7D
  8
3
 10
76.107264
 20
53.0
 30
0.0
 11
76.107264
 21
57.0
 31
0.0
  0
LINE
  5
7E
  8
0
 10
82.107264
 20
43.0
 30
0.0
 11
70.107264
 21
43.0
 31
0.0
  0
LINE
  5
93
  8
0
 10
27.0
 20
12.5
 30
0.0
 11
23.0
 21
12.5
 31
0.0
  0
LINE
  5
94
  8
0
 10
28.0
 20
13.5
 30
0.0
 11
22.0
 21
13.5
 31
0.0
  0
LINE
  5
95
  8
0
 10
28.0
 20
40.5
 30
0.0
 11
22.0
 21
40.5
 31
0.0
  0
LINE
  5
96
  8
0
 10
30.5
 20
42.5
 30
0.0
 11
19.5
 21
42.5
 31
0.0
  0
LINE
  5
97
  8
0
 10
36.5
 20
52.5
 30
0.0
 11
13.5
 21
52.5
 31
0.0
  0
LINE
  5
98
  8
0
 10
36.5
 20
57.5
 30
0.0
 11
13.5
 21
57.5
 31
0.0
  0
LINE
  5
99
  8
0
 10
37.0
 20
53.0
 30
0.0
 11
13.0
 21
53.0
 31
0.0
  0
LINE
  5
9A
  8
0
 10
37.0
 20
57.0
 30
0.0
 11
13.0
 21
57.0
 31
0.0
  0
LINE
  5
9B
  8
0
 10
31.0
 20
43.0
 30
0.0
 11
19.0
 21
43.0
 31
0.0
  0
LINE
  5
9C
  8
3
 10
22.5415
 20
12.9585
 30
0.0
 11
22.5415
 21
40.56219
 31
0.0
  0
LINE
  5
9D
  8
0
 10
22.0
 20
13.5
 30
0.0
 11
22.0
 21
40.5
 31
0.0
  0
LINE
  5
9E
  8
0
 10
23.0
 20
12.5
 30
0.0
 11
22.0
 21
13.5
 31
0.0
  0
LINE
  5
9F
  8
0
 10
19.0
 20
51.5
 30
0.0
 11
19.0
 21
43.0
 31
0.0
  0
ARC
  5
A0
  8
0
 10
22.3
 20
42.0
 30
0.0
 40
0.5
 50
360.0
 51
90.0
  0
ARC
  5
A1
  8
0
 10
22.3
 20
41.0
 30
0.0
 40
0.5
 50
270.0
 51
360.0
  0
LINE
  5
A2
  8
0
 10
22.8
 20
42.0
 30
0.0
 11
22.8
 21
41.0
 31
0.0
  0
LINE
  5
A3
  8
0
 10
19.0
 20
43.0
 30
0.0
 11
19.5
 21
42.5
 31
0.0
  0
LINE
  5
A4
  8
3
 10
17.206623
 20
57.0
 30
0.0
 11
17.206623
 21
53.0
 31
0.0
  0
LINE
  5
A5
  8
3
 10
16.514719
 20
57.0
 30
0.0
 11
16.514719
 21
53.0
 31
0.0
  0
LINE
  5
A6
  8
3
 10
15.875128
 20
57.0
 30
0.0
 11
15.875128
 21
53.0
 31
0.0
  0
LINE
  5
A7
  8
3
 10
15.291796
 20
57.0
 30
0.0
 11
15.291796
 21
53.0
 31
0.0
  0
LINE
  5
A8
  8
3
 10
14.768318
 20
57.0
 30
0.0
 11
14.768318
 21
53.0
 31
0.0
  0
LINE
  5
A9
  8
3
 10
14.307922
 20
57.0
 30
0.0
 11
14.307922
 21
53.0
 31
0.0
  0
LINE
  5
AA
  8
3
 10
13.913446
 20
57.0
 30
0.0
 11
13.913446
 21
53.0
 31
0.0
  0
LINE
  5
AB
  8
3
 10
13.587322
 20
57.0
 30
0.0
 11
13.587322
 21
53.0
 31
0.0
  0
LINE
  5
AC
  8
3
 10
13.331561
 20
57.0
 30
0.0
 11
13.331561
 21
53.0
 31
0.0
  0
LINE
  5
AD
  8
3
 10
13.14774
 20
57.0
 30
0.0
 11
13.14774
 21
53.0
 31
0.0
  0
LINE
  5
AE
  8
3
 10
13.036992
 20
57.0
 30
0.0
 11
13.036992
 21
53.0
 31
0.0
  0
LINE
  5
AF
  8
0
 10
13.0
 20
57.0
 30
0.0
 11
13.0
 21
53.0
 31
0.0
  0
LINE
  5
B0
  8
0
 10
13.0
 20
53.0
 30
0.0
 11
13.5
 21
52.5
 31
0.0
  0
LINE
  5
B1
  8
0
 10
13.5
 20
57.5
 30
0.0
 11
13.0
 21
57.0
 31
0.0
  0
LINE
  5
B2
  8
3
 10
24.058491
 20
57.0
 30
0.0
 11
24.058491
 21
53.0
 31
0.0
  0
LINE
  5
B3
  8
3
 10
23.122786
 20
57.0
 30
0.0
 11
23.122786
 21
53.0
 31
0.0
  0
LINE
  5
B4
  8
3
 10
22.198656
 20
57.0
 30
0.0
 11
22.198656
 21
53.0
 31
0.0
  0
LINE
  5
B5
  8
3
 10
21.291796
 20
57.0
 30
0.0
 11
21.291796
 21
53.0
 31
0.0
  0
LINE
  5
B6
  8
3
 10
20.407799
 20
57.0
 30
0.0
 11
20.407799
 21
53.0
 31
0.0
  0
LINE
  5
B7
  8
3
 10
19.552114
 20
57.0
 30
0.0
 11
19.552114
 21
53.0
 31
0.0
  0
LINE
  5
B8
  8
3
 10
18.730017
 20
57.0
 30
0.0
 11
18.730017
 21
53.0
 31
0.0
  0
LINE
  5
B9
  8
3
 10
17.946577
 20
57.0
 30
0.0
 11
17.946577
 21
53.0
 31
0.0
  0
ARC
  5
BA
  8
0
 10
18.0
 20
51.5
 30
0.0
 40
1.0
 50
0.0
 51
90.0
  0
LINE
  5
BB
  8
0
 10
28.0
 20
13.5
 30
0.0
 11
28.0
 21
40.5
 31
0.0
  0
LINE
  5
BC
  8
3
 10
27.4585
 20
12.9585
 30
0.0
 11
27.4585
 21
40.56219
 31
0.0
  0
LINE
  5
BD
  8
1
 10
25.0
 20
10.0
 30
0.0
 11
25.0
 21
60.0
 31
0.0
  0
LINE
  5
BE
  8
0
 10
27.0
 20
12.5
 30
0.0
 11
28.0
 21
13.5
 31
0.0
  0
LINE
  5
BF
  8
0
 10
31.0
 20
51.5
 30
0.0
 11
31.0
 21
43.0
 31
0.0
  0
ARC
  5
C0
  8
0
 10
27.7
 20
42.0
 30
0.0
 40
0.5
 50
90.0
 51
180.0
  0
ARC
  5
C1
  8
0
 10
27.7
 20
41.0
 30
0.0
 40
0.5
 50
180.0
 51
270.0
  0
LINE
  5
C2
  8
0
 10
27.2
 20
42.0
 30
0.0
 11
27.2
 21
41.0
 31
0.0
  0
LINE
  5
C3
  8
0
 10
31.0
 20
43.0
 30
0.0
 11
30.5
 21
42.5
 31
0.0
  0
LINE
  5
C4
  8
3
 10
32.053423
 20
57.0
 30
0.0
 11
32.053423
 21
53.0
 31
0.0
  0
LINE
  5
C5
  8
3
 10
31.269983
 20
57.0
 30
0.0
 11
31.269983
 21
53.0
 31
0.0
  0
LINE
  5
C6
  8
3
 10
30.447886
 20
57.0
 30
0.0
 11
30.447886
 21
53.0
 31
0.0
  0
LINE
  5
C7
  8
3
 10
29.592201
 20
57.0
 30
0.0
 11
29.592201
 21
53.0
 31
0.0
  0
LINE
  5
C8
  8
3
 10
28.708204
 20
57.0
 30
0.0
 11
28.708204
 21
53.0
 31
0.0
  0
LINE
  5
C9
  8
3
 10
27.801344
 20
57.0
 30
0.0
 11
27.801344
 21
53.0
 31
0.0
  0
LINE
  5
CA
  8
3
 10
26.877214
 20
57.0
 30
0.0
 11
26.877214
 21
53.0
 31
0.0
  0
LINE
  5
CB
  8
3
 10
25.941509
 20
57.0
 30
0.0
 11
25.941509
 21
53.0
 31
0.0
  0
LINE
  5
CC
  8
3
 10
25.0
 20
53.0
 30
0.0
 11
25.0
 21
57.0
 31
0.0
  0
ARC
  5
CD
  8
0
 10
32.0
 20
51.5
 30
0.0
 40
1.0
 50
90.0
 51
180.0
  0
LINE
  5
CE
  8
0
 10
37.0
 20
57.0
 30
0.0
 11
37.0
 21
53.0
 31
0.0
  0
LINE
  5
CF
  8
3
 10
36.963008
 20
57.0
 30
0.0
 11
36.963008
 21
53.0
 31
0.0
  0
LINE
  5
D0
  8
3
 10
36.85226
 20
57.0
 30
0.0
 11
36.85226
 21
53.0
 31
0.0
  0
LINE
  5
D1
  8
3
 10
36.668439
 20
57.0
 30
0.0
 11
36.668439
 21
53.0
 31
0.0
  0
LINE
  5
D2
  8
3
 10
36.412678
 20
57.0
 30
0.0
 11
36.412678
 21
53.0
 31
0.0
  0
LINE
  5
D3
  8
3
 10
36.086554
 20
57.0
 30
0.0
 11
36.086554
 21
53.0
 31
0.0
  0
LINE
  5
D4
  8
3
 10
35.692078
 20
57.0
 30
0.0
 11
35.692078
 21
53.0
 31
0.0
  0
LINE
  5
D5
  8
3
 10
35.231682
 20
57.0
 30
0.0
 11
35.231682
 21
53.0
 31
0.0
  0
LINE
  5
D6
  8
3
 10
34.708204
 20
57.0
 30
0.0
 11
34.708204
 21
53.0
 31
0.0
  0
LINE
  5
D7
  8
3
 10
34.124872
 20
57.0
 30
0.0
 11
34.124872
 21
53.0
 31
0.0
  0
LINE
  5
D8
  8
3
 10
33.485281
 20
57.0
 30
0.0
 11
33.485281
 21
53.0
 31
0.0
  0
LINE
  5
D9
  8
3
 10
32.793377
 20
57.0
 30
0.0
 11
32.793377
 21
53.0
 31
0.0
  0
LINE
  5
DA
  8
0
 10
37.0
 20
53.0
 30
0.0
 11
36.5
 21
52.5
 31
0.0
  0
LINE
  5
DB
  8
0
 10
36.5
 20
57.5
 30
0.0
 11
37.0
 21
57.0
 31
0.0
  0
ENDSEC
  0
EOF
