  0
SECTION
  2
HEADER
  9
$ACADVER
  1
AC1009
  9
$INSBASE
 10
0.0
 20
0.0
 30
0.0
  9
$EXTMIN
 10
23.0
 20
17.5
 30
0.0
  9
$EXTMAX
 10
82.901895
 20
52.5
 30
0.0
  9
$LIMMIN
 10
0.0
 20
0.0
  9
$LIMMAX
 10
100.0
 20
70.0
  9
$ORTHOMODE
 70
     0
  9
$REGENMODE
 70
     1
  9
$FILLMODE
 70
     1
  9
$QTEXTMODE
 70
     0
  9
$MIRRTEXT
 70
     1
  9
$DRAGMODE
 70
     0
  9
$LTSCALE
 40
5.0
  9
$OSMODE
 70
     0
  9
$ATTMODE
 70
     2
  9
$TEXTSIZE
 40
3.0
  9
$TRACEWID
 40
0.05
  9
$TEXTSTYLE
  7
STANDARD
  9
$CLAYER
  8
0
  9
$CELTYPE
  6
BYLAYER
  9
$CECOLOR
 62
   256
  9
$DIMSCALE
 40
0.5
  9
$DIMASZ
 40
3.0
  9
$DIMEXO
 40
2.0
  9
$DIMDLI
 40
0.38
  9
$DIMRND
 40
0.0
  9
$DIMDLE
 40
0.0
  9
$DIMEXE
 40
2.0
  9
$DIMTP
 40
0.0
  9
$DIMTM
 40
0.0
  9
$DIMTXT
 40
3.2
  9
$DIMCEN
 40
0.09
  9
$DIMTSZ
 40
0.0
  9
$DIMTOL
 70
     0
  9
$DIMLIM
 70
     0
  9
$DIMTIH
 70
     0
  9
$DIMTOH
 70
     0
  9
$DIMSE1
 70
     0
  9
$DIMSE2
 70
     0
  9
$DIMTAD
 70
     1
  9
$DIMZIN
 70
     0
  9
$DIMBLK
  1

  9
$DIMASO
 70
     0
  9
$DIMSHO
 70
     0
  9
$DIMPOST
  1

  9
$DIMAPOST
  1

  9
$DIMALT
 70
     0
  9
$DIMALTD
 70
     2
  9
$DIMALTF
 40
25.4
  9
$DIMLFAC
 40
1.0
  9
$DIMTOFL
 70
     0
  9
$DIMTVP
 40
0.0
  9
$DIMTIX
 70
     0
  9
$DIMSOXD
 70
     0
  9
$DIMSAH
 70
     0
  9
$DIMBLK1
  1

  9
$DIMBLK2
  1

  9
$DIMSTYLE
  2
STANDARD
  9
$DIMCLRD
 70
     0
  9
$DIMCLRE
 70
     0
  9
$DIMCLRT
 70
     0
  9
$DIMTFAC
 40
1.0
  9
$DIMGAP
 40
0.09
  9
$LUNITS
 70
     2
  9
$LUPREC
 70
     4
  9
$SKETCHINC
 40
0.1
  9
$FILLETRAD
 40
0.0
  9
$AUNITS
 70
     0
  9
$AUPREC
 70
     0
  9
$MENU
  1
ACAD
  9
$ELEVATION
 40
0.0
  9
$PELEVATION
 40
0.0
  9
$THICKNESS
 40
0.0
  9
$LIMCHECK
 70
     0
  9
$BLIPMODE
 70
     0
  9
$CHAMFERA
 40
0.0
  9
$CHAMFERB
 40
0.0
  9
$SKPOLY
 70
     0
  9
$TDCREATE
 40
2450868.798842
  9
$TDUPDATE
 40
2450868.798842
  9
$TDINDWG
 40
0.0
  9
$TDUSRTIMER
 40
0.0
  9
$USRTIMER
 70
     1
  9
$ANGBASE
 50
0.0
  9
$ANGDIR
 70
     0
  9
$PDMODE
 70
     0
  9
$PDSIZE
 40
0.0
  9
$PLINEWID
 40
0.0
  9
$COORDS
 70
     2
  9
$SPLFRAME
 70
     0
  9
$SPLINETYPE
 70
     6
  9
$SPLINESEGS
 70
     8
  9
$ATTDIA
 70
     0
  9
$ATTREQ
 70
     1
  9
$HANDLING
 70
     1
  9
$HANDSEED
  5
187
  9
$SURFTAB1
 70
     6
  9
$SURFTAB2
 70
     6
  9
$SURFTYPE
 70
     6
  9
$SURFU
 70
     6
  9
$SURFV
 70
     6
  9
$UCSNAME
  2

  9
$UCSORG
 10
0.0
 20
0.0
 30
0.0
  9
$UCSXDIR
 10
1.0
 20
0.0
 30
0.0
  9
$UCSYDIR
 10
0.0
 20
1.0
 30
0.0
  9
$PUCSNAME
  2

  9
$PUCSORG
 10
0.0
 20
0.0
 30
0.0
  9
$PUCSXDIR
 10
1.0
 20
0.0
 30
0.0
  9
$PUCSYDIR
 10
0.0
 20
1.0
 30
0.0
  9
$USERI1
 70
     0
  9
$USERI2
 70
     0
  9
$USERI3
 70
     0
  9
$USERI4
 70
     0
  9
$USERI5
 70
     0
  9
$USERR1
 40
0.0
  9
$USERR2
 40
0.0
  9
$USERR3
 40
0.0
  9
$USERR4
 40
0.0
  9
$USERR5
 40
0.0
  9
$WORLDVIEW
 70
     1
  9
$SHADEDGE
 70
     3
  9
$SHADEDIF
 70
    70
  9
$TILEMODE
 70
     1
  9
$MAXACTVP
 70
    16
  9
$PLIMCHECK
 70
     0
  9
$PEXTMIN
 10
1.000000E+020
 20
1.000000E+020
 30
1.000000E+020
  9
$PEXTMAX
 10
-1.000000E+020
 20
-1.000000E+020
 30
-1.000000E+020
  9
$PLIMMIN
 10
0.0
 20
0.0
  9
$PLIMMAX
 10
12.0
 20
9.0
  9
$UNITMODE
 70
     0
  9
$VISRETAIN
 70
     0
  9
$PLINEGEN
 70
   251
  9
$PSLTSCALE
 70
     0
  0
ENDSEC
  0
SECTION
  2
TABLES
  0
TABLE
  2
VPORT
 70
     3
  0
VPORT
  2
*ACTIVE
 70
     0
 10
0.0
 20
0.0
 11
1.0
 21
1.0
 12
62.076772
 22
45.861467
 13
0.0
 23
0.0
 14
5.0
 24
5.0
 15
10.0
 25
10.0
 16
0.0
 26
0.0
 36
1.0
 17
0.0
 27
0.0
 37
0.0
 40
91.722934
 41
1.353571
 42
50.0
 43
0.0
 44
0.0
 50
0.0
 51
0.0
 71
     0
 72
   500
 73
     1
 74
     1
 75
     1
 76
     1
 77
     0
 78
     2
  0
ENDTAB
  0
TABLE
  2
LTYPE
 70
     2
  0
LTYPE
  2
CONTINUOUS
 70
     0
  3
Solid line
 72
    65
 73
     0
 40
0.0
  0
LTYPE
  2
CENTER
 70
     0
  3
____ _ ____ _ ____ _ ____ _ ____ _ ____ _ ____
 72
    65
 73
     4
 40
2.0
 49
1.25
 49
-0.25
 49
0.25
 49
-0.25
  0
ENDTAB
  0
TABLE
  2
LAYER
 70
     5
  0
LAYER
  2
0
 70
     0
 62
     7
  6
CONTINUOUS
  0
LAYER
  2
1
 70
     0
 62
     1
  6
CENTER
  0
LAYER
  2
3
 70
     0
 62
     3
  6
CONTINUOUS
  0
LAYER
  2
10
 70
     0
 62
     7
  6
CONTINUOUS
  0
LAYER
  2
11
 70
     0
 62
     3
  6
CONTINUOUS
  0
ENDTAB
  0
TABLE
  2
STYLE
 70
     3
  0
STYLE
  2
STANDARD
 70
     0
 40
0.0
 41
1.0
 50
0.0
 71
     0
 42
0.2
  3
TXT
  4
BIGFONT
  0
STYLE
  2
07500
 70
     0
 40
0.0
 41
0.75
 50
0.0
 71
     0
 42
6.0
  3
TXT
  4
BIGFONT
  0
STYLE
  2
BIGFONT
 70
     0
 40
3.0
 41
0.8
 50
0.0
 71
     0
 42
3.0
  3

  4
bigfont
  0
ENDTAB
  0
TABLE
  2
VIEW
 70
     1
  0
VIEW
  2
ALL
 70
     0
 40
135.0
 10
110.495798
 20
67.5
 41
0.0
 11
0.0
 21
0.0
 31
1.0
 12
0.0
 22
0.0
 32
0.0
 42
0.0
 43
0.0
 44
0.0
 50
0.0
 71
     0
  0
ENDTAB
  0
TABLE
  2
UCS
 70
     0
  0
ENDTAB
  0
TABLE
  2
APPID
 70
     1
  0
APPID
  2
ACAD
 70
     0
  0
ENDTAB
  0
TABLE
  2
DIMSTYLE
 70
     1
  0
DIMSTYLE
  2
STANDARD
 70
     0
  3

  4

  5

  6

  7

 40
1.0
 41
0.18
 42
0.0625
 43
0.38
 44
0.18
 45
0.0
 46
0.0
 47
0.0
 48
0.0
140
0.18
141
0.09
142
0.0
143
25.4
144
1.0
145
0.0
146
1.0
147
0.09
 71
     0
 72
     0
 73
     1
 74
     1
 75
     0
 76
     0
 77
     0
 78
     0
170
     0
171
     2
172
     0
173
     0
174
     0
175
     0
176
     0
177
     0
178
     0
  0
ENDTAB
  0
ENDSEC
  0
SECTION
  2
BLOCKS
  0
BLOCK
  8
0
  2
$MODEL_SPACE
 70
     0
 10
0.0
 20
0.0
 30
0.0
  3
$MODEL_SPACE
  1

  0
ENDBLK
  5
180
  8
0
  0
BLOCK
 67
     1
  8
0
  2
$PAPER_SPACE
 70
     0
 10
0.0
 20
0.0
 30
0.0
  3
$PAPER_SPACE
  1

  0
ENDBLK
  5
17E
 67
     1
  8
0
  0
BLOCK
  8
0
  2
QQ
 70
     0
 10
270.0
 20
0.0
 30
0.0
  3
QQ
  1

  0
LINE
  5
2C
  8
11
 10
173.0
 20
36.0
 30
0.0
 11
270.0
 21
36.0
 31
0.0
  0
TEXT
  5
2D
  8
11
 10
175.0
 20
32.5
 30
0.0
 40
2.5
  1
部品名称
  0
LINE
  5
2E
  8
11
 10
173.0
 20
36.0
 30
0.0
 11
173.0
 21
0.0
 31
0.0
  0
LINE
  5
2F
  8
11
 10
173.0
 20
24.0
 30
0.0
 11
270.0
 21
24.0
 31
0.0
  0
TEXT
  5
30
  8
11
 10
175.0
 20
20.5
 30
0.0
 40
2.5
  1
品番
  0
LINE
  5
31
  8
11
 10
173.0
 20
12.0
 30
0.0
 11
270.0
 21
12.0
 31
0.0
  0
TEXT
  5
32
  8
11
 10
175.0
 20
8.5
 30
0.0
 40
2.5
  1
尺度
  0
TEXT
  5
33
  8
11
 10
200.0
 20
8.5
 30
0.0
 40
2.5
  1
図番
  0
LINE
  5
34
  8
11
 10
198.0
 20
0.0
 30
0.0
 11
198.0
 21
12.0
 31
0.0
  0
ENDBLK
  5
35
  8
0
  0
ENDSEC
  0
SECTION
  2
ENTITIES
  0
LINE
  5
36
  8
0
 10
82.401895
 20
50.0
 30
0.0
 11
82.901895
 21
49.5
 31
0.0
  0
LINE
  5
37
  8
0
 10
82.901895
 20
49.5
 30
0.0
 11
82.901895
 21
45.5
 31
0.0
  0
LINE
  5
38
  8
0
 10
82.901895
 20
45.5
 30
0.0
 11
82.401895
 21
45.0
 31
0.0
  0
LINE
  5
39
  8
0
 10
76.901895
 20
44.0
 30
0.0
 11
76.901895
 21
35.5
 31
0.0
  0
LINE
  5
3A
  8
0
 10
76.901895
 20
35.5
 30
0.0
 11
76.401895
 21
35.0
 31
0.0
  0
LINE
  5
3B
  8
0
 10
73.101895
 20
34.5
 30
0.0
 11
73.101895
 21
33.5
 31
0.0
  0
ARC
  5
3C
  8
0
 10
73.601895
 20
33.5
 30
0.0
 40
0.5
 50
180.0
 51
270.0
  0
ARC
  5
3D
  8
0
 10
73.601895
 20
34.5
 30
0.0
 40
0.5
 50
90.0
 51
180.0
  0
LINE
  5
3E
  8
0
 10
72.901895
 20
20.0
 30
0.0
 11
73.901895
 21
21.0
 31
0.0
  0
LINE
  5
3F
  8
0
 10
73.901895
 20
21.0
 30
0.0
 11
73.901895
 21
33.0
 31
0.0
  0
LINE
  5
40
  8
3
 10
73.360395
 20
20.4585
 30
0.0
 11
73.360395
 21
33.06219
 31
0.0
  0
ARC
  5
41
  8
0
 10
77.901895
 20
44.0
 30
0.0
 40
1.0
 50
90.0
 51
180.0
  0
LINE
  5
42
  8
0
 10
82.864903
 20
49.5
 30
0.0
 11
82.864903
 21
45.5
 31
0.0
  0
LINE
  5
43
  8
3
 10
82.754155
 20
49.5
 30
0.0
 11
82.754155
 21
45.5
 31
0.0
  0
LINE
  5
44
  8
3
 10
82.570334
 20
49.5
 30
0.0
 11
82.570334
 21
45.5
 31
0.0
  0
LINE
  5
45
  8
3
 10
82.314573
 20
49.5
 30
0.0
 11
82.314573
 21
45.5
 31
0.0
  0
LINE
  5
46
  8
3
 10
81.98845
 20
49.5
 30
0.0
 11
81.98845
 21
45.5
 31
0.0
  0
LINE
  5
47
  8
3
 10
81.593974
 20
49.5
 30
0.0
 11
81.593974
 21
45.5
 31
0.0
  0
LINE
  5
48
  8
3
 10
81.133577
 20
49.5
 30
0.0
 11
81.133577
 21
45.5
 31
0.0
  0
LINE
  5
49
  8
3
 10
80.610099
 20
49.5
 30
0.0
 11
80.610099
 21
45.5
 31
0.0
  0
LINE
  5
4A
  8
3
 10
80.026767
 20
49.5
 30
0.0
 11
80.026767
 21
45.5
 31
0.0
  0
LINE
  5
4B
  8
3
 10
79.387177
 20
49.5
 30
0.0
 11
79.387177
 21
45.5
 31
0.0
  0
LINE
  5
4C
  8
3
 10
78.695272
 20
49.5
 30
0.0
 11
78.695272
 21
45.5
 31
0.0
  0
LINE
  5
4D
  8
3
 10
77.955318
 20
49.5
 30
0.0
 11
77.955318
 21
45.5
 31
0.0
  0
LINE
  5
4E
  8
3
 10
77.171878
 20
49.5
 30
0.0
 11
77.171878
 21
45.5
 31
0.0
  0
LINE
  5
4F
  8
3
 10
76.349781
 20
49.5
 30
0.0
 11
76.349781
 21
45.5
 31
0.0
  0
LINE
  5
50
  8
3
 10
75.494096
 20
49.5
 30
0.0
 11
75.494096
 21
45.5
 31
0.0
  0
LINE
  5
51
  8
3
 10
74.610099
 20
49.5
 30
0.0
 11
74.610099
 21
45.5
 31
0.0
  0
LINE
  5
52
  8
3
 10
73.70324
 20
49.5
 30
0.0
 11
73.70324
 21
45.5
 31
0.0
  0
LINE
  5
53
  8
3
 10
72.779109
 20
49.5
 30
0.0
 11
72.779109
 21
45.5
 31
0.0
  0
LINE
  5
54
  8
3
 10
71.843404
 20
49.5
 30
0.0
 11
71.843404
 21
45.5
 31
0.0
  0
LINE
  5
55
  8
3
 10
69.960386
 20
49.5
 30
0.0
 11
69.960386
 21
45.5
 31
0.0
  0
LINE
  5
56
  8
3
 10
69.024682
 20
49.5
 30
0.0
 11
69.024682
 21
45.5
 31
0.0
  0
LINE
  5
57
  8
3
 10
68.100551
 20
49.5
 30
0.0
 11
68.100551
 21
45.5
 31
0.0
  0
LINE
  5
58
  8
3
 10
67.193691
 20
49.5
 30
0.0
 11
67.193691
 21
45.5
 31
0.0
  0
LINE
  5
59
  8
3
 10
66.309694
 20
49.5
 30
0.0
 11
66.309694
 21
45.5
 31
0.0
  0
LINE
  5
5A
  8
3
 10
65.454009
 20
49.5
 30
0.0
 11
65.454009
 21
45.5
 31
0.0
  0
LINE
  5
5B
  8
3
 10
64.631913
 20
49.5
 30
0.0
 11
64.631913
 21
45.5
 31
0.0
  0
LINE
  5
5C
  8
3
 10
63.848472
 20
49.5
 30
0.0
 11
63.848472
 21
45.5
 31
0.0
  0
LINE
  5
5D
  8
3
 10
63.108519
 20
49.5
 30
0.0
 11
63.108519
 21
45.5
 31
0.0
  0
LINE
  5
5E
  8
3
 10
62.416614
 20
49.5
 30
0.0
 11
62.416614
 21
45.5
 31
0.0
  0
LINE
  5
5F
  8
3
 10
61.777024
 20
49.5
 30
0.0
 11
61.777024
 21
45.5
 31
0.0
  0
LINE
  5
60
  8
3
 10
61.193691
 20
49.5
 30
0.0
 11
61.193691
 21
45.5
 31
0.0
  0
LINE
  5
61
  8
3
 10
60.670213
 20
49.5
 30
0.0
 11
60.670213
 21
45.5
 31
0.0
  0
LINE
  5
62
  8
3
 10
60.209817
 20
49.5
 30
0.0
 11
60.209817
 21
45.5
 31
0.0
  0
LINE
  5
63
  8
3
 10
59.815341
 20
49.5
 30
0.0
 11
59.815341
 21
45.5
 31
0.0
  0
LINE
  5
64
  8
3
 10
59.489217
 20
49.5
 30
0.0
 11
59.489217
 21
45.5
 31
0.0
  0
LINE
  5
65
  8
3
 10
59.233456
 20
49.5
 30
0.0
 11
59.233456
 21
45.5
 31
0.0
  0
LINE
  5
66
  8
0
 10
59.049635
 20
49.5
 30
0.0
 11
59.049635
 21
45.5
 31
0.0
  0
LINE
  5
67
  8
0
 10
58.938887
 20
49.5
 30
0.0
 11
58.938887
 21
45.5
 31
0.0
  0
ARC
  5
68
  8
0
 10
63.901895
 20
44.0
 30
0.0
 40
1.0
 50
0.0
 51
90.0
  0
LINE
  5
69
  8
3
 10
68.443395
 20
20.4585
 30
0.0
 11
68.443395
 21
33.06219
 31
0.0
  0
LINE
  5
6A
  8
0
 10
67.901895
 20
21.0
 30
0.0
 11
67.901895
 21
33.0
 31
0.0
  0
LINE
  5
6B
  8
0
 10
68.901895
 20
20.0
 30
0.0
 11
67.901895
 21
21.0
 31
0.0
  0
ARC
  5
6C
  8
0
 10
68.201895
 20
34.5
 30
0.0
 40
0.5
 50
360.0
 51
90.0
  0
ARC
  5
6D
  8
0
 10
68.201895
 20
33.5
 30
0.0
 40
0.5
 50
270.0
 51
360.0
  0
LINE
  5
6E
  8
0
 10
68.701895
 20
34.5
 30
0.0
 11
68.701895
 21
33.5
 31
0.0
  0
LINE
  5
6F
  8
0
 10
64.901895
 20
35.5
 30
0.0
 11
65.401895
 21
35.0
 31
0.0
  0
LINE
  5
70
  8
0
 10
64.901895
 20
44.0
 30
0.0
 11
64.901895
 21
35.5
 31
0.0
  0
LINE
  5
71
  8
3
 10
58.901895
 20
45.5
 30
0.0
 11
59.401895
 21
45.0
 31
0.0
  0
LINE
  5
72
  8
0
 10
58.901895
 20
49.5
 30
0.0
 11
58.901895
 21
45.5
 31
0.0
  0
LINE
  5
73
  8
0
 10
59.401895
 20
50.0
 30
0.0
 11
58.901895
 21
49.5
 31
0.0
  0
LINE
  5
74
  8
1
 10
70.901895
 20
17.5
 30
0.0
 11
70.901895
 21
52.5
 31
0.0
  0
LINE
  5
75
  8
0
 10
72.901895
 20
20.0
 30
0.0
 11
68.901895
 21
20.0
 31
0.0
  0
LINE
  5
76
  8
0
 10
73.901895
 20
21.0
 30
0.0
 11
67.901895
 21
21.0
 31
0.0
  0
LINE
  5
77
  8
0
 10
73.901895
 20
33.0
 30
0.0
 11
67.901895
 21
33.0
 31
0.0
  0
LINE
  5
78
  8
0
 10
76.401895
 20
35.0
 30
0.0
 11
65.401895
 21
35.0
 31
0.0
  0
LINE
  5
79
  8
0
 10
82.401895
 20
45.0
 30
0.0
 11
59.401895
 21
45.0
 31
0.0
  0
LINE
  5
7A
  8
0
 10
82.401895
 20
50.0
 30
0.0
 11
59.401895
 21
50.0
 31
0.0
  0
LINE
  5
7B
  8
0
 10
82.901895
 20
45.5
 30
0.0
 11
58.901895
 21
45.5
 31
0.0
  0
LINE
  5
7C
  8
0
 10
82.901895
 20
49.5
 30
0.0
 11
58.901895
 21
49.5
 31
0.0
  0
LINE
  5
7D
  8
3
 10
70.901895
 20
45.5
 30
0.0
 11
70.901895
 21
49.5
 31
0.0
  0
LINE
  5
7E
  8
0
 10
76.901895
 20
35.5
 30
0.0
 11
64.901895
 21
35.5
 31
0.0
  0
LINE
  5
93
  8
0
 10
46.5
 20
50.0
 30
0.0
 11
23.5
 21
50.0
 31
0.0
  0
LINE
  5
94
  8
0
 10
41.0
 20
35.5
 30
0.0
 11
40.5
 21
35.0
 31
0.0
  0
LINE
  5
95
  8
0
 10
46.5
 20
45.0
 30
0.0
 11
23.5
 21
45.0
 31
0.0
  0
LINE
  5
96
  8
0
 10
41.0
 20
35.5
 30
0.0
 11
29.0
 21
35.5
 31
0.0
  0
LINE
  5
97
  8
0
 10
47.0
 20
49.5
 30
0.0
 11
23.0
 21
49.5
 31
0.0
  0
LINE
  5
98
  8
0
 10
47.0
 20
45.5
 30
0.0
 11
23.0
 21
45.5
 31
0.0
  0
LINE
  5
99
  8
0
 10
29.0
 20
44.0
 30
0.0
 11
29.0
 21
35.5
 31
0.0
  0
LINE
  5
9A
  8
1
 10
35.0
 20
17.5
 30
0.0
 11
35.0
 21
52.5
 31
0.0
  0
LINE
  5
9B
  8
0
 10
32.0
 20
21.0
 30
0.0
 11
32.0
 21
33.0
 31
0.0
  0
LINE
  5
9C
  8
3
 10
32.5415
 20
20.4585
 30
0.0
 11
32.5415
 21
33.06219
 31
0.0
  0
LINE
  5
9D
  8
3
 10
37.4585
 20
20.4585
 30
0.0
 11
37.4585
 21
33.06219
 31
0.0
  0
LINE
  5
9E
  8
0
 10
38.0
 20
21.0
 30
0.0
 11
38.0
 21
33.0
 31
0.0
  0
LINE
  5
9F
  8
0
 10
37.0
 20
20.0
 30
0.0
 11
33.0
 21
20.0
 31
0.0
  0
LINE
  5
A0
  8
0
 10
38.0
 20
21.0
 30
0.0
 11
32.0
 21
21.0
 31
0.0
  0
LINE
  5
A1
  8
0
 10
33.0
 20
20.0
 30
0.0
 11
32.0
 21
21.0
 31
0.0
  0
LINE
  5
A2
  8
0
 10
37.0
 20
20.0
 30
0.0
 11
38.0
 21
21.0
 31
0.0
  0
LINE
  5
A3
  8
0
 10
40.5
 20
35.0
 30
0.0
 11
29.5
 21
35.0
 31
0.0
  0
LINE
  5
A4
  8
0
 10
38.0
 20
33.0
 30
0.0
 11
32.0
 21
33.0
 31
0.0
  0
LINE
  5
A5
  8
0
 10
29.0
 20
35.5
 30
0.0
 11
29.5
 21
35.0
 31
0.0
  0
LINE
  5
A6
  8
0
 10
32.8
 20
34.5
 30
0.0
 11
32.8
 21
33.5
 31
0.0
  0
ARC
  5
A7
  8
0
 10
32.3
 20
33.5
 30
0.0
 40
0.5
 50
270.0
 51
360.0
  0
ARC
  5
A8
  8
0
 10
32.3
 20
34.5
 30
0.0
 40
0.5
 50
360.0
 51
90.0
  0
LINE
  5
A9
  8
0
 10
37.2
 20
34.5
 30
0.0
 11
37.2
 21
33.5
 31
0.0
  0
ARC
  5
AA
  8
0
 10
37.7
 20
33.5
 30
0.0
 40
0.5
 50
180.0
 51
270.0
  0
ARC
  5
AB
  8
0
 10
37.7
 20
34.5
 30
0.0
 40
0.5
 50
90.0
 51
180.0
  0
LINE
  5
AC
  8
0
 10
23.036992
 20
49.5
 30
0.0
 11
23.036992
 21
45.5
 31
0.0
  0
LINE
  5
AD
  8
0
 10
23.14774
 20
49.5
 30
0.0
 11
23.14774
 21
45.5
 31
0.0
  0
LINE
  5
AE
  8
3
 10
23.331561
 20
49.5
 30
0.0
 11
23.331561
 21
45.5
 31
0.0
  0
LINE
  5
AF
  8
3
 10
23.587322
 20
49.5
 30
0.0
 11
23.587322
 21
45.5
 31
0.0
  0
LINE
  5
B0
  8
3
 10
23.913446
 20
49.5
 30
0.0
 11
23.913446
 21
45.5
 31
0.0
  0
LINE
  5
B1
  8
3
 10
24.307922
 20
49.5
 30
0.0
 11
24.307922
 21
45.5
 31
0.0
  0
LINE
  5
B2
  8
3
 10
24.768318
 20
49.5
 30
0.0
 11
24.768318
 21
45.5
 31
0.0
  0
LINE
  5
B3
  8
3
 10
25.291796
 20
49.5
 30
0.0
 11
25.291796
 21
45.5
 31
0.0
  0
LINE
  5
B4
  8
0
 10
23.0
 20
49.5
 30
0.0
 11
23.0
 21
45.5
 31
0.0
  0
LINE
  5
B5
  8
3
 10
23.0
 20
45.5
 30
0.0
 11
23.5
 21
45.0
 31
0.0
  0
LINE
  5
B6
  8
0
 10
23.5
 20
50.0
 30
0.0
 11
23.0
 21
49.5
 31
0.0
  0
LINE
  5
B7
  8
3
 10
25.875128
 20
49.5
 30
0.0
 11
25.875128
 21
45.5
 31
0.0
  0
LINE
  5
B8
  8
3
 10
26.514719
 20
49.5
 30
0.0
 11
26.514719
 21
45.5
 31
0.0
  0
LINE
  5
B9
  8
3
 10
27.206623
 20
49.5
 30
0.0
 11
27.206623
 21
45.5
 31
0.0
  0
LINE
  5
BA
  8
3
 10
27.946577
 20
49.5
 30
0.0
 11
27.946577
 21
45.5
 31
0.0
  0
LINE
  5
BB
  8
3
 10
28.730017
 20
49.5
 30
0.0
 11
28.730017
 21
45.5
 31
0.0
  0
LINE
  5
BC
  8
3
 10
29.552114
 20
49.5
 30
0.0
 11
29.552114
 21
45.5
 31
0.0
  0
LINE
  5
BD
  8
3
 10
30.407799
 20
49.5
 30
0.0
 11
30.407799
 21
45.5
 31
0.0
  0
LINE
  5
BE
  8
3
 10
31.291796
 20
49.5
 30
0.0
 11
31.291796
 21
45.5
 31
0.0
  0
LINE
  5
BF
  8
3
 10
32.198656
 20
49.5
 30
0.0
 11
32.198656
 21
45.5
 31
0.0
  0
LINE
  5
C0
  8
3
 10
35.0
 20
45.5
 30
0.0
 11
35.0
 21
49.5
 31
0.0
  0
LINE
  5
C1
  8
3
 10
33.122786
 20
49.5
 30
0.0
 11
33.122786
 21
45.5
 31
0.0
  0
LINE
  5
C2
  8
3
 10
34.058491
 20
49.5
 30
0.0
 11
34.058491
 21
45.5
 31
0.0
  0
LINE
  5
C3
  8
3
 10
35.941509
 20
49.5
 30
0.0
 11
35.941509
 21
45.5
 31
0.0
  0
LINE
  5
C4
  8
3
 10
36.877214
 20
49.5
 30
0.0
 11
36.877214
 21
45.5
 31
0.0
  0
LINE
  5
C5
  8
3
 10
37.801344
 20
49.5
 30
0.0
 11
37.801344
 21
45.5
 31
0.0
  0
LINE
  5
C6
  8
3
 10
38.708204
 20
49.5
 30
0.0
 11
38.708204
 21
45.5
 31
0.0
  0
LINE
  5
C7
  8
3
 10
39.592201
 20
49.5
 30
0.0
 11
39.592201
 21
45.5
 31
0.0
  0
LINE
  5
C8
  8
3
 10
40.447886
 20
49.5
 30
0.0
 11
40.447886
 21
45.5
 31
0.0
  0
ARC
  5
C9
  8
0
 10
28.0
 20
44.0
 30
0.0
 40
1.0
 50
0.0
 51
90.0
  0
LINE
  5
CA
  8
0
 10
41.0
 20
44.0
 30
0.0
 11
41.0
 21
35.5
 31
0.0
  0
LINE
  5
CB
  8
3
 10
41.269983
 20
49.5
 30
0.0
 11
41.269983
 21
45.5
 31
0.0
  0
LINE
  5
CC
  8
3
 10
42.053423
 20
49.5
 30
0.0
 11
42.053423
 21
45.5
 31
0.0
  0
LINE
  5
CD
  8
3
 10
42.793377
 20
49.5
 30
0.0
 11
42.793377
 21
45.5
 31
0.0
  0
LINE
  5
CE
  8
3
 10
43.485281
 20
49.5
 30
0.0
 11
43.485281
 21
45.5
 31
0.0
  0
LINE
  5
CF
  8
3
 10
44.124872
 20
49.5
 30
0.0
 11
44.124872
 21
45.5
 31
0.0
  0
LINE
  5
D0
  8
3
 10
44.708204
 20
49.5
 30
0.0
 11
44.708204
 21
45.5
 31
0.0
  0
LINE
  5
D1
  8
3
 10
45.231682
 20
49.5
 30
0.0
 11
45.231682
 21
45.5
 31
0.0
  0
LINE
  5
D2
  8
3
 10
45.692078
 20
49.5
 30
0.0
 11
45.692078
 21
45.5
 31
0.0
  0
LINE
  5
D3
  8
3
 10
46.086554
 20
49.5
 30
0.0
 11
46.086554
 21
45.5
 31
0.0
  0
LINE
  5
D4
  8
3
 10
46.412678
 20
49.5
 30
0.0
 11
46.412678
 21
45.5
 31
0.0
  0
LINE
  5
D5
  8
3
 10
46.668439
 20
49.5
 30
0.0
 11
46.668439
 21
45.5
 31
0.0
  0
LINE
  5
D6
  8
3
 10
46.85226
 20
49.5
 30
0.0
 11
46.85226
 21
45.5
 31
0.0
  0
LINE
  5
D7
  8
0
 10
46.963008
 20
49.5
 30
0.0
 11
46.963008
 21
45.5
 31
0.0
  0
LINE
  5
D8
  8
0
 10
47.0
 20
49.5
 30
0.0
 11
47.0
 21
45.5
 31
0.0
  0
ARC
  5
D9
  8
0
 10
42.0
 20
44.0
 30
0.0
 40
1.0
 50
90.0
 51
180.0
  0
LINE
  5
DA
  8
0
 10
47.0
 20
45.5
 30
0.0
 11
46.5
 21
45.0
 31
0.0
  0
LINE
  5
DB
  8
0
 10
46.5
 20
50.0
 30
0.0
 11
47.0
 21
49.5
 31
0.0
  0
ENDSEC
  0
EOF
