  0
SECTION
  2
HEADER
  9
$ACADVER
  1
AC1009
  9
$INSBASE
 10
0.0
 20
0.0
 30
0.0
  9
$EXTMIN
 10
20.0
 20
21.75
 30
0.0
  9
$EXTMAX
 10
89.924226
 20
48.25
 30
0.0
  9
$LIMMIN
 10
0.0
 20
0.0
  9
$LIMMAX
 10
100.0
 20
70.0
  9
$ORTHOMODE
 70
     0
  9
$REGENMODE
 70
     1
  9
$FILLMODE
 70
     1
  9
$QTEXTMODE
 70
     0
  9
$MIRRTEXT
 70
     1
  9
$DRAGMODE
 70
     0
  9
$LTSCALE
 40
5.0
  9
$OSMODE
 70
     0
  9
$ATTMODE
 70
     2
  9
$TEXTSIZE
 40
3.0
  9
$TRACEWID
 40
0.05
  9
$TEXTSTYLE
  7
STANDARD
  9
$CLAYER
  8
0
  9
$CELTYPE
  6
BYLAYER
  9
$CECOLOR
 62
   256
  9
$DIMSCALE
 40
0.5
  9
$DIMASZ
 40
3.0
  9
$DIMEXO
 40
2.0
  9
$DIMDLI
 40
0.38
  9
$DIMRND
 40
0.0
  9
$DIMDLE
 40
0.0
  9
$DIMEXE
 40
2.0
  9
$DIMTP
 40
0.0
  9
$DIMTM
 40
0.0
  9
$DIMTXT
 40
3.2
  9
$DIMCEN
 40
0.09
  9
$DIMTSZ
 40
0.0
  9
$DIMTOL
 70
     0
  9
$DIMLIM
 70
     0
  9
$DIMTIH
 70
     0
  9
$DIMTOH
 70
     0
  9
$DIMSE1
 70
     0
  9
$DIMSE2
 70
     0
  9
$DIMTAD
 70
     1
  9
$DIMZIN
 70
     0
  9
$DIMBLK
  1

  9
$DIMASO
 70
     0
  9
$DIMSHO
 70
     0
  9
$DIMPOST
  1

  9
$DIMAPOST
  1

  9
$DIMALT
 70
     0
  9
$DIMALTD
 70
     2
  9
$DIMALTF
 40
25.4
  9
$DIMLFAC
 40
1.0
  9
$DIMTOFL
 70
     0
  9
$DIMTVP
 40
0.0
  9
$DIMTIX
 70
     0
  9
$DIMSOXD
 70
     0
  9
$DIMSAH
 70
     0
  9
$DIMBLK1
  1

  9
$DIMBLK2
  1

  9
$DIMSTYLE
  2
STANDARD
  9
$DIMCLRD
 70
     0
  9
$DIMCLRE
 70
     0
  9
$DIMCLRT
 70
     0
  9
$DIMTFAC
 40
1.0
  9
$DIMGAP
 40
0.09
  9
$LUNITS
 70
     2
  9
$LUPREC
 70
     4
  9
$SKETCHINC
 40
0.1
  9
$FILLETRAD
 40
0.0
  9
$AUNITS
 70
     0
  9
$AUPREC
 70
     0
  9
$MENU
  1
ACAD
  9
$ELEVATION
 40
0.0
  9
$PELEVATION
 40
0.0
  9
$THICKNESS
 40
0.0
  9
$LIMCHECK
 70
     0
  9
$BLIPMODE
 70
     0
  9
$CHAMFERA
 40
0.0
  9
$CHAMFERB
 40
0.0
  9
$SKPOLY
 70
     0
  9
$TDCREATE
 40
2450868.795423
  9
$TDUPDATE
 40
2450868.795423
  9
$TDINDWG
 40
0.0
  9
$TDUSRTIMER
 40
0.0
  9
$USRTIMER
 70
     1
  9
$ANGBASE
 50
0.0
  9
$ANGDIR
 70
     0
  9
$PDMODE
 70
     0
  9
$PDSIZE
 40
0.0
  9
$PLINEWID
 40
0.0
  9
$COORDS
 70
     2
  9
$SPLFRAME
 70
     0
  9
$SPLINETYPE
 70
     6
  9
$SPLINESEGS
 70
     8
  9
$ATTDIA
 70
     0
  9
$ATTREQ
 70
     1
  9
$HANDLING
 70
     1
  9
$HANDSEED
  5
184
  9
$SURFTAB1
 70
     6
  9
$SURFTAB2
 70
     6
  9
$SURFTYPE
 70
     6
  9
$SURFU
 70
     6
  9
$SURFV
 70
     6
  9
$UCSNAME
  2

  9
$UCSORG
 10
0.0
 20
0.0
 30
0.0
  9
$UCSXDIR
 10
1.0
 20
0.0
 30
0.0
  9
$UCSYDIR
 10
0.0
 20
1.0
 30
0.0
  9
$PUCSNAME
  2

  9
$PUCSORG
 10
0.0
 20
0.0
 30
0.0
  9
$PUCSXDIR
 10
1.0
 20
0.0
 30
0.0
  9
$PUCSYDIR
 10
0.0
 20
1.0
 30
0.0
  9
$USERI1
 70
     0
  9
$USERI2
 70
     0
  9
$USERI3
 70
     0
  9
$USERI4
 70
     0
  9
$USERI5
 70
     0
  9
$USERR1
 40
0.0
  9
$USERR2
 40
0.0
  9
$USERR3
 40
0.0
  9
$USERR4
 40
0.0
  9
$USERR5
 40
0.0
  9
$WORLDVIEW
 70
     1
  9
$SHADEDGE
 70
     3
  9
$SHADEDIF
 70
    70
  9
$TILEMODE
 70
     1
  9
$MAXACTVP
 70
    16
  9
$PLIMCHECK
 70
     0
  9
$PEXTMIN
 10
1.000000E+020
 20
1.000000E+020
 30
1.000000E+020
  9
$PEXTMAX
 10
-1.000000E+020
 20
-1.000000E+020
 30
-1.000000E+020
  9
$PLIMMIN
 10
0.0
 20
0.0
  9
$PLIMMAX
 10
12.0
 20
9.0
  9
$UNITMODE
 70
     0
  9
$VISRETAIN
 70
     0
  9
$PLINEGEN
 70
   248
  9
$PSLTSCALE
 70
     0
  0
ENDSEC
  0
SECTION
  2
TABLES
  0
TABLE
  2
VPORT
 70
     3
  0
VPORT
  2
*ACTIVE
 70
     0
 10
0.0
 20
0.0
 11
1.0
 21
1.0
 12
62.076772
 22
45.861467
 13
0.0
 23
0.0
 14
5.0
 24
5.0
 15
10.0
 25
10.0
 16
0.0
 26
0.0
 36
1.0
 17
0.0
 27
0.0
 37
0.0
 40
91.722934
 41
1.353571
 42
50.0
 43
0.0
 44
0.0
 50
0.0
 51
0.0
 71
     0
 72
   500
 73
     1
 74
     1
 75
     1
 76
     1
 77
     0
 78
     1
  0
ENDTAB
  0
TABLE
  2
LTYPE
 70
     2
  0
LTYPE
  2
CONTINUOUS
 70
     0
  3
Solid line
 72
    65
 73
     0
 40
0.0
  0
LTYPE
  2
CENTER
 70
     0
  3
____ _ ____ _ ____ _ ____ _ ____ _ ____ _ ____
 72
    65
 73
     4
 40
2.0
 49
1.25
 49
-0.25
 49
0.25
 49
-0.25
  0
ENDTAB
  0
TABLE
  2
LAYER
 70
     5
  0
LAYER
  2
0
 70
     0
 62
     7
  6
CONTINUOUS
  0
LAYER
  2
1
 70
     0
 62
     1
  6
CENTER
  0
LAYER
  2
3
 70
     0
 62
     3
  6
CONTINUOUS
  0
LAYER
  2
10
 70
     0
 62
     7
  6
CONTINUOUS
  0
LAYER
  2
11
 70
     0
 62
     3
  6
CONTINUOUS
  0
ENDTAB
  0
TABLE
  2
STYLE
 70
     3
  0
STYLE
  2
STANDARD
 70
     0
 40
0.0
 41
1.0
 50
0.0
 71
     0
 42
0.2
  3
TXT
  4
BIGFONT
  0
STYLE
  2
07500
 70
     0
 40
0.0
 41
0.75
 50
0.0
 71
     0
 42
6.0
  3
TXT
  4
BIGFONT
  0
STYLE
  2
BIGFONT
 70
     0
 40
3.0
 41
0.8
 50
0.0
 71
     0
 42
3.0
  3

  4
bigfont
  0
ENDTAB
  0
TABLE
  2
VIEW
 70
     1
  0
VIEW
  2
ALL
 70
     0
 40
135.0
 10
110.495798
 20
67.5
 41
0.0
 11
0.0
 21
0.0
 31
1.0
 12
0.0
 22
0.0
 32
0.0
 42
0.0
 43
0.0
 44
0.0
 50
0.0
 71
     0
  0
ENDTAB
  0
TABLE
  2
UCS
 70
     0
  0
ENDTAB
  0
TABLE
  2
APPID
 70
     1
  0
APPID
  2
ACAD
 70
     0
  0
ENDTAB
  0
TABLE
  2
DIMSTYLE
 70
     1
  0
DIMSTYLE
  2
STANDARD
 70
     0
  3

  4

  5

  6

  7

 40
1.0
 41
0.18
 42
0.0625
 43
0.38
 44
0.18
 45
0.0
 46
0.0
 47
0.0
 48
0.0
140
0.18
141
0.09
142
0.0
143
25.4
144
1.0
145
0.0
146
1.0
147
0.09
 71
     0
 72
     0
 73
     1
 74
     1
 75
     0
 76
     0
 77
     0
 78
     0
170
     0
171
     2
172
     0
173
     0
174
     0
175
     0
176
     0
177
     0
178
     0
  0
ENDTAB
  0
ENDSEC
  0
SECTION
  2
BLOCKS
  0
BLOCK
  8
0
  2
$MODEL_SPACE
 70
     0
 10
0.0
 20
0.0
 30
0.0
  3
$MODEL_SPACE
  1

  0
ENDBLK
  5
17D
  8
0
  0
BLOCK
 67
     1
  8
0
  2
$PAPER_SPACE
 70
     0
 10
0.0
 20
0.0
 30
0.0
  3
$PAPER_SPACE
  1

  0
ENDBLK
  5
17B
 67
     1
  8
0
  0
BLOCK
  8
0
  2
QQ
 70
     0
 10
270.0
 20
0.0
 30
0.0
  3
QQ
  1

  0
LINE
  5
2C
  8
11
 10
173.0
 20
36.0
 30
0.0
 11
270.0
 21
36.0
 31
0.0
  0
TEXT
  5
2D
  8
11
 10
175.0
 20
32.5
 30
0.0
 40
2.5
  1
部品名称
  0
LINE
  5
2E
  8
11
 10
173.0
 20
36.0
 30
0.0
 11
173.0
 21
0.0
 31
0.0
  0
LINE
  5
2F
  8
11
 10
173.0
 20
24.0
 30
0.0
 11
270.0
 21
24.0
 31
0.0
  0
TEXT
  5
30
  8
11
 10
175.0
 20
20.5
 30
0.0
 40
2.5
  1
品番
  0
LINE
  5
31
  8
11
 10
173.0
 20
12.0
 30
0.0
 11
270.0
 21
12.0
 31
0.0
  0
TEXT
  5
32
  8
11
 10
175.0
 20
8.5
 30
0.0
 40
2.5
  1
尺度
  0
TEXT
  5
33
  8
11
 10
200.0
 20
8.5
 30
0.0
 40
2.5
  1
図番
  0
LINE
  5
34
  8
11
 10
198.0
 20
0.0
 30
0.0
 11
198.0
 21
12.0
 31
0.0
  0
ENDBLK
  5
35
  8
0
  0
ENDSEC
  0
SECTION
  2
ENTITIES
  0
LINE
  5
36
  8
0
 10
89.524226
 20
45.75
 30
0.0
 11
89.924226
 21
45.35
 31
0.0
  0
LINE
  5
37
  8
0
 10
89.924226
 20
45.35
 30
0.0
 11
89.924226
 21
42.15
 31
0.0
  0
LINE
  5
38
  8
0
 10
89.924226
 20
42.15
 30
0.0
 11
89.524226
 21
41.75
 31
0.0
  0
LINE
  5
39
  8
0
 10
89.524226
 20
41.75
 30
0.0
 11
85.924226
 21
41.75
 31
0.0
  0
LINE
  5
3A
  8
0
 10
84.924226
 20
40.75
 30
0.0
 11
84.924226
 21
34.65
 31
0.0
  0
LINE
  5
3B
  8
0
 10
84.924226
 20
34.65
 30
0.0
 11
84.524226
 21
34.25
 31
0.0
  0
LINE
  5
3C
  8
0
 10
84.524226
 20
34.25
 30
0.0
 11
82.174226
 21
34.25
 31
0.0
  0
LINE
  5
3D
  8
0
 10
81.774226
 20
33.85
 30
0.0
 11
81.774226
 21
33.05
 31
0.0
  0
LINE
  5
3E
  8
0
 10
82.174226
 20
32.65
 30
0.0
 11
82.424226
 21
32.65
 31
0.0
  0
ARC
  5
3F
  8
0
 10
85.924226
 20
40.75
 30
0.0
 40
1.0
 50
90.0
 51
180.0
  0
ARC
  5
40
  8
0
 10
82.174226
 20
33.85
 30
0.0
 40
0.4
 50
90.0
 51
180.0
  0
ARC
  5
41
  8
0
 10
82.174226
 20
33.05
 30
0.0
 40
0.4
 50
180.0
 51
270.0
  0
LINE
  5
42
  8
0
 10
82.424226
 20
32.65
 30
0.0
 11
82.424226
 21
25.25
 31
0.0
  0
LINE
  5
43
  8
0
 10
82.424226
 20
25.25
 30
0.0
 11
81.424226
 21
24.25
 31
0.0
  0
LINE
  5
44
  8
1
 10
79.924226
 20
21.75
 30
0.0
 11
79.924226
 21
48.25
 31
0.0
  0
LINE
  5
45
  8
3
 10
81.991226
 20
24.817
 30
0.0
 11
81.991226
 21
32.694316
 31
0.0
  0
LINE
  5
46
  8
3
 10
89.747294
 20
45.35
 30
0.0
 11
89.747294
 21
42.15
 31
0.0
  0
LINE
  5
47
  8
3
 10
89.879895
 20
45.35
 30
0.0
 11
89.879895
 21
42.15
 31
0.0
  0
LINE
  5
48
  8
3
 10
89.527601
 20
45.35
 30
0.0
 11
89.527601
 21
42.15
 31
0.0
  0
LINE
  5
49
  8
3
 10
89.222761
 20
45.35
 30
0.0
 11
89.222761
 21
42.15
 31
0.0
  0
LINE
  5
4A
  8
3
 10
88.835479
 20
45.35
 30
0.0
 11
88.835479
 21
42.15
 31
0.0
  0
LINE
  5
4B
  8
3
 10
88.369188
 20
45.35
 30
0.0
 11
88.369188
 21
42.15
 31
0.0
  0
LINE
  5
4C
  8
3
 10
87.828022
 20
45.35
 30
0.0
 11
87.828022
 21
42.15
 31
0.0
  0
LINE
  5
4D
  8
3
 10
87.216779
 20
45.35
 30
0.0
 11
87.216779
 21
42.15
 31
0.0
  0
LINE
  5
4E
  8
3
 10
86.540878
 20
45.35
 30
0.0
 11
86.540878
 21
42.15
 31
0.0
  0
LINE
  5
4F
  8
3
 10
85.806313
 20
45.35
 30
0.0
 11
85.806313
 21
42.15
 31
0.0
  0
LINE
  5
50
  8
3
 10
85.019597
 20
45.35
 30
0.0
 11
85.019597
 21
42.15
 31
0.0
  0
LINE
  5
51
  8
3
 10
84.187703
 20
45.35
 30
0.0
 11
84.187703
 21
42.15
 31
0.0
  0
LINE
  5
52
  8
3
 10
83.318009
 20
45.35
 30
0.0
 11
83.318009
 21
42.15
 31
0.0
  0
LINE
  5
53
  8
3
 10
82.418224
 20
45.35
 30
0.0
 11
82.418224
 21
42.15
 31
0.0
  0
LINE
  5
54
  8
3
 10
81.496327
 20
45.35
 30
0.0
 11
81.496327
 21
42.15
 31
0.0
  0
LINE
  5
55
  8
3
 10
80.560492
 20
45.35
 30
0.0
 11
80.560492
 21
42.15
 31
0.0
  0
LINE
  5
56
  8
3
 10
79.28796
 20
45.35
 30
0.0
 11
79.28796
 21
42.15
 31
0.0
  0
LINE
  5
57
  8
3
 10
78.352124
 20
45.35
 30
0.0
 11
78.352124
 21
42.15
 31
0.0
  0
LINE
  5
58
  8
3
 10
77.430227
 20
45.35
 30
0.0
 11
77.430227
 21
42.15
 31
0.0
  0
LINE
  5
59
  8
3
 10
76.530443
 20
45.35
 30
0.0
 11
76.530443
 21
42.15
 31
0.0
  0
LINE
  5
5A
  8
3
 10
75.660748
 20
45.35
 30
0.0
 11
75.660748
 21
42.15
 31
0.0
  0
LINE
  5
5B
  8
3
 10
74.828855
 20
45.35
 30
0.0
 11
74.828855
 21
42.15
 31
0.0
  0
LINE
  5
5C
  8
3
 10
74.042138
 20
45.35
 30
0.0
 11
74.042138
 21
42.15
 31
0.0
  0
LINE
  5
5D
  8
3
 10
73.307573
 20
45.35
 30
0.0
 11
73.307573
 21
42.15
 31
0.0
  0
LINE
  5
5E
  8
3
 10
72.631673
 20
45.35
 30
0.0
 11
72.631673
 21
42.15
 31
0.0
  0
LINE
  5
5F
  8
3
 10
72.02043
 20
45.35
 30
0.0
 11
72.02043
 21
42.15
 31
0.0
  0
LINE
  5
60
  8
3
 10
71.479264
 20
45.35
 30
0.0
 11
71.479264
 21
42.15
 31
0.0
  0
LINE
  5
61
  8
3
 10
71.012972
 20
45.35
 30
0.0
 11
71.012972
 21
42.15
 31
0.0
  0
LINE
  5
62
  8
3
 10
70.62569
 20
45.35
 30
0.0
 11
70.62569
 21
42.15
 31
0.0
  0
LINE
  5
63
  8
3
 10
70.320851
 20
45.35
 30
0.0
 11
70.320851
 21
42.15
 31
0.0
  0
LINE
  5
64
  8
3
 10
69.968557
 20
45.35
 30
0.0
 11
69.968557
 21
42.15
 31
0.0
  0
LINE
  5
65
  8
3
 10
70.101157
 20
45.35
 30
0.0
 11
70.101157
 21
42.15
 31
0.0
  0
LINE
  5
66
  8
3
 10
77.857226
 20
24.817
 30
0.0
 11
77.857226
 21
32.694316
 31
0.0
  0
LINE
  5
67
  8
0
 10
77.424226
 20
25.25
 30
0.0
 11
78.424226
 21
24.25
 31
0.0
  0
LINE
  5
68
  8
0
 10
77.424226
 20
32.65
 30
0.0
 11
77.424226
 21
25.25
 31
0.0
  0
ARC
  5
69
  8
0
 10
77.674226
 20
33.05
 30
0.0
 40
0.4
 50
270.0
 51
0.0
  0
ARC
  5
6A
  8
0
 10
77.674226
 20
33.85
 30
0.0
 40
0.4
 50
0.0
 51
90.0
  0
ARC
  5
6B
  8
0
 10
73.924226
 20
40.75
 30
0.0
 40
1.0
 50
0.0
 51
90.0
  0
LINE
  5
6C
  8
0
 10
77.674226
 20
32.65
 30
0.0
 11
77.424226
 21
32.65
 31
0.0
  0
LINE
  5
6D
  8
0
 10
78.074226
 20
33.85
 30
0.0
 11
78.074226
 21
33.05
 31
0.0
  0
LINE
  5
6E
  8
0
 10
75.324226
 20
34.25
 30
0.0
 11
77.674226
 21
34.25
 31
0.0
  0
LINE
  5
6F
  8
0
 10
74.924226
 20
34.65
 30
0.0
 11
75.324226
 21
34.25
 31
0.0
  0
LINE
  5
70
  8
0
 10
74.924226
 20
40.75
 30
0.0
 11
74.924226
 21
34.65
 31
0.0
  0
LINE
  5
71
  8
0
 10
70.324226
 20
41.75
 30
0.0
 11
73.924226
 21
41.75
 31
0.0
  0
LINE
  5
72
  8
0
 10
69.924226
 20
42.15
 30
0.0
 11
70.324226
 21
41.75
 31
0.0
  0
LINE
  5
73
  8
0
 10
69.924226
 20
45.35
 30
0.0
 11
69.924226
 21
42.15
 31
0.0
  0
LINE
  5
74
  8
0
 10
70.324226
 20
45.75
 30
0.0
 11
69.924226
 21
45.35
 31
0.0
  0
LINE
  5
75
  8
0
 10
89.524226
 20
45.75
 30
0.0
 11
70.324226
 21
45.75
 31
0.0
  0
LINE
  5
76
  8
0
 10
89.924226
 20
45.35
 30
0.0
 11
69.924226
 21
45.35
 31
0.0
  0
LINE
  5
77
  8
0
 10
89.924226
 20
42.15
 30
0.0
 11
69.924226
 21
42.15
 31
0.0
  0
LINE
  5
78
  8
0
 10
85.924224
 20
41.75
 30
0.0
 11
73.924228
 21
41.75
 31
0.0
  0
LINE
  5
79
  8
0
 10
84.924226
 20
34.65
 30
0.0
 11
74.924226
 21
34.65
 31
0.0
  0
LINE
  5
7A
  8
0
 10
82.174224
 20
34.25
 30
0.0
 11
77.674226
 21
34.25
 31
0.0
  0
LINE
  5
7B
  8
0
 10
82.424226
 20
32.65
 30
0.0
 11
77.424226
 21
32.65
 31
0.0
  0
LINE
  5
7C
  8
0
 10
82.424226
 20
25.25
 30
0.0
 11
77.424226
 21
25.25
 31
0.0
  0
LINE
  5
7D
  8
0
 10
81.424226
 20
24.25
 30
0.0
 11
78.424226
 21
24.25
 31
0.0
  0
LINE
  5
DA
  8
0
 10
39.6
 20
41.75
 30
0.0
 11
36.0
 21
41.75
 31
0.0
  0
LINE
  5
DB
  8
0
 10
40.0
 20
42.15
 30
0.0
 11
20.0
 21
42.15
 31
0.0
  0
LINE
  5
DC
  8
0
 10
40.0
 20
45.35
 30
0.0
 11
20.0
 21
45.35
 31
0.0
  0
LINE
  5
DD
  8
0
 10
39.6
 20
45.75
 30
0.0
 11
20.4
 21
45.75
 31
0.0
  0
ARC
  5
DE
  8
0
 10
32.25
 20
33.05
 30
0.0
 40
0.4
 50
180.0
 51
270.0
  0
ARC
  5
DF
  8
0
 10
27.75
 20
33.05
 30
0.0
 40
0.4
 50
270.0
 51
0.0
  0
LINE
  5
E0
  8
1
 10
30.0
 20
21.75
 30
0.0
 11
30.0
 21
48.25
 31
0.0
  0
LINE
  5
E1
  8
0
 10
32.5
 20
32.65
 30
0.0
 11
27.5
 21
32.65
 31
0.0
  0
LINE
  5
E2
  8
0
 10
32.5
 20
25.25
 30
0.0
 11
27.5
 21
25.25
 31
0.0
  0
LINE
  5
E3
  8
0
 10
31.5
 20
24.25
 30
0.0
 11
28.5
 21
24.25
 31
0.0
  0
LINE
  5
E4
  8
0
 10
27.5
 20
32.65
 30
0.0
 11
27.5
 21
25.25
 31
0.0
  0
LINE
  5
E5
  8
3
 10
27.933
 20
24.817
 30
0.0
 11
27.933
 21
32.694316
 31
0.0
  0
LINE
  5
E6
  8
0
 10
27.5
 20
25.25
 30
0.0
 11
28.5
 21
24.25
 31
0.0
  0
LINE
  5
E7
  8
0
 10
27.75
 20
32.65
 30
0.0
 11
27.5
 21
32.65
 31
0.0
  0
LINE
  5
E8
  8
3
 10
32.067
 20
24.817
 30
0.0
 11
32.067
 21
32.694316
 31
0.0
  0
LINE
  5
E9
  8
0
 10
32.5
 20
32.65
 30
0.0
 11
32.5
 21
25.25
 31
0.0
  0
LINE
  5
EA
  8
0
 10
32.5
 20
25.25
 30
0.0
 11
31.5
 21
24.25
 31
0.0
  0
LINE
  5
EB
  8
0
 10
32.25
 20
32.65
 30
0.0
 11
32.5
 21
32.65
 31
0.0
  0
LINE
  5
EC
  8
0
 10
20.4
 20
41.75
 30
0.0
 11
24.0
 21
41.75
 31
0.0
  0
LINE
  5
ED
  8
0
 10
20.0
 20
45.35
 30
0.0
 11
20.0
 21
42.15
 31
0.0
  0
LINE
  5
EE
  8
3
 10
20.176931
 20
45.35
 30
0.0
 11
20.176931
 21
42.15
 31
0.0
  0
LINE
  5
EF
  8
3
 10
20.044331
 20
45.35
 30
0.0
 11
20.044331
 21
42.15
 31
0.0
  0
LINE
  5
F0
  8
3
 10
20.396625
 20
45.35
 30
0.0
 11
20.396625
 21
42.15
 31
0.0
  0
LINE
  5
F1
  8
3
 10
20.701464
 20
45.35
 30
0.0
 11
20.701464
 21
42.15
 31
0.0
  0
LINE
  5
F2
  8
3
 10
21.088747
 20
45.35
 30
0.0
 11
21.088747
 21
42.15
 31
0.0
  0
LINE
  5
F3
  8
3
 10
21.555038
 20
45.35
 30
0.0
 11
21.555038
 21
42.15
 31
0.0
  0
LINE
  5
F4
  8
3
 10
22.096204
 20
45.35
 30
0.0
 11
22.096204
 21
42.15
 31
0.0
  0
LINE
  5
F5
  8
3
 10
22.707447
 20
45.35
 30
0.0
 11
22.707447
 21
42.15
 31
0.0
  0
LINE
  5
F6
  8
0
 10
20.0
 20
42.15
 30
0.0
 11
20.4
 21
41.75
 31
0.0
  0
LINE
  5
F7
  8
0
 10
20.4
 20
45.75
 30
0.0
 11
20.0
 21
45.35
 31
0.0
  0
LINE
  5
F8
  8
3
 10
34.263477
 20
45.35
 30
0.0
 11
34.263477
 21
42.15
 31
0.0
  0
LINE
  5
F9
  8
3
 10
35.095371
 20
45.35
 30
0.0
 11
35.095371
 21
42.15
 31
0.0
  0
LINE
  5
FA
  8
3
 10
35.882088
 20
45.35
 30
0.0
 11
35.882088
 21
42.15
 31
0.0
  0
LINE
  5
FB
  8
3
 10
36.616653
 20
45.35
 30
0.0
 11
36.616653
 21
42.15
 31
0.0
  0
LINE
  5
FC
  8
3
 10
37.292553
 20
45.35
 30
0.0
 11
37.292553
 21
42.15
 31
0.0
  0
LINE
  5
FD
  8
3
 10
26.606217
 20
45.35
 30
0.0
 11
26.606217
 21
42.15
 31
0.0
  0
LINE
  5
FE
  8
3
 10
27.506002
 20
45.35
 30
0.0
 11
27.506002
 21
42.15
 31
0.0
  0
LINE
  5
FF
  8
3
 10
28.427899
 20
45.35
 30
0.0
 11
28.427899
 21
42.15
 31
0.0
  0
LINE
  5
100
  8
3
 10
29.363734
 20
45.35
 30
0.0
 11
29.363734
 21
42.15
 31
0.0
  0
LINE
  5
101
  8
3
 10
30.636266
 20
45.35
 30
0.0
 11
30.636266
 21
42.15
 31
0.0
  0
LINE
  5
102
  8
3
 10
31.572101
 20
45.35
 30
0.0
 11
31.572101
 21
42.15
 31
0.0
  0
LINE
  5
103
  8
3
 10
32.493998
 20
45.35
 30
0.0
 11
32.493998
 21
42.15
 31
0.0
  0
LINE
  5
104
  8
3
 10
33.393783
 20
45.35
 30
0.0
 11
33.393783
 21
42.15
 31
0.0
  0
LINE
  5
105
  8
3
 10
23.383347
 20
45.35
 30
0.0
 11
23.383347
 21
42.15
 31
0.0
  0
LINE
  5
106
  8
3
 10
24.117912
 20
45.35
 30
0.0
 11
24.117912
 21
42.15
 31
0.0
  0
LINE
  5
107
  8
3
 10
24.904629
 20
45.35
 30
0.0
 11
24.904629
 21
42.15
 31
0.0
  0
LINE
  5
108
  8
3
 10
25.736523
 20
45.35
 30
0.0
 11
25.736523
 21
42.15
 31
0.0
  0
LINE
  5
109
  8
0
 10
32.249999
 20
34.25
 30
0.0
 11
27.75
 21
34.25
 31
0.0
  0
LINE
  5
10A
  8
0
 10
35.999998
 20
41.75
 30
0.0
 11
24.000002
 21
41.75
 31
0.0
  0
LINE
  5
10B
  8
0
 10
35.0
 20
34.65
 30
0.0
 11
25.0
 21
34.65
 31
0.0
  0
LINE
  5
10C
  8
0
 10
25.0
 20
40.75
 30
0.0
 11
25.0
 21
34.65
 31
0.0
  0
LINE
  5
10D
  8
0
 10
25.4
 20
34.25
 30
0.0
 11
27.75
 21
34.25
 31
0.0
  0
LINE
  5
10E
  8
0
 10
25.0
 20
34.65
 30
0.0
 11
25.4
 21
34.25
 31
0.0
  0
LINE
  5
10F
  8
0
 10
28.15
 20
33.85
 30
0.0
 11
28.15
 21
33.05
 31
0.0
  0
ARC
  5
110
  8
0
 10
27.75
 20
33.85
 30
0.0
 40
0.4
 50
0.0
 51
90.0
  0
ARC
  5
111
  8
0
 10
24.0
 20
40.75
 30
0.0
 40
1.0
 50
0.0
 51
90.0
  0
LINE
  5
112
  8
0
 10
35.0
 20
40.75
 30
0.0
 11
35.0
 21
34.65
 31
0.0
  0
LINE
  5
113
  8
0
 10
34.6
 20
34.25
 30
0.0
 11
32.25
 21
34.25
 31
0.0
  0
ARC
  5
114
  8
0
 10
32.25
 20
33.85
 30
0.0
 40
0.4
 50
90.0
 51
180.0
  0
LINE
  5
115
  8
0
 10
31.85
 20
33.85
 30
0.0
 11
31.85
 21
33.05
 31
0.0
  0
LINE
  5
116
  8
0
 10
35.0
 20
34.65
 30
0.0
 11
34.6
 21
34.25
 31
0.0
  0
ARC
  5
117
  8
0
 10
36.0
 20
40.75
 30
0.0
 40
1.0
 50
90.0
 51
180.0
  0
LINE
  5
118
  8
3
 10
37.903796
 20
45.35
 30
0.0
 11
37.903796
 21
42.15
 31
0.0
  0
LINE
  5
119
  8
3
 10
38.444962
 20
45.35
 30
0.0
 11
38.444962
 21
42.15
 31
0.0
  0
LINE
  5
11A
  8
3
 10
38.911253
 20
45.35
 30
0.0
 11
38.911253
 21
42.15
 31
0.0
  0
LINE
  5
11B
  8
3
 10
39.298536
 20
45.35
 30
0.0
 11
39.298536
 21
42.15
 31
0.0
  0
LINE
  5
11C
  8
3
 10
39.603375
 20
45.35
 30
0.0
 11
39.603375
 21
42.15
 31
0.0
  0
LINE
  5
11D
  8
3
 10
39.955669
 20
45.35
 30
0.0
 11
39.955669
 21
42.15
 31
0.0
  0
LINE
  5
11E
  8
3
 10
39.823069
 20
45.35
 30
0.0
 11
39.823069
 21
42.15
 31
0.0
  0
LINE
  5
11F
  8
0
 10
40.0
 20
45.35
 30
0.0
 11
40.0
 21
42.15
 31
0.0
  0
LINE
  5
120
  8
0
 10
40.0
 20
42.15
 30
0.0
 11
39.6
 21
41.75
 31
0.0
  0
LINE
  5
121
  8
0
 10
39.6
 20
45.75
 30
0.0
 11
40.0
 21
45.35
 31
0.0
  0
ENDSEC
  0
EOF
