  0
SECTION
  2
HEADER
  9
$ACADVER
  1
AC1014
  9
$ACADMAINTVER
 70
     0
  9
$DWGCODEPAGE
  3
ANSI_932
  9
$INSBASE
 10
0.0
 20
0.0
 30
0.0
  9
$EXTMIN
 10
62.0
 20
51.0
 30
0.0
  9
$EXTMAX
 10
187.437714
 20
109.0
 30
0.0
  9
$LIMMIN
 10
0.0
 20
0.0
  9
$LIMMAX
 10
250.0
 20
160.0
  9
$ORTHOMODE
 70
     0
  9
$REGENMODE
 70
     1
  9
$FILLMODE
 70
     1
  9
$QTEXTMODE
 70
     0
  9
$MIRRTEXT
 70
     1
  9
$DRAGMODE
 70
     0
  9
$LTSCALE
 40
10.0
  9
$OSMODE
 70
     0
  9
$ATTMODE
 70
     2
  9
$TEXTSIZE
 40
6.0
  9
$TRACEWID
 40
0.05
  9
$TEXTSTYLE
  7
BIGFONT
  9
$CLAYER
  8
0
  9
$CELTYPE
  6
BYLAYER
  9
$CECOLOR
 62
   256
  9
$CELTSCALE
 40
1.0
  9
$DELOBJ
 70
     1
  9
$DISPSILH
 70
     0
  9
$DIMSCALE
 40
1.0
  9
$DIMASZ
 40
3.0
  9
$DIMEXO
 40
2.0
  9
$DIMDLI
 40
0.38
  9
$DIMRND
 40
0.0
  9
$DIMDLE
 40
0.0
  9
$DIMEXE
 40
2.0
  9
$DIMTP
 40
0.0
  9
$DIMTM
 40
0.0
  9
$DIMTXT
 40
3.2
  9
$DIMCEN
 40
0.09
  9
$DIMTSZ
 40
0.0
  9
$DIMTOL
 70
     0
  9
$DIMLIM
 70
     0
  9
$DIMTIH
 70
     0
  9
$DIMTOH
 70
     0
  9
$DIMSE1
 70
     0
  9
$DIMSE2
 70
     0
  9
$DIMTAD
 70
     1
  9
$DIMZIN
 70
     0
  9
$DIMBLK
  1

  9
$DIMASO
 70
     0
  9
$DIMSHO
 70
     0
  9
$DIMPOST
  1

  9
$DIMAPOST
  1

  9
$DIMALT
 70
     0
  9
$DIMALTD
 70
     2
  9
$DIMALTF
 40
25.4
  9
$DIMLFAC
 40
1.0
  9
$DIMTOFL
 70
     0
  9
$DIMTVP
 40
0.0
  9
$DIMTIX
 70
     0
  9
$DIMSOXD
 70
     0
  9
$DIMSAH
 70
     0
  9
$DIMBLK1
  1

  9
$DIMBLK2
  1

  9
$DIMSTYLE
  2
STANDARD
  9
$DIMCLRD
 70
     0
  9
$DIMCLRE
 70
     0
  9
$DIMCLRT
 70
     0
  9
$DIMTFAC
 40
1.0
  9
$DIMGAP
 40
0.09
  9
$DIMJUST
 70
     0
  9
$DIMSD1
 70
     0
  9
$DIMSD2
 70
     0
  9
$DIMTOLJ
 70
     1
  9
$DIMTZIN
 70
     0
  9
$DIMALTZ
 70
     0
  9
$DIMALTTZ
 70
     0
  9
$DIMFIT
 70
     5
  9
$DIMUPT
 70
     0
  9
$DIMUNIT
 70
     2
  9
$DIMDEC
 70
     4
  9
$DIMTDEC
 70
     4
  9
$DIMALTU
 70
     2
  9
$DIMALTTD
 70
     2
  9
$DIMTXSTY
  7
BIGFONT
  9
$DIMAUNIT
 70
     0
  9
$LUNITS
 70
     2
  9
$LUPREC
 70
     4
  9
$SKETCHINC
 40
0.1
  9
$FILLETRAD
 40
0.0
  9
$AUNITS
 70
     0
  9
$AUPREC
 70
     0
  9
$MENU
  1
ACAD
  9
$ELEVATION
 40
0.0
  9
$PELEVATION
 40
0.0
  9
$THICKNESS
 40
0.0
  9
$LIMCHECK
 70
     0
  9
$BLIPMODE
 70
     0
  9
$CHAMFERA
 40
0.0
  9
$CHAMFERB
 40
0.0
  9
$CHAMFERC
 40
0.0
  9
$CHAMFERD
 40
0.0
  9
$SKPOLY
 70
     0
  9
$TDCREATE
 40
2450868.807447917
  9
$TDUPDATE
 40
2450868.807447917
  9
$TDINDWG
 40
0.0000000000
  9
$TDUSRTIMER
 40
0.0000000000
  9
$USRTIMER
 70
     1
  9
$ANGBASE
 50
0.0
  9
$ANGDIR
 70
     0
  9
$PDMODE
 70
     0
  9
$PDSIZE
 40
0.0
  9
$PLINEWID
 40
0.0
  9
$COORDS
 70
     2
  9
$SPLFRAME
 70
     0
  9
$SPLINETYPE
 70
     6
  9
$SPLINESEGS
 70
     8
  9
$ATTDIA
 70
     0
  9
$ATTREQ
 70
     1
  9
$HANDLING
 70
     1
  9
$HANDSEED
  5
1C2
  9
$SURFTAB1
 70
     6
  9
$SURFTAB2
 70
     6
  9
$SURFTYPE
 70
     6
  9
$SURFU
 70
     6
  9
$SURFV
 70
     6
  9
$UCSNAME
  2

  9
$UCSORG
 10
0.0
 20
0.0
 30
0.0
  9
$UCSXDIR
 10
1.0
 20
0.0
 30
0.0
  9
$UCSYDIR
 10
0.0
 20
1.0
 30
0.0
  9
$PUCSNAME
  2

  9
$PUCSORG
 10
0.0
 20
0.0
 30
0.0
  9
$PUCSXDIR
 10
1.0
 20
0.0
 30
0.0
  9
$PUCSYDIR
 10
0.0
 20
1.0
 30
0.0
  9
$USERI1
 70
     0
  9
$USERI2
 70
     0
  9
$USERI3
 70
     0
  9
$USERI4
 70
     0
  9
$USERI5
 70
     0
  9
$USERR1
 40
0.0
  9
$USERR2
 40
0.0
  9
$USERR3
 40
0.0
  9
$USERR4
 40
0.0
  9
$USERR5
 40
0.0
  9
$WORLDVIEW
 70
     1
  9
$SHADEDGE
 70
     3
  9
$SHADEDIF
 70
    70
  9
$TILEMODE
 70
     1
  9
$MAXACTVP
 70
    16
  9
$PINSBASE
 10
0.0
 20
0.0
 30
0.0
  9
$PLIMCHECK
 70
     0
  9
$PEXTMIN
 10
1.000000E+20
 20
1.000000E+20
 30
1.000000E+20
  9
$PEXTMAX
 10
-1.000000E+20
 20
-1.000000E+20
 30
-1.000000E+20
  9
$PLIMMIN
 10
0.0
 20
0.0
  9
$PLIMMAX
 10
12.0
 20
9.0
  9
$UNITMODE
 70
     0
  9
$VISRETAIN
 70
     0
  9
$PLINEGEN
 70
   311
  9
$PSLTSCALE
 70
     0
  9
$TREEDEPTH
 70
  3020
  9
$PICKSTYLE
 70
     1
  9
$CMLSTYLE
  2
STANDARD
  9
$CMLJUST
 70
     0
  9
$CMLSCALE
 40
1.0
  9
$PROXYGRAPHICS
 70
     1
  9
$MEASUREMENT
 70
     0
  0
ENDSEC
  0
SECTION
  2
CLASSES
  0
CLASS
  1
DICTIONARYVAR
  2
AcDbDictionaryVar
  3
"AutoCAD"
 90
        0
280
     0
281
     0
  0
ENDSEC
  0
SECTION
  2
TABLES
  0
TABLE
  2
VPORT
  5
199
100
AcDbSymbolTable
 70
     2
  0
VPORT
  5
1B3
100
AcDbSymbolTableRecord
100
AcDbViewportTableRecord
  2
*ACTIVE
 70
     0
 10
0.0
 20
0.0
 11
1.0
 21
1.0
 12
141.889764
 22
80.0
 13
0.0
 23
0.0
 14
5.0
 24
5.0
 15
10.0
 25
10.0
 16
0.0
 26
0.0
 36
1.0
 17
0.0
 27
0.0
 37
0.0
 40
160.0
 41
1.773622
 42
50.0
 43
0.0
 44
0.0
 50
0.0
 51
0.0
 71
     0
 72
   500
 73
     1
 74
     1
 75
     1
 76
     1
 77
     0
 78
     0
  0
ENDTAB
  0
TABLE
  2
LTYPE
  5
196
100
AcDbSymbolTable
 70
     2
  0
LTYPE
  5
1A2
100
AcDbSymbolTableRecord
100
AcDbLinetypeTableRecord
  2
BYBLOCK
 70
     0
  3

 72
    65
 73
     0
 40
0.0
  0
LTYPE
  5
1A3
100
AcDbSymbolTableRecord
100
AcDbLinetypeTableRecord
  2
BYLAYER
 70
     0
  3

 72
    65
 73
     0
 40
0.0
  0
LTYPE
  5
1A4
100
AcDbSymbolTableRecord
100
AcDbLinetypeTableRecord
  2
CONTINUOUS
 70
     0
  3
Solid line
 72
    65
 73
     0
 40
0.0
  0
LTYPE
  5
1B0
100
AcDbSymbolTableRecord
100
AcDbLinetypeTableRecord
  2
CENTER
 70
     0
  3
____ _ ____ _ ____ _ ____ _ ____ _ ____ _ ____
 72
    65
 73
     4
 40
2.0
 49
1.25
 74
     0
 49
-0.25
 74
     0
 49
0.25
 74
     0
 49
-0.25
 74
     0
  0
ENDTAB
  0
TABLE
  2
LAYER
  5
193
100
AcDbSymbolTable
 70
     5
  0
LAYER
  5
19F
100
AcDbSymbolTableRecord
100
AcDbLayerTableRecord
  2
0
 70
     0
 62
     7
  6
CONTINUOUS
  0
LAYER
  5
1B5
100
AcDbSymbolTableRecord
100
AcDbLayerTableRecord
  2
1
 70
     0
 62
     1
  6
CENTER
  0
LAYER
  5
1B6
100
AcDbSymbolTableRecord
100
AcDbLayerTableRecord
  2
3
 70
     0
 62
     3
  6
CONTINUOUS
  0
LAYER
  5
1B7
100
AcDbSymbolTableRecord
100
AcDbLayerTableRecord
  2
10
 70
     0
 62
     7
  6
CONTINUOUS
  0
LAYER
  5
1B8
100
AcDbSymbolTableRecord
100
AcDbLayerTableRecord
  2
11
 70
     0
 62
     3
  6
CONTINUOUS
  0
ENDTAB
  0
TABLE
  2
STYLE
  5
194
100
AcDbSymbolTable
 70
     3
  0
STYLE
  5
1A0
100
AcDbSymbolTableRecord
100
AcDbTextStyleTableRecord
  2
STANDARD
 70
     0
 40
0.0
 41
1.0
 50
0.0
 71
     0
 42
0.2
  3
TXT
  4
BIGFONT
  0
STYLE
  5
1AE
100
AcDbSymbolTableRecord
100
AcDbTextStyleTableRecord
  2
07500
 70
     0
 40
0.0
 41
0.75
 50
0.0
 71
     0
 42
6.0
  3
TXT
  4
BIGFONT
  0
STYLE
  5
1AF
100
AcDbSymbolTableRecord
100
AcDbTextStyleTableRecord
  2
BIGFONT
 70
     0
 40
6.0
 41
0.8
 50
0.0
 71
     0
 42
6.0
  3

  4
bigfont
  0
ENDTAB
  0
TABLE
  2
VIEW
  5
197
100
AcDbSymbolTable
 70
     1
  0
VIEW
  5
1B1
100
AcDbSymbolTableRecord
100
AcDbViewTableRecord
  2
ALL
 70
     0
 40
270.0
 10
220.991597
 20
135.0
 41
0.0
 11
0.0
 21
0.0
 31
1.0
 12
0.0
 22
0.0
 32
0.0
 42
0.0
 43
0.0
 44
0.0
 50
0.0
 71
     0
  0
ENDTAB
  0
TABLE
  2
UCS
  5
198
100
AcDbSymbolTable
 70
     0
  0
ENDTAB
  0
TABLE
  2
APPID
  5
19A
100
AcDbSymbolTable
 70
     1
  0
APPID
  5
1A1
100
AcDbSymbolTableRecord
100
AcDbRegAppTableRecord
  2
ACAD
 70
     0
  0
ENDTAB
  0
TABLE
  2
DIMSTYLE
  5
19B
100
AcDbSymbolTable
 70
     1
  0
DIMSTYLE
105
1B4
100
AcDbSymbolTableRecord
100
AcDbDimStyleTableRecord
  2
STANDARD
 70
     0
  3

  4

  5

  6

  7

 40
1.0
 41
0.18
 42
0.0625
 43
0.38
 44
0.18
 45
0.0
 46
0.0
 47
0.0
 48
0.0
140
0.18
141
0.09
142
0.0
143
25.4
144
1.0
145
0.0
146
1.0
147
0.09
 71
     0
 72
     0
 73
     1
 74
     1
 75
     0
 76
     0
 77
     0
 78
     0
170
     0
171
     2
172
     0
173
     0
174
     0
175
     0
176
     0
177
     0
178
     0
270
     2
271
     4
272
     4
273
     2
274
     2
340
1AF
275
     0
280
     0
281
     0
282
     0
283
     1
284
     0
285
     0
286
     0
287
     5
288
     0
  0
ENDTAB
  0
TABLE
  2
BLOCK_RECORD
  5
192
100
AcDbSymbolTable
 70
     1
  0
BLOCK_RECORD
  5
1A8
100
AcDbSymbolTableRecord
100
AcDbBlockTableRecord
  2
*MODEL_SPACE
  0
BLOCK_RECORD
  5
1A5
100
AcDbSymbolTableRecord
100
AcDbBlockTableRecord
  2
*PAPER_SPACE
  0
BLOCK_RECORD
  5
1AD
100
AcDbSymbolTableRecord
100
AcDbBlockTableRecord
  2
QQ
  0
ENDTAB
  0
ENDSEC
  0
SECTION
  2
BLOCKS
  0
BLOCK
  5
1BB
100
AcDbEntity
  8
0
100
AcDbBlockBegin
  2
*MODEL_SPACE
 70
     0
 10
0.0
 20
0.0
 30
0.0
  3
*MODEL_SPACE
  1

  0
ENDBLK
  5
1BC
100
AcDbEntity
  8
0
100
AcDbBlockEnd
  0
BLOCK
  5
1B9
100
AcDbEntity
 67
     1
  8
0
100
AcDbBlockBegin
  2
*PAPER_SPACE
 70
     0
 10
0.0
 20
0.0
 30
0.0
  3
*PAPER_SPACE
  1

  0
ENDBLK
  5
1BA
100
AcDbEntity
 67
     1
  8
0
100
AcDbBlockEnd
  0
BLOCK
  5
2B
100
AcDbEntity
  8
0
100
AcDbBlockBegin
  2
QQ
 70
     0
 10
270.0
 20
0.0
 30
0.0
  3
QQ
  1

  0
LINE
  5
2C
100
AcDbEntity
  8
11
100
AcDbLine
 10
173.0
 20
36.0
 30
0.0
 11
270.0
 21
36.0
 31
0.0
  0
TEXT
  5
2D
100
AcDbEntity
  8
11
100
AcDbText
 10
175.0
 20
32.5
 30
0.0
 40
2.5
  1
部品名称
100
AcDbText
  0
LINE
  5
2E
100
AcDbEntity
  8
11
100
AcDbLine
 10
173.0
 20
36.0
 30
0.0
 11
173.0
 21
0.0
 31
0.0
  0
LINE
  5
2F
100
AcDbEntity
  8
11
100
AcDbLine
 10
173.0
 20
24.0
 30
0.0
 11
270.0
 21
24.0
 31
0.0
  0
TEXT
  5
30
100
AcDbEntity
  8
11
100
AcDbText
 10
175.0
 20
20.5
 30
0.0
 40
2.5
  1
品番
100
AcDbText
  0
LINE
  5
31
100
AcDbEntity
  8
11
100
AcDbLine
 10
173.0
 20
12.0
 30
0.0
 11
270.0
 21
12.0
 31
0.0
  0
TEXT
  5
32
100
AcDbEntity
  8
11
100
AcDbText
 10
175.0
 20
8.5
 30
0.0
 40
2.5
  1
尺度
100
AcDbText
  0
TEXT
  5
33
100
AcDbEntity
  8
11
100
AcDbText
 10
200.0
 20
8.5
 30
0.0
 40
2.5
  1
図番
100
AcDbText
  0
LINE
  5
34
100
AcDbEntity
  8
11
100
AcDbLine
 10
198.0
 20
0.0
 30
0.0
 11
198.0
 21
12.0
 31
0.0
  0
ENDBLK
  5
35
100
AcDbEntity
  8
0
100
AcDbBlockEnd
  0
ENDSEC
  0
SECTION
  2
ENTITIES
  0
LINE
  5
36
100
AcDbEntity
  8
1
100
AcDbLine
 10
169.437714
 20
51.0
 30
0.0
 11
169.437714
 21
109.0
 31
0.0
  0
LINE
  5
37
100
AcDbEntity
  8
0
100
AcDbLine
 10
172.937714
 20
56.0
 30
0.0
 11
174.437714
 21
57.5
 31
0.0
  0
LINE
  5
38
100
AcDbEntity
  8
0
100
AcDbLine
 10
174.437714
 20
57.5
 30
0.0
 11
174.437714
 21
78.0
 31
0.0
  0
LINE
  5
39
100
AcDbEntity
  8
0
100
AcDbLine
 10
173.287714
 20
78.8
 30
0.0
 11
173.287714
 21
80.2
 31
0.0
  0
LINE
  5
3A
100
AcDbEntity
  8
0
100
AcDbLine
 10
178.637714
 20
81.0
 30
0.0
 11
179.437714
 21
81.8
 31
0.0
  0
ARC
  5
3B
100
AcDbEntity
  8
0
100
AcDbCircle
 10
174.087714
 20
80.2
 30
0.0
 40
0.8
100
AcDbArc
 50
90.0
 51
180.0
  0
LINE
  5
3C
100
AcDbEntity
  8
0
100
AcDbLine
 10
186.637714
 20
104.0
 30
0.0
 11
187.437714
 21
103.2
 31
0.0
  0
LINE
  5
3D
100
AcDbEntity
  8
3
100
AcDbLine
 10
187.437714
 20
103.2
 30
0.0
 11
187.437714
 21
96.8
 31
0.0
  0
LINE
  5
3E
100
AcDbEntity
  8
0
100
AcDbLine
 10
187.437714
 20
96.8
 30
0.0
 11
186.637714
 21
96.0
 31
0.0
  0
LINE
  5
3F
100
AcDbEntity
  8
0
100
AcDbLine
 10
179.437714
 20
94.0
 30
0.0
 11
179.437714
 21
81.8
 31
0.0
  0
ARC
  5
40
100
AcDbEntity
  8
0
100
AcDbCircle
 10
181.437714
 20
94.0
 30
0.0
 40
2.0
100
AcDbArc
 50
90.0
 51
180.0
  0
ARC
  5
41
100
AcDbEntity
  8
0
100
AcDbCircle
 10
174.087714
 20
78.8
 30
0.0
 40
0.8
100
AcDbArc
 50
180.0
 51
270.0
  0
LINE
  5
42
100
AcDbEntity
  8
3
100
AcDbLine
 10
185.475831
 20
96.8
 30
0.0
 11
185.475831
 21
103.2
 31
0.0
  0
LINE
  5
43
100
AcDbEntity
  8
3
100
AcDbLine
 10
185.026171
 20
96.8
 30
0.0
 11
185.026171
 21
103.2
 31
0.0
  0
LINE
  5
44
100
AcDbEntity
  8
3
100
AcDbLine
 10
184.533784
 20
96.8
 30
0.0
 11
184.533784
 21
103.2
 31
0.0
  0
LINE
  5
45
100
AcDbEntity
  8
3
100
AcDbLine
 10
184.00002
 20
96.8
 30
0.0
 11
184.00002
 21
103.2
 31
0.0
  0
LINE
  5
46
100
AcDbEntity
  8
3
100
AcDbLine
 10
183.426341
 20
96.8
 30
0.0
 11
183.426341
 21
103.2
 31
0.0
  0
LINE
  5
47
100
AcDbEntity
  8
3
100
AcDbLine
 10
182.81432
 20
96.8
 30
0.0
 11
182.81432
 21
103.2
 31
0.0
  0
LINE
  5
48
100
AcDbEntity
  8
3
100
AcDbLine
 10
182.165636
 20
96.8
 30
0.0
 11
182.165636
 21
103.2
 31
0.0
  0
LINE
  5
49
100
AcDbEntity
  8
3
100
AcDbLine
 10
181.482065
 20
96.8
 30
0.0
 11
181.482065
 21
103.2
 31
0.0
  0
LINE
  5
4A
100
AcDbEntity
  8
3
100
AcDbLine
 10
180.765481
 20
96.8
 30
0.0
 11
180.765481
 21
103.2
 31
0.0
  0
LINE
  5
4B
100
AcDbEntity
  8
3
100
AcDbLine
 10
180.017848
 20
96.8
 30
0.0
 11
180.017848
 21
103.2
 31
0.0
  0
LINE
  5
4C
100
AcDbEntity
  8
3
100
AcDbLine
 10
179.241216
 20
96.8
 30
0.0
 11
179.241216
 21
103.2
 31
0.0
  0
LINE
  5
4D
100
AcDbEntity
  8
3
100
AcDbLine
 10
178.437714
 20
96.8
 30
0.0
 11
178.437714
 21
103.2
 31
0.0
  0
LINE
  5
4E
100
AcDbEntity
  8
3
100
AcDbLine
 10
177.609543
 20
96.8
 30
0.0
 11
177.609543
 21
103.2
 31
0.0
  0
LINE
  5
4F
100
AcDbEntity
  8
3
100
AcDbLine
 10
176.758973
 20
96.8
 30
0.0
 11
176.758973
 21
103.2
 31
0.0
  0
LINE
  5
50
100
AcDbEntity
  8
3
100
AcDbLine
 10
175.888337
 20
96.8
 30
0.0
 11
175.888337
 21
103.2
 31
0.0
  0
LINE
  5
51
100
AcDbEntity
  8
3
100
AcDbLine
 10
175.00002
 20
96.8
 30
0.0
 11
175.00002
 21
103.2
 31
0.0
  0
LINE
  5
52
100
AcDbEntity
  8
3
100
AcDbLine
 10
174.096456
 20
96.8
 30
0.0
 11
174.096456
 21
103.2
 31
0.0
  0
LINE
  5
53
100
AcDbEntity
  8
3
100
AcDbLine
 10
173.180124
 20
96.8
 30
0.0
 11
173.180124
 21
103.2
 31
0.0
  0
LINE
  5
54
100
AcDbEntity
  8
3
100
AcDbLine
 10
172.253534
 20
96.8
 30
0.0
 11
172.253534
 21
103.2
 31
0.0
  0
LINE
  5
55
100
AcDbEntity
  8
3
100
AcDbLine
 10
171.319226
 20
96.8
 30
0.0
 11
171.319226
 21
103.2
 31
0.0
  0
LINE
  5
56
100
AcDbEntity
  8
3
100
AcDbLine
 10
170.379761
 20
96.8
 30
0.0
 11
170.379761
 21
103.2
 31
0.0
  0
LINE
  5
57
100
AcDbEntity
  8
3
100
AcDbLine
 10
185.881532
 20
96.8
 30
0.0
 11
185.881532
 21
103.2
 31
0.0
  0
LINE
  5
58
100
AcDbEntity
  8
3
100
AcDbLine
 10
186.242161
 20
96.8
 30
0.0
 11
186.242161
 21
103.2
 31
0.0
  0
LINE
  5
59
100
AcDbEntity
  8
3
100
AcDbLine
 10
186.556731
 20
96.8
 30
0.0
 11
186.556731
 21
103.2
 31
0.0
  0
LINE
  5
5A
100
AcDbEntity
  8
3
100
AcDbLine
 10
186.824379
 20
96.8
 30
0.0
 11
186.824379
 21
103.2
 31
0.0
  0
LINE
  5
5B
100
AcDbEntity
  8
3
100
AcDbLine
 10
187.04437
 20
96.8
 30
0.0
 11
187.04437
 21
103.2
 31
0.0
  0
LINE
  5
5C
100
AcDbEntity
  8
3
100
AcDbLine
 10
187.216104
 20
96.8
 30
0.0
 11
187.216104
 21
103.2
 31
0.0
  0
LINE
  5
5D
100
AcDbEntity
  8
3
100
AcDbLine
 10
187.339108
 20
96.8
 30
0.0
 11
187.339108
 21
103.2
 31
0.0
  0
LINE
  5
5E
100
AcDbEntity
  8
0
100
AcDbLine
 10
187.413045
 20
96.8
 30
0.0
 11
187.413045
 21
103.2
 31
0.0
  0
LINE
  5
5F
100
AcDbEntity
  8
3
100
AcDbLine
 10
151.462382
 20
96.8
 30
0.0
 11
151.462382
 21
103.2
 31
0.0
  0
LINE
  5
60
100
AcDbEntity
  8
3
100
AcDbLine
 10
151.53632
 20
96.8
 30
0.0
 11
151.53632
 21
103.2
 31
0.0
  0
LINE
  5
61
100
AcDbEntity
  8
3
100
AcDbLine
 10
151.659323
 20
96.8
 30
0.0
 11
151.659323
 21
103.2
 31
0.0
  0
LINE
  5
62
100
AcDbEntity
  8
3
100
AcDbLine
 10
151.831057
 20
96.8
 30
0.0
 11
151.831057
 21
103.2
 31
0.0
  0
LINE
  5
63
100
AcDbEntity
  8
3
100
AcDbLine
 10
152.051049
 20
96.8
 30
0.0
 11
152.051049
 21
103.2
 31
0.0
  0
LINE
  5
64
100
AcDbEntity
  8
3
100
AcDbLine
 10
152.318696
 20
96.8
 30
0.0
 11
152.318696
 21
103.2
 31
0.0
  0
LINE
  5
65
100
AcDbEntity
  8
3
100
AcDbLine
 10
152.633266
 20
96.8
 30
0.0
 11
152.633266
 21
103.2
 31
0.0
  0
LINE
  5
66
100
AcDbEntity
  8
3
100
AcDbLine
 10
152.993895
 20
96.8
 30
0.0
 11
152.993895
 21
103.2
 31
0.0
  0
LINE
  5
67
100
AcDbEntity
  8
3
100
AcDbLine
 10
168.495666
 20
96.8
 30
0.0
 11
168.495666
 21
103.2
 31
0.0
  0
LINE
  5
68
100
AcDbEntity
  8
3
100
AcDbLine
 10
167.556201
 20
96.8
 30
0.0
 11
167.556201
 21
103.2
 31
0.0
  0
LINE
  5
69
100
AcDbEntity
  8
3
100
AcDbLine
 10
166.621893
 20
96.8
 30
0.0
 11
166.621893
 21
103.2
 31
0.0
  0
LINE
  5
6A
100
AcDbEntity
  8
3
100
AcDbLine
 10
165.695303
 20
96.8
 30
0.0
 11
165.695303
 21
103.2
 31
0.0
  0
LINE
  5
6B
100
AcDbEntity
  8
3
100
AcDbLine
 10
164.778971
 20
96.8
 30
0.0
 11
164.778971
 21
103.2
 31
0.0
  0
LINE
  5
6C
100
AcDbEntity
  8
3
100
AcDbLine
 10
163.875408
 20
96.8
 30
0.0
 11
163.875408
 21
103.2
 31
0.0
  0
LINE
  5
6D
100
AcDbEntity
  8
3
100
AcDbLine
 10
162.987091
 20
96.8
 30
0.0
 11
162.987091
 21
103.2
 31
0.0
  0
LINE
  5
6E
100
AcDbEntity
  8
3
100
AcDbLine
 10
162.116454
 20
96.8
 30
0.0
 11
162.116454
 21
103.2
 31
0.0
  0
LINE
  5
6F
100
AcDbEntity
  8
3
100
AcDbLine
 10
161.265885
 20
96.8
 30
0.0
 11
161.265885
 21
103.2
 31
0.0
  0
LINE
  5
70
100
AcDbEntity
  8
3
100
AcDbLine
 10
160.437714
 20
96.8
 30
0.0
 11
160.437714
 21
103.2
 31
0.0
  0
LINE
  5
71
100
AcDbEntity
  8
3
100
AcDbLine
 10
159.634211
 20
96.8
 30
0.0
 11
159.634211
 21
103.2
 31
0.0
  0
LINE
  5
72
100
AcDbEntity
  8
3
100
AcDbLine
 10
158.857579
 20
96.8
 30
0.0
 11
158.857579
 21
103.2
 31
0.0
  0
LINE
  5
73
100
AcDbEntity
  8
3
100
AcDbLine
 10
158.109947
 20
96.8
 30
0.0
 11
158.109947
 21
103.2
 31
0.0
  0
LINE
  5
74
100
AcDbEntity
  8
3
100
AcDbLine
 10
157.393363
 20
96.8
 30
0.0
 11
157.393363
 21
103.2
 31
0.0
  0
LINE
  5
75
100
AcDbEntity
  8
3
100
AcDbLine
 10
156.709792
 20
96.8
 30
0.0
 11
156.709792
 21
103.2
 31
0.0
  0
LINE
  5
76
100
AcDbEntity
  8
3
100
AcDbLine
 10
156.061107
 20
96.8
 30
0.0
 11
156.061107
 21
103.2
 31
0.0
  0
LINE
  5
77
100
AcDbEntity
  8
3
100
AcDbLine
 10
155.449086
 20
96.8
 30
0.0
 11
155.449086
 21
103.2
 31
0.0
  0
LINE
  5
78
100
AcDbEntity
  8
3
100
AcDbLine
 10
154.875408
 20
96.8
 30
0.0
 11
154.875408
 21
103.2
 31
0.0
  0
LINE
  5
79
100
AcDbEntity
  8
3
100
AcDbLine
 10
154.341643
 20
96.8
 30
0.0
 11
154.341643
 21
103.2
 31
0.0
  0
LINE
  5
7A
100
AcDbEntity
  8
3
100
AcDbLine
 10
153.849256
 20
96.8
 30
0.0
 11
153.849256
 21
103.2
 31
0.0
  0
LINE
  5
7B
100
AcDbEntity
  8
3
100
AcDbLine
 10
153.399596
 20
96.8
 30
0.0
 11
153.399596
 21
103.2
 31
0.0
  0
ARC
  5
7C
100
AcDbEntity
  8
0
100
AcDbCircle
 10
164.787714
 20
78.8
 30
0.0
 40
0.8
100
AcDbArc
 50
270.0
 51
360.0
  0
ARC
  5
7D
100
AcDbEntity
  8
0
100
AcDbCircle
 10
157.437714
 20
94.0
 30
0.0
 40
2.0
100
AcDbArc
 50
0.0
 51
90.0
  0
LINE
  5
7E
100
AcDbEntity
  8
0
100
AcDbLine
 10
159.437714
 20
94.0
 30
0.0
 11
159.437714
 21
81.8
 31
0.0
  0
LINE
  5
7F
100
AcDbEntity
  8
0
100
AcDbLine
 10
151.437714
 20
96.8
 30
0.0
 11
152.237714
 21
96.0
 31
0.0
  0
LINE
  5
80
100
AcDbEntity
  8
0
100
AcDbLine
 10
151.437714
 20
103.2
 30
0.0
 11
151.437714
 21
96.8
 31
0.0
  0
LINE
  5
81
100
AcDbEntity
  8
0
100
AcDbLine
 10
152.237714
 20
104.0
 30
0.0
 11
151.437714
 21
103.2
 31
0.0
  0
ARC
  5
82
100
AcDbEntity
  8
0
100
AcDbCircle
 10
164.787714
 20
80.2
 30
0.0
 40
0.8
100
AcDbArc
 50
0.0
 51
90.0
  0
LINE
  5
83
100
AcDbEntity
  8
0
100
AcDbLine
 10
160.237714
 20
81.0
 30
0.0
 11
159.437714
 21
81.8
 31
0.0
  0
LINE
  5
84
100
AcDbEntity
  8
0
100
AcDbLine
 10
165.587714
 20
78.8
 30
0.0
 11
165.587714
 21
80.2
 31
0.0
  0
LINE
  5
85
100
AcDbEntity
  8
0
100
AcDbLine
 10
164.437714
 20
57.5
 30
0.0
 11
164.437714
 21
78.0
 31
0.0
  0
LINE
  5
86
100
AcDbEntity
  8
0
100
AcDbLine
 10
165.937714
 20
56.0
 30
0.0
 11
164.437714
 21
57.5
 31
0.0
  0
LINE
  5
87
100
AcDbEntity
  8
3
100
AcDbLine
 10
173.625714
 20
56.688
 30
0.0
 11
173.625714
 21
78.146887
 31
0.0
  0
LINE
  5
88
100
AcDbEntity
  8
3
100
AcDbLine
 10
165.249714
 20
56.688
 30
0.0
 11
165.249714
 21
78.146887
 31
0.0
  0
LINE
  5
89
100
AcDbEntity
  8
0
100
AcDbLine
 10
172.937714
 20
56.0
 30
0.0
 11
165.937714
 21
56.0
 31
0.0
  0
LINE
  5
8A
100
AcDbEntity
  8
0
100
AcDbLine
 10
174.437714
 20
57.5
 30
0.0
 11
164.437714
 21
57.5
 31
0.0
  0
LINE
  5
8B
100
AcDbEntity
  8
0
100
AcDbLine
 10
174.437714
 20
78.0
 30
0.0
 11
164.437714
 21
78.0
 31
0.0
  0
LINE
  5
8C
100
AcDbEntity
  8
0
100
AcDbLine
 10
178.637714
 20
81.0
 30
0.0
 11
160.237714
 21
81.0
 31
0.0
  0
LINE
  5
8D
100
AcDbEntity
  8
0
100
AcDbLine
 10
179.437714
 20
81.8
 30
0.0
 11
159.437714
 21
81.8
 31
0.0
  0
LINE
  5
8E
100
AcDbEntity
  8
0
100
AcDbLine
 10
186.637714
 20
96.0
 30
0.0
 11
152.237714
 21
96.0
 31
0.0
  0
LINE
  5
8F
100
AcDbEntity
  8
0
100
AcDbLine
 10
186.637714
 20
104.0
 30
0.0
 11
152.237714
 21
104.0
 31
0.0
  0
LINE
  5
90
100
AcDbEntity
  8
0
100
AcDbLine
 10
187.437714
 20
96.8
 30
0.0
 11
151.437714
 21
96.8
 31
0.0
  0
LINE
  5
91
100
AcDbEntity
  8
0
100
AcDbLine
 10
187.437714
 20
103.2
 30
0.0
 11
151.437714
 21
103.2
 31
0.0
  0
LINE
  5
92
100
AcDbEntity
  8
3
100
AcDbLine
 10
169.49139
 20
96.885674
 30
0.0
 11
169.49139
 21
103.169729
 31
0.0
  0
LINE
  5
A7
100
AcDbEntity
  8
0
100
AcDbLine
 10
98.0
 20
103.2
 30
0.0
 11
62.0
 21
103.2
 31
0.0
  0
LINE
  5
A8
100
AcDbEntity
  8
0
100
AcDbLine
 10
98.0
 20
96.8
 30
0.0
 11
62.0
 21
96.8
 31
0.0
  0
LINE
  5
A9
100
AcDbEntity
  8
0
100
AcDbLine
 10
97.2
 20
104.0
 30
0.0
 11
62.8
 21
104.0
 31
0.0
  0
LINE
  5
AA
100
AcDbEntity
  8
0
100
AcDbLine
 10
97.2
 20
96.0
 30
0.0
 11
62.8
 21
96.0
 31
0.0
  0
LINE
  5
AB
100
AcDbEntity
  8
0
100
AcDbLine
 10
90.0
 20
81.8
 30
0.0
 11
70.0
 21
81.8
 31
0.0
  0
LINE
  5
AC
100
AcDbEntity
  8
0
100
AcDbLine
 10
89.2
 20
81.0
 30
0.0
 11
70.8
 21
81.0
 31
0.0
  0
LINE
  5
AD
100
AcDbEntity
  8
0
100
AcDbLine
 10
85.0
 20
78.0
 30
0.0
 11
75.0
 21
78.0
 31
0.0
  0
LINE
  5
AE
100
AcDbEntity
  8
0
100
AcDbLine
 10
85.0
 20
57.5
 30
0.0
 11
75.0
 21
57.5
 31
0.0
  0
LINE
  5
AF
100
AcDbEntity
  8
0
100
AcDbLine
 10
83.5
 20
56.0
 30
0.0
 11
76.5
 21
56.0
 31
0.0
  0
LINE
  5
B0
100
AcDbEntity
  8
1
100
AcDbLine
 10
80.0
 20
51.0
 30
0.0
 11
80.0
 21
109.0
 31
0.0
  0
LINE
  5
B1
100
AcDbEntity
  8
3
100
AcDbLine
 10
75.812
 20
56.688
 30
0.0
 11
75.812
 21
78.146887
 31
0.0
  0
LINE
  5
B2
100
AcDbEntity
  8
0
100
AcDbLine
 10
75.0
 20
57.5
 30
0.0
 11
75.0
 21
78.0
 31
0.0
  0
LINE
  5
B3
100
AcDbEntity
  8
0
100
AcDbLine
 10
76.5
 20
56.0
 30
0.0
 11
75.0
 21
57.5
 31
0.0
  0
ARC
  5
B4
100
AcDbEntity
  8
0
100
AcDbCircle
 10
68.0
 20
94.0
 30
0.0
 40
2.0
100
AcDbArc
 50
0.0
 51
90.0
  0
LINE
  5
B5
100
AcDbEntity
  8
0
100
AcDbLine
 10
70.0
 20
94.0
 30
0.0
 11
70.0
 21
81.8
 31
0.0
  0
LINE
  5
B6
100
AcDbEntity
  8
0
100
AcDbLine
 10
70.8
 20
81.0
 30
0.0
 11
70.0
 21
81.8
 31
0.0
  0
LINE
  5
B7
100
AcDbEntity
  8
0
100
AcDbLine
 10
76.15
 20
78.8
 30
0.0
 11
76.15
 21
80.2
 31
0.0
  0
ARC
  5
B8
100
AcDbEntity
  8
0
100
AcDbCircle
 10
75.35
 20
78.8
 30
0.0
 40
0.8
100
AcDbArc
 50
270.0
 51
360.0
  0
ARC
  5
B9
100
AcDbEntity
  8
0
100
AcDbCircle
 10
75.35
 20
80.2
 30
0.0
 40
0.8
100
AcDbArc
 50
0.0
 51
90.0
  0
LINE
  5
BA
100
AcDbEntity
  8
3
100
AcDbLine
 10
63.556182
 20
96.8
 30
0.0
 11
63.556182
 21
103.2
 31
0.0
  0
LINE
  5
BB
100
AcDbEntity
  8
3
100
AcDbLine
 10
63.195552
 20
96.8
 30
0.0
 11
63.195552
 21
103.2
 31
0.0
  0
LINE
  5
BC
100
AcDbEntity
  8
3
100
AcDbLine
 10
63.961883
 20
96.8
 30
0.0
 11
63.961883
 21
103.2
 31
0.0
  0
LINE
  5
BD
100
AcDbEntity
  8
3
100
AcDbLine
 10
64.411543
 20
96.8
 30
0.0
 11
64.411543
 21
103.2
 31
0.0
  0
LINE
  5
BE
100
AcDbEntity
  8
3
100
AcDbLine
 10
64.90393
 20
96.8
 30
0.0
 11
64.90393
 21
103.2
 31
0.0
  0
LINE
  5
BF
100
AcDbEntity
  8
3
100
AcDbLine
 10
65.437694
 20
96.8
 30
0.0
 11
65.437694
 21
103.2
 31
0.0
  0
LINE
  5
C0
100
AcDbEntity
  8
3
100
AcDbLine
 10
66.011373
 20
96.8
 30
0.0
 11
66.011373
 21
103.2
 31
0.0
  0
LINE
  5
C1
100
AcDbEntity
  8
3
100
AcDbLine
 10
66.623393
 20
96.8
 30
0.0
 11
66.623393
 21
103.2
 31
0.0
  0
LINE
  5
C2
100
AcDbEntity
  8
0
100
AcDbLine
 10
62.0
 20
103.2
 30
0.0
 11
62.0
 21
96.8
 31
0.0
  0
LINE
  5
C3
100
AcDbEntity
  8
3
100
AcDbLine
 10
62.880983
 20
96.8
 30
0.0
 11
62.880983
 21
103.2
 31
0.0
  0
LINE
  5
C4
100
AcDbEntity
  8
3
100
AcDbLine
 10
62.613335
 20
96.8
 30
0.0
 11
62.613335
 21
103.2
 31
0.0
  0
LINE
  5
C5
100
AcDbEntity
  8
3
100
AcDbLine
 10
62.393343
 20
96.8
 30
0.0
 11
62.393343
 21
103.2
 31
0.0
  0
LINE
  5
C6
100
AcDbEntity
  8
3
100
AcDbLine
 10
62.22161
 20
96.8
 30
0.0
 11
62.22161
 21
103.2
 31
0.0
  0
LINE
  5
C7
100
AcDbEntity
  8
3
100
AcDbLine
 10
62.098606
 20
96.8
 30
0.0
 11
62.098606
 21
103.2
 31
0.0
  0
LINE
  5
C8
100
AcDbEntity
  8
3
100
AcDbLine
 10
62.024668
 20
96.8
 30
0.0
 11
62.024668
 21
103.2
 31
0.0
  0
LINE
  5
C9
100
AcDbEntity
  8
0
100
AcDbLine
 10
62.0
 20
96.8
 30
0.0
 11
62.8
 21
96.0
 31
0.0
  0
LINE
  5
CA
100
AcDbEntity
  8
0
100
AcDbLine
 10
62.8
 20
104.0
 30
0.0
 11
62.0
 21
103.2
 31
0.0
  0
LINE
  5
CB
100
AcDbEntity
  8
3
100
AcDbLine
 10
67.272078
 20
96.8
 30
0.0
 11
67.272078
 21
103.2
 31
0.0
  0
LINE
  5
CC
100
AcDbEntity
  8
3
100
AcDbLine
 10
67.955649
 20
96.8
 30
0.0
 11
67.955649
 21
103.2
 31
0.0
  0
LINE
  5
CD
100
AcDbEntity
  8
3
100
AcDbLine
 10
68.672233
 20
96.8
 30
0.0
 11
68.672233
 21
103.2
 31
0.0
  0
LINE
  5
CE
100
AcDbEntity
  8
3
100
AcDbLine
 10
69.419865
 20
96.8
 30
0.0
 11
69.419865
 21
103.2
 31
0.0
  0
LINE
  5
CF
100
AcDbEntity
  8
3
100
AcDbLine
 10
70.196497
 20
96.8
 30
0.0
 11
70.196497
 21
103.2
 31
0.0
  0
LINE
  5
D0
100
AcDbEntity
  8
3
100
AcDbLine
 10
71.0
 20
96.8
 30
0.0
 11
71.0
 21
103.2
 31
0.0
  0
LINE
  5
D1
100
AcDbEntity
  8
3
100
AcDbLine
 10
71.828171
 20
96.8
 30
0.0
 11
71.828171
 21
103.2
 31
0.0
  0
LINE
  5
D2
100
AcDbEntity
  8
3
100
AcDbLine
 10
72.67874
 20
96.8
 30
0.0
 11
72.67874
 21
103.2
 31
0.0
  0
LINE
  5
D3
100
AcDbEntity
  8
3
100
AcDbLine
 10
73.549377
 20
96.8
 30
0.0
 11
73.549377
 21
103.2
 31
0.0
  0
LINE
  5
D4
100
AcDbEntity
  8
3
100
AcDbLine
 10
80.053677
 20
96.885674
 30
0.0
 11
80.053677
 21
103.169729
 31
0.0
  0
LINE
  5
D5
100
AcDbEntity
  8
3
100
AcDbLine
 10
78.118488
 20
96.8
 30
0.0
 11
78.118488
 21
103.2
 31
0.0
  0
LINE
  5
D6
100
AcDbEntity
  8
3
100
AcDbLine
 10
79.057953
 20
96.8
 30
0.0
 11
79.057953
 21
103.2
 31
0.0
  0
LINE
  5
D7
100
AcDbEntity
  8
3
100
AcDbLine
 10
80.942047
 20
96.8
 30
0.0
 11
80.942047
 21
103.2
 31
0.0
  0
LINE
  5
D8
100
AcDbEntity
  8
3
100
AcDbLine
 10
74.437694
 20
96.8
 30
0.0
 11
74.437694
 21
103.2
 31
0.0
  0
LINE
  5
D9
100
AcDbEntity
  8
3
100
AcDbLine
 10
75.341257
 20
96.8
 30
0.0
 11
75.341257
 21
103.2
 31
0.0
  0
LINE
  5
DA
100
AcDbEntity
  8
3
100
AcDbLine
 10
76.25759
 20
96.8
 30
0.0
 11
76.25759
 21
103.2
 31
0.0
  0
LINE
  5
DB
100
AcDbEntity
  8
3
100
AcDbLine
 10
77.18418
 20
96.8
 30
0.0
 11
77.18418
 21
103.2
 31
0.0
  0
LINE
  5
DC
100
AcDbEntity
  8
3
100
AcDbLine
 10
84.188
 20
56.688
 30
0.0
 11
84.188
 21
78.146887
 31
0.0
  0
LINE
  5
DD
100
AcDbEntity
  8
0
100
AcDbLine
 10
85.0
 20
57.5
 30
0.0
 11
85.0
 21
78.0
 31
0.0
  0
LINE
  5
DE
100
AcDbEntity
  8
0
100
AcDbLine
 10
83.5
 20
56.0
 30
0.0
 11
85.0
 21
57.5
 31
0.0
  0
ARC
  5
DF
100
AcDbEntity
  8
0
100
AcDbCircle
 10
92.0
 20
94.0
 30
0.0
 40
2.0
100
AcDbArc
 50
90.0
 51
180.0
  0
LINE
  5
E0
100
AcDbEntity
  8
0
100
AcDbLine
 10
90.0
 20
94.0
 30
0.0
 11
90.0
 21
81.8
 31
0.0
  0
LINE
  5
E1
100
AcDbEntity
  8
0
100
AcDbLine
 10
83.85
 20
78.8
 30
0.0
 11
83.85
 21
80.2
 31
0.0
  0
ARC
  5
E2
100
AcDbEntity
  8
0
100
AcDbCircle
 10
84.65
 20
78.8
 30
0.0
 40
0.8
100
AcDbArc
 50
180.0
 51
270.0
  0
ARC
  5
E3
100
AcDbEntity
  8
0
100
AcDbCircle
 10
84.65
 20
80.2
 30
0.0
 40
0.8
100
AcDbArc
 50
90.0
 51
180.0
  0
LINE
  5
E4
100
AcDbEntity
  8
0
100
AcDbLine
 10
89.2
 20
81.0
 30
0.0
 11
90.0
 21
81.8
 31
0.0
  0
LINE
  5
E5
100
AcDbEntity
  8
3
100
AcDbLine
 10
81.881512
 20
96.8
 30
0.0
 11
81.881512
 21
103.2
 31
0.0
  0
LINE
  5
E6
100
AcDbEntity
  8
3
100
AcDbLine
 10
82.81582
 20
96.8
 30
0.0
 11
82.81582
 21
103.2
 31
0.0
  0
LINE
  5
E7
100
AcDbEntity
  8
3
100
AcDbLine
 10
83.74241
 20
96.8
 30
0.0
 11
83.74241
 21
103.2
 31
0.0
  0
LINE
  5
E8
100
AcDbEntity
  8
3
100
AcDbLine
 10
84.658743
 20
96.8
 30
0.0
 11
84.658743
 21
103.2
 31
0.0
  0
LINE
  5
E9
100
AcDbEntity
  8
3
100
AcDbLine
 10
85.562306
 20
96.8
 30
0.0
 11
85.562306
 21
103.2
 31
0.0
  0
LINE
  5
EA
100
AcDbEntity
  8
3
100
AcDbLine
 10
86.450623
 20
96.8
 30
0.0
 11
86.450623
 21
103.2
 31
0.0
  0
LINE
  5
EB
100
AcDbEntity
  8
3
100
AcDbLine
 10
87.32126
 20
96.8
 30
0.0
 11
87.32126
 21
103.2
 31
0.0
  0
LINE
  5
EC
100
AcDbEntity
  8
3
100
AcDbLine
 10
88.171829
 20
96.8
 30
0.0
 11
88.171829
 21
103.2
 31
0.0
  0
LINE
  5
ED
100
AcDbEntity
  8
3
100
AcDbLine
 10
92.727922
 20
96.8
 30
0.0
 11
92.727922
 21
103.2
 31
0.0
  0
LINE
  5
EE
100
AcDbEntity
  8
3
100
AcDbLine
 10
93.376607
 20
96.8
 30
0.0
 11
93.376607
 21
103.2
 31
0.0
  0
LINE
  5
EF
100
AcDbEntity
  8
3
100
AcDbLine
 10
93.988627
 20
96.8
 30
0.0
 11
93.988627
 21
103.2
 31
0.0
  0
LINE
  5
F0
100
AcDbEntity
  8
3
100
AcDbLine
 10
94.562306
 20
96.8
 30
0.0
 11
94.562306
 21
103.2
 31
0.0
  0
LINE
  5
F1
100
AcDbEntity
  8
3
100
AcDbLine
 10
95.09607
 20
96.8
 30
0.0
 11
95.09607
 21
103.2
 31
0.0
  0
LINE
  5
F2
100
AcDbEntity
  8
3
100
AcDbLine
 10
95.588457
 20
96.8
 30
0.0
 11
95.588457
 21
103.2
 31
0.0
  0
LINE
  5
F3
100
AcDbEntity
  8
3
100
AcDbLine
 10
96.038117
 20
96.8
 30
0.0
 11
96.038117
 21
103.2
 31
0.0
  0
LINE
  5
F4
100
AcDbEntity
  8
3
100
AcDbLine
 10
89.0
 20
96.8
 30
0.0
 11
89.0
 21
103.2
 31
0.0
  0
LINE
  5
F5
100
AcDbEntity
  8
3
100
AcDbLine
 10
89.803503
 20
96.8
 30
0.0
 11
89.803503
 21
103.2
 31
0.0
  0
LINE
  5
F6
100
AcDbEntity
  8
3
100
AcDbLine
 10
90.580135
 20
96.8
 30
0.0
 11
90.580135
 21
103.2
 31
0.0
  0
LINE
  5
F7
100
AcDbEntity
  8
3
100
AcDbLine
 10
91.327767
 20
96.8
 30
0.0
 11
91.327767
 21
103.2
 31
0.0
  0
LINE
  5
F8
100
AcDbEntity
  8
3
100
AcDbLine
 10
92.044351
 20
96.8
 30
0.0
 11
92.044351
 21
103.2
 31
0.0
  0
LINE
  5
F9
100
AcDbEntity
  8
0
100
AcDbLine
 10
97.975332
 20
96.8
 30
0.0
 11
97.975332
 21
103.2
 31
0.0
  0
LINE
  5
FA
100
AcDbEntity
  8
3
100
AcDbLine
 10
97.901394
 20
96.8
 30
0.0
 11
97.901394
 21
103.2
 31
0.0
  0
LINE
  5
FB
100
AcDbEntity
  8
3
100
AcDbLine
 10
97.77839
 20
96.8
 30
0.0
 11
97.77839
 21
103.2
 31
0.0
  0
LINE
  5
FC
100
AcDbEntity
  8
3
100
AcDbLine
 10
97.606657
 20
96.8
 30
0.0
 11
97.606657
 21
103.2
 31
0.0
  0
LINE
  5
FD
100
AcDbEntity
  8
3
100
AcDbLine
 10
97.386665
 20
96.8
 30
0.0
 11
97.386665
 21
103.2
 31
0.0
  0
LINE
  5
FE
100
AcDbEntity
  8
3
100
AcDbLine
 10
97.119017
 20
96.8
 30
0.0
 11
97.119017
 21
103.2
 31
0.0
  0
LINE
  5
FF
100
AcDbEntity
  8
3
100
AcDbLine
 10
96.804448
 20
96.8
 30
0.0
 11
96.804448
 21
103.2
 31
0.0
  0
LINE
  5
100
100
AcDbEntity
  8
3
100
AcDbLine
 10
96.443818
 20
96.8
 30
0.0
 11
96.443818
 21
103.2
 31
0.0
  0
LINE
  5
101
100
AcDbEntity
  8
3
100
AcDbLine
 10
98.0
 20
103.2
 30
0.0
 11
98.0
 21
96.8
 31
0.0
  0
LINE
  5
102
100
AcDbEntity
  8
0
100
AcDbLine
 10
98.0
 20
96.8
 30
0.0
 11
97.2
 21
96.0
 31
0.0
  0
LINE
  5
103
100
AcDbEntity
  8
0
100
AcDbLine
 10
97.2
 20
104.0
 30
0.0
 11
98.0
 21
103.2
 31
0.0
  0
ENDSEC
  0
SECTION
  2
OBJECTS
  0
DICTIONARY
  5
19D
100
AcDbDictionary
  3
ACAD_GROUP
350
19E
  3
ACAD_MLINESTYLE
350
1AB
  3
ACDBVARIABLEDICTIONARY
350
1BD
  0
DICTIONARY
  5
19E
102
{ACAD_REACTORS
330
19D
102
}
100
AcDbDictionary
  0
DICTIONARY
  5
1AB
102
{ACAD_REACTORS
330
19D
102
}
100
AcDbDictionary
  3
STANDARD
350
1AC
  0
DICTIONARY
  5
1BD
102
{ACAD_REACTORS
330
19D
102
}
100
AcDbDictionary
  3
DIMADEC
350
1BE
  0
MLINESTYLE
  5
1AC
102
{ACAD_REACTORS
330
1AB
102
}
100
AcDbMlineStyle
  2
STANDARD
 70
     0
  3

 62
   256
 51
90.0
 52
90.0
 71
     2
 49
0.5
 62
   256
  6
BYLAYER
 49
-0.5
 62
   256
  6
BYLAYER
  0
DICTIONARYVAR
  5
1BE
102
{ACAD_REACTORS
330
1BD
102
}
100
DictionaryVariables
280
     0
  1
0
  0
ENDSEC
  0
EOF
