  0
SECTION
  2
HEADER
  9
$ACADVER
  1
AC1009
  9
$INSBASE
 10
0.0
 20
0.0
 30
0.0
  9
$EXTMIN
 10
60.0
 20
60.0
 30
0.0
  9
$EXTMAX
 10
175.0
 20
100.0
 30
0.0
  9
$LIMMIN
 10
0.0
 20
0.0
  9
$LIMMAX
 10
250.0
 20
160.0
  9
$ORTHOMODE
 70
     0
  9
$REGENMODE
 70
     1
  9
$FILLMODE
 70
     1
  9
$QTEXTMODE
 70
     0
  9
$MIRRTEXT
 70
     1
  9
$DRAGMODE
 70
     0
  9
$LTSCALE
 40
10.0
  9
$OSMODE
 70
     0
  9
$ATTMODE
 70
     1
  9
$TEXTSIZE
 40
6.0
  9
$TRACEWID
 40
0.05
  9
$TEXTSTYLE
  7
STANDARD
  9
$CLAYER
  8
0
  9
$CELTYPE
  6
BYLAYER
  9
$CECOLOR
 62
   256
  9
$DIMSCALE
 40
1.0
  9
$DIMASZ
 40
3.0
  9
$DIMEXO
 40
2.0
  9
$DIMDLI
 40
0.38
  9
$DIMRND
 40
0.0
  9
$DIMDLE
 40
0.0
  9
$DIMEXE
 40
2.0
  9
$DIMTP
 40
0.0
  9
$DIMTM
 40
0.0
  9
$DIMTXT
 40
3.2
  9
$DIMCEN
 40
0.09
  9
$DIMTSZ
 40
0.0
  9
$DIMTOL
 70
     0
  9
$DIMLIM
 70
     0
  9
$DIMTIH
 70
     0
  9
$DIMTOH
 70
     0
  9
$DIMSE1
 70
     0
  9
$DIMSE2
 70
     0
  9
$DIMTAD
 70
     1
  9
$DIMZIN
 70
     0
  9
$DIMBLK
  1

  9
$DIMASO
 70
     0
  9
$DIMSHO
 70
     0
  9
$DIMPOST
  1

  9
$DIMAPOST
  1

  9
$DIMALT
 70
     0
  9
$DIMALTD
 70
     2
  9
$DIMALTF
 40
25.4
  9
$DIMLFAC
 40
1.0
  9
$DIMTOFL
 70
     0
  9
$DIMTVP
 40
0.0
  9
$DIMTIX
 70
     0
  9
$DIMSOXD
 70
     0
  9
$DIMSAH
 70
     0
  9
$DIMBLK1
  1

  9
$DIMBLK2
  1

  9
$DIMSTYLE
  2
STANDARD
  9
$DIMCLRD
 70
     0
  9
$DIMCLRE
 70
     0
  9
$DIMCLRT
 70
     0
  9
$DIMTFAC
 40
1.0
  9
$DIMGAP
 40
0.09
  9
$LUNITS
 70
     2
  9
$LUPREC
 70
     4
  9
$SKETCHINC
 40
0.1
  9
$FILLETRAD
 40
1.2
  9
$AUNITS
 70
     0
  9
$AUPREC
 70
     0
  9
$MENU
  1
ACAD
  9
$ELEVATION
 40
0.0
  9
$PELEVATION
 40
0.0
  9
$THICKNESS
 40
0.0
  9
$LIMCHECK
 70
     0
  9
$BLIPMODE
 70
     0
  9
$CHAMFERA
 40
0.0
  9
$CHAMFERB
 40
0.0
  9
$SKPOLY
 70
     0
  9
$TDCREATE
 40
2450868.793797
  9
$TDUPDATE
 40
2450868.793797
  9
$TDINDWG
 40
0.0
  9
$TDUSRTIMER
 40
0.0
  9
$USRTIMER
 70
     1
  9
$ANGBASE
 50
0.0
  9
$ANGDIR
 70
     0
  9
$PDMODE
 70
     0
  9
$PDSIZE
 40
0.0
  9
$PLINEWID
 40
0.0
  9
$COORDS
 70
     0
  9
$SPLFRAME
 70
     0
  9
$SPLINETYPE
 70
     6
  9
$SPLINESEGS
 70
     8
  9
$ATTDIA
 70
     0
  9
$ATTREQ
 70
     1
  9
$HANDLING
 70
     1
  9
$HANDSEED
  5
19E
  9
$SURFTAB1
 70
     6
  9
$SURFTAB2
 70
     6
  9
$SURFTYPE
 70
     6
  9
$SURFU
 70
     6
  9
$SURFV
 70
     6
  9
$UCSNAME
  2

  9
$UCSORG
 10
0.0
 20
0.0
 30
0.0
  9
$UCSXDIR
 10
1.0
 20
0.0
 30
0.0
  9
$UCSYDIR
 10
0.0
 20
1.0
 30
0.0
  9
$PUCSNAME
  2

  9
$PUCSORG
 10
0.0
 20
0.0
 30
0.0
  9
$PUCSXDIR
 10
1.0
 20
0.0
 30
0.0
  9
$PUCSYDIR
 10
0.0
 20
1.0
 30
0.0
  9
$USERI1
 70
     0
  9
$USERI2
 70
     0
  9
$USERI3
 70
     0
  9
$USERI4
 70
     0
  9
$USERI5
 70
     0
  9
$USERR1
 40
0.0
  9
$USERR2
 40
0.0
  9
$USERR3
 40
0.0
  9
$USERR4
 40
0.0
  9
$USERR5
 40
0.0
  9
$WORLDVIEW
 70
     1
  9
$SHADEDGE
 70
     3
  9
$SHADEDIF
 70
    70
  9
$TILEMODE
 70
     1
  9
$MAXACTVP
 70
    16
  9
$PLIMCHECK
 70
     0
  9
$PEXTMIN
 10
1.000000E+020
 20
1.000000E+020
 30
1.000000E+020
  9
$PEXTMAX
 10
-1.000000E+020
 20
-1.000000E+020
 30
-1.000000E+020
  9
$PLIMMIN
 10
0.0
 20
0.0
  9
$PLIMMAX
 10
12.0
 20
9.0
  9
$UNITMODE
 70
     0
  9
$VISRETAIN
 70
     0
  9
$PLINEGEN
 70
   271
  9
$PSLTSCALE
 70
     0
  0
ENDSEC
  0
SECTION
  2
TABLES
  0
TABLE
  2
VPORT
 70
     3
  0
VPORT
  2
*ACTIVE
 70
     0
 10
0.0
 20
0.0
 11
1.0
 21
1.0
 12
141.889764
 22
104.826211
 13
0.0
 23
0.0
 14
5.0
 24
5.0
 15
10.0
 25
10.0
 16
0.0
 26
0.0
 36
1.0
 17
0.0
 27
0.0
 37
0.0
 40
209.652421
 41
1.353571
 42
50.0
 43
0.0
 44
0.0
 50
0.0
 51
0.0
 71
     0
 72
   500
 73
     1
 74
     1
 75
     1
 76
     1
 77
     0
 78
     0
  0
ENDTAB
  0
TABLE
  2
LTYPE
 70
     3
  0
LTYPE
  2
CONTINUOUS
 70
     0
  3
Solid line
 72
    65
 73
     0
 40
0.0
  0
LTYPE
  2
CENTER
 70
     0
  3
____ _ ____ _ ____ _ ____ _ ____ _ ____ _ ____
 72
    65
 73
     4
 40
2.0
 49
1.25
 49
-0.25
 49
0.25
 49
-0.25
  0
LTYPE
  2
HIDDEN
 70
     0
  3
_ _ _ _ _ _ _ _ _ _ _ _ _ _ _ _ _ _ _ _ _ _ _
 72
    65
 73
     2
 40
0.375
 49
0.25
 49
-0.125
  0
ENDTAB
  0
TABLE
  2
LAYER
 70
     6
  0
LAYER
  2
0
 70
     0
 62
     7
  6
CONTINUOUS
  0
LAYER
  2
1
 70
     0
 62
     1
  6
CENTER
  0
LAYER
  2
2
 70
     0
 62
     2
  6
HIDDEN
  0
LAYER
  2
3
 70
     0
 62
     3
  6
CONTINUOUS
  0
LAYER
  2
10
 70
     0
 62
     7
  6
CONTINUOUS
  0
LAYER
  2
11
 70
     0
 62
     3
  6
CONTINUOUS
  0
ENDTAB
  0
TABLE
  2
STYLE
 70
     2
  0
STYLE
  2
STANDARD
 70
     0
 40
0.0
 41
1.0
 50
0.0
 71
     0
 42
6.0
  3
TXT
  4
BIGFONT
  0
STYLE
  2
07500
 70
     0
 40
0.0
 41
0.75
 50
0.0
 71
     0
 42
4.0
  3
TXT
  4
BIGFONT
  0
ENDTAB
  0
TABLE
  2
VIEW
 70
     1
  0
VIEW
  2
ALL
 70
     0
 40
270.0
 10
220.991597
 20
135.0
 41
0.0
 11
0.0
 21
0.0
 31
1.0
 12
0.0
 22
0.0
 32
0.0
 42
0.0
 43
0.0
 44
0.0
 50
0.0
 71
     0
  0
ENDTAB
  0
TABLE
  2
UCS
 70
     0
  0
ENDTAB
  0
TABLE
  2
APPID
 70
     1
  0
APPID
  2
ACAD
 70
     0
  0
ENDTAB
  0
TABLE
  2
DIMSTYLE
 70
     1
  0
DIMSTYLE
  2
STANDARD
 70
     0
  3

  4

  5

  6

  7

 40
1.0
 41
0.18
 42
0.0625
 43
0.38
 44
0.18
 45
0.0
 46
0.0
 47
0.0
 48
0.0
140
0.18
141
0.09
142
0.0
143
25.4
144
1.0
145
0.0
146
1.0
147
0.09
 71
     0
 72
     0
 73
     1
 74
     1
 75
     0
 76
     0
 77
     0
 78
     0
170
     0
171
     2
172
     0
173
     0
174
     0
175
     0
176
     0
177
     0
178
     0
  0
ENDTAB
  0
ENDSEC
  0
SECTION
  2
BLOCKS
  0
BLOCK
  8
0
  2
$MODEL_SPACE
 70
     0
 10
0.0
 20
0.0
 30
0.0
  3
$MODEL_SPACE
  1

  0
ENDBLK
  5
197
  8
0
  0
BLOCK
 67
     1
  8
0
  2
$PAPER_SPACE
 70
     0
 10
0.0
 20
0.0
 30
0.0
  3
$PAPER_SPACE
  1

  0
ENDBLK
  5
195
 67
     1
  8
0
  0
BLOCK
  8
0
  2
QQ
 70
     0
 10
270.0
 20
0.0
 30
0.0
  3
QQ
  1

  0
LINE
  5
2D
  8
11
 10
173.0
 20
36.0
 30
0.0
 11
270.0
 21
36.0
 31
0.0
  0
TEXT
  5
2E
  8
11
 10
175.0
 20
32.5
 30
0.0
 40
2.5
  1
部品名称
  0
LINE
  5
2F
  8
11
 10
173.0
 20
36.0
 30
0.0
 11
173.0
 21
0.0
 31
0.0
  0
LINE
  5
30
  8
11
 10
173.0
 20
24.0
 30
0.0
 11
270.0
 21
24.0
 31
0.0
  0
TEXT
  5
31
  8
11
 10
175.0
 20
20.5
 30
0.0
 40
2.5
  1
品番
  0
LINE
  5
32
  8
11
 10
173.0
 20
12.0
 30
0.0
 11
270.0
 21
12.0
 31
0.0
  0
TEXT
  5
33
  8
11
 10
175.0
 20
8.5
 30
0.0
 40
2.5
  1
尺度
  0
TEXT
  5
34
  8
11
 10
200.0
 20
8.5
 30
0.0
 40
2.5
  1
図番
  0
LINE
  5
35
  8
11
 10
198.0
 20
0.0
 30
0.0
 11
198.0
 21
12.0
 31
0.0
  0
ENDBLK
  5
36
  8
0
  0
ENDSEC
  0
SECTION
  2
ENTITIES
  0
LINE
  5
37
  8
0
 10
152.0
 20
94.4
 30
0.0
 11
152.6
 21
95.0
 31
0.0
  0
LINE
  5
38
  8
0
 10
152.6
 20
95.0
 30
0.0
 11
157.4
 21
95.0
 31
0.0
  0
LINE
  5
39
  8
0
 10
157.4
 20
95.0
 30
0.0
 11
158.0
 21
94.4
 31
0.0
  0
LINE
  5
3A
  8
0
 10
160.0
 20
88.0
 30
0.0
 11
169.4
 21
88.0
 31
0.0
  0
ARC
  5
3B
  8
0
 10
160.0
 20
90.0
 30
0.0
 40
2.0
 50
180.0
 51
270.0
  0
LINE
  5
3C
  8
0
 10
169.4
 20
88.0
 30
0.0
 11
170.0
 21
87.4
 31
0.0
  0
LINE
  5
3D
  8
0
 10
169.4
 20
72.0
 30
0.0
 11
170.0
 21
72.6
 31
0.0
  0
LINE
  5
3E
  8
0
 10
160.0
 20
72.0
 30
0.0
 11
169.4
 21
72.0
 31
0.0
  0
LINE
  5
3F
  8
0
 10
157.4
 20
65.0
 30
0.0
 11
158.0
 21
65.6
 31
0.0
  0
LINE
  5
40
  8
0
 10
152.6
 20
65.0
 30
0.0
 11
157.4
 21
65.0
 31
0.0
  0
LINE
  5
41
  8
0
 10
152.0
 20
65.6
 30
0.0
 11
152.6
 21
65.0
 31
0.0
  0
LINE
  5
42
  8
0
 10
152.0
 20
94.4
 30
0.0
 11
152.0
 21
65.6
 31
0.0
  0
LINE
  5
43
  8
0
 10
152.6
 20
95.0
 30
0.0
 11
152.6
 21
65.0
 31
0.0
  0
LINE
  5
44
  8
0
 10
157.4
 20
95.0
 30
0.0
 11
157.4
 21
65.0
 31
0.0
  0
LINE
  5
45
  8
0
 10
158.0
 20
94.4
 30
0.0
 11
158.0
 21
65.6
 31
0.0
  0
LINE
  5
46
  8
0
 10
169.4
 20
88.0
 30
0.0
 11
169.4
 21
72.0
 31
0.0
  0
LINE
  5
47
  8
0
 10
170.0
 20
87.4
 30
0.0
 11
170.0
 21
72.6
 31
0.0
  0
LINE
  5
48
  8
1
 10
147.0
 20
80.0
 30
0.0
 11
175.0
 21
80.0
 31
0.0
  0
LINE
  5
49
  8
2
 10
168.8
 20
76.6765
 30
0.0
 11
153.2
 21
76.6765
 31
0.0
  0
LINE
  5
4A
  8
2
 10
169.4765
 20
76.0
 30
0.0
 11
152.5235
 21
76.0
 31
0.0
  0
LINE
  5
4B
  8
2
 10
153.2
 20
76.6765
 30
0.0
 11
152.0
 21
75.4765
 31
0.0
  0
LINE
  5
4C
  8
2
 10
168.8
 20
76.6765
 30
0.0
 11
170.0
 21
75.4765
 31
0.0
  0
ARC
  5
4D
  8
0
 10
160.0
 20
70.0
 30
0.0
 40
2.0
 50
90.0
 51
180.0
  0
LINE
  5
4E
  8
2
 10
153.2
 20
76.6765
 30
0.0
 11
153.2
 21
80.0
 31
0.0
  0
LINE
  5
4F
  8
2
 10
168.8
 20
76.6765
 30
0.0
 11
168.8
 21
80.0
 31
0.0
  0
LINE
  5
50
  8
3
 10
157.4
 20
80.941858
 30
0.0
 11
152.6
 21
80.941858
 31
0.0
  0
LINE
  5
51
  8
3
 10
157.4
 20
81.879999
 30
0.0
 11
152.6
 21
81.879999
 31
0.0
  0
LINE
  5
52
  8
3
 10
157.4
 20
82.81072
 30
0.0
 11
152.6
 21
82.81072
 31
0.0
  0
LINE
  5
53
  8
3
 10
157.4
 20
83.730348
 30
0.0
 11
152.6
 21
83.730348
 31
0.0
  0
LINE
  5
54
  8
3
 10
157.4
 20
84.635255
 30
0.0
 11
152.6
 21
84.635255
 31
0.0
  0
LINE
  5
55
  8
3
 10
157.4
 20
85.496663
 30
0.0
 11
152.6
 21
85.496663
 31
0.0
  0
LINE
  5
56
  8
3
 10
157.4
 20
86.355386
 30
0.0
 11
152.6
 21
86.355386
 31
0.0
  0
LINE
  5
57
  8
3
 10
157.4
 20
87.226305
 30
0.0
 11
152.6
 21
87.226305
 31
0.0
  0
LINE
  5
58
  8
3
 10
157.4
 20
88.037402
 30
0.0
 11
152.6
 21
88.037402
 31
0.0
  0
LINE
  5
59
  8
3
 10
157.4
 20
88.816779
 30
0.0
 11
152.6
 21
88.816779
 31
0.0
  0
LINE
  5
5A
  8
3
 10
157.4
 20
89.56136
 30
0.0
 11
152.6
 21
89.56136
 31
0.0
  0
LINE
  5
5B
  8
3
 10
157.4
 20
90.268207
 30
0.0
 11
152.6
 21
90.268207
 31
0.0
  0
LINE
  5
5C
  8
3
 10
157.4
 20
94.881721
 30
0.0
 11
152.6
 21
94.881721
 31
0.0
  0
LINE
  5
5D
  8
3
 10
157.4
 20
94.847948
 30
0.0
 11
152.6
 21
94.847948
 31
0.0
  0
LINE
  5
5E
  8
3
 10
157.4
 20
94.734309
 30
0.0
 11
152.6
 21
94.734309
 31
0.0
  0
LINE
  5
5F
  8
3
 10
157.4
 20
94.528747
 30
0.0
 11
152.6
 21
94.528747
 31
0.0
  0
LINE
  5
60
  8
3
 10
157.4
 20
94.265848
 30
0.0
 11
152.6
 21
94.265848
 31
0.0
  0
LINE
  5
61
  8
3
 10
157.4
 20
93.946647
 30
0.0
 11
152.6
 21
93.946647
 31
0.0
  0
LINE
  5
62
  8
3
 10
157.4
 20
93.572406
 30
0.0
 11
152.6
 21
93.572406
 31
0.0
  0
LINE
  5
63
  8
3
 10
157.4
 20
93.1446
 30
0.0
 11
152.6
 21
93.1446
 31
0.0
  0
LINE
  5
64
  8
3
 10
157.4
 20
92.664919
 30
0.0
 11
152.6
 21
92.664919
 31
0.0
  0
LINE
  5
65
  8
3
 10
157.4
 20
92.135255
 30
0.0
 11
152.6
 21
92.135255
 31
0.0
  0
LINE
  5
66
  8
3
 10
157.4
 20
91.557699
 30
0.0
 11
152.6
 21
91.557699
 31
0.0
  0
LINE
  5
67
  8
3
 10
157.4
 20
90.934529
 30
0.0
 11
152.6
 21
90.934529
 31
0.0
  0
LINE
  5
68
  8
2
 10
168.8
 20
83.3235
 30
0.0
 11
168.8
 21
80.0
 31
0.0
  0
LINE
  5
69
  8
2
 10
153.2
 20
83.3235
 30
0.0
 11
153.2
 21
80.0
 31
0.0
  0
LINE
  5
6A
  8
2
 10
168.8
 20
83.3235
 30
0.0
 11
170.0
 21
84.5235
 31
0.0
  0
LINE
  5
6B
  8
2
 10
153.2
 20
83.3235
 30
0.0
 11
152.0
 21
84.5235
 31
0.0
  0
LINE
  5
6C
  8
2
 10
169.4765
 20
84.0
 30
0.0
 11
152.5235
 21
84.0
 31
0.0
  0
LINE
  5
6D
  8
2
 10
168.8
 20
83.3235
 30
0.0
 11
153.2
 21
83.3235
 31
0.0
  0
LINE
  5
6E
  8
3
 10
157.4
 20
69.065471
 30
0.0
 11
152.6
 21
69.065471
 31
0.0
  0
LINE
  5
6F
  8
3
 10
157.4
 20
68.442301
 30
0.0
 11
152.6
 21
68.442301
 31
0.0
  0
LINE
  5
70
  8
3
 10
157.4
 20
67.864745
 30
0.0
 11
152.6
 21
67.864745
 31
0.0
  0
LINE
  5
71
  8
3
 10
157.4
 20
67.335081
 30
0.0
 11
152.6
 21
67.335081
 31
0.0
  0
LINE
  5
72
  8
3
 10
157.4
 20
66.8554
 30
0.0
 11
152.6
 21
66.8554
 31
0.0
  0
LINE
  5
73
  8
3
 10
157.4
 20
66.427594
 30
0.0
 11
152.6
 21
66.427594
 31
0.0
  0
LINE
  5
74
  8
3
 10
157.4
 20
66.053353
 30
0.0
 11
152.6
 21
66.053353
 31
0.0
  0
LINE
  5
75
  8
3
 10
157.4
 20
65.734152
 30
0.0
 11
152.6
 21
65.734152
 31
0.0
  0
LINE
  5
76
  8
3
 10
157.4
 20
65.471253
 30
0.0
 11
152.6
 21
65.471253
 31
0.0
  0
LINE
  5
77
  8
3
 10
157.4
 20
65.265691
 30
0.0
 11
152.6
 21
65.265691
 31
0.0
  0
LINE
  5
78
  8
3
 10
157.4
 20
65.152052
 30
0.0
 11
152.6
 21
65.152052
 31
0.0
  0
LINE
  5
79
  8
3
 10
157.4
 20
65.118279
 30
0.0
 11
152.6
 21
65.118279
 31
0.0
  0
LINE
  5
7A
  8
3
 10
157.4
 20
69.731793
 30
0.0
 11
152.6
 21
69.731793
 31
0.0
  0
LINE
  5
7B
  8
3
 10
157.4
 20
70.43864
 30
0.0
 11
152.6
 21
70.43864
 31
0.0
  0
LINE
  5
7C
  8
3
 10
157.4
 20
71.183221
 30
0.0
 11
152.6
 21
71.183221
 31
0.0
  0
LINE
  5
7D
  8
3
 10
157.4
 20
71.962598
 30
0.0
 11
152.6
 21
71.962598
 31
0.0
  0
LINE
  5
7E
  8
3
 10
157.4
 20
72.773695
 30
0.0
 11
152.6
 21
72.773695
 31
0.0
  0
LINE
  5
7F
  8
3
 10
157.4
 20
73.644614
 30
0.0
 11
152.6
 21
73.644614
 31
0.0
  0
LINE
  5
80
  8
3
 10
157.4
 20
74.503337
 30
0.0
 11
152.6
 21
74.503337
 31
0.0
  0
LINE
  5
81
  8
3
 10
157.4
 20
75.364745
 30
0.0
 11
152.6
 21
75.364745
 31
0.0
  0
LINE
  5
82
  8
3
 10
157.4
 20
76.269652
 30
0.0
 11
152.6
 21
76.269652
 31
0.0
  0
LINE
  5
83
  8
3
 10
157.4
 20
77.18928
 30
0.0
 11
152.6
 21
77.18928
 31
0.0
  0
LINE
  5
84
  8
3
 10
157.4
 20
78.120001
 30
0.0
 11
152.6
 21
78.120001
 31
0.0
  0
LINE
  5
85
  8
3
 10
157.4
 20
79.058142
 30
0.0
 11
152.6
 21
79.058142
 31
0.0
  0
CIRCLE
  5
86
  8
0
 10
80.0
 20
80.0
 30
0.0
 40
15.0
  0
LINE
  5
89
  8
1
 10
100.0
 20
80.0
 30
0.0
 11
60.0
 21
80.0
 31
0.0
  0
LINE
  5
8A
  8
1
 10
80.0
 20
100.0
 30
0.0
 11
80.0
 21
60.0
 31
0.0
  0
CIRCLE
  5
12B
  8
0
 10
80.0
 20
80.0
 30
0.0
 40
14.4
  0
CIRCLE
  5
12C
  8
3
 10
80.0
 20
80.0
 30
0.0
 40
4.0
  0
CIRCLE
  5
12D
  8
0
 10
80.0
 20
80.0
 30
0.0
 40
3.3235
  0
ENDSEC
  0
EOF
