  0
SECTION
  2
HEADER
  9
$ACADVER
  1
AC1009
  9
$INSBASE
 10
0.0
 20
0.0
 30
0.0
  9
$EXTMIN
 10
17.5
 20
27.5
 30
0.0
  9
$EXTMAX
 10
82.5
 20
52.5
 30
0.0
  9
$LIMMIN
 10
0.0
 20
0.0
  9
$LIMMAX
 10
100.0
 20
70.0
  9
$ORTHOMODE
 70
     0
  9
$REGENMODE
 70
     1
  9
$FILLMODE
 70
     1
  9
$QTEXTMODE
 70
     0
  9
$MIRRTEXT
 70
     1
  9
$DRAGMODE
 70
     0
  9
$LTSCALE
 40
5.0
  9
$OSMODE
 70
     0
  9
$ATTMODE
 70
     1
  9
$TEXTSIZE
 40
3.0
  9
$TRACEWID
 40
0.05
  9
$TEXTSTYLE
  7
STANDARD
  9
$CLAYER
  8
0
  9
$CELTYPE
  6
BYLAYER
  9
$CECOLOR
 62
   256
  9
$DIMSCALE
 40
0.5
  9
$DIMASZ
 40
3.0
  9
$DIMEXO
 40
2.0
  9
$DIMDLI
 40
0.38
  9
$DIMRND
 40
0.0
  9
$DIMDLE
 40
0.0
  9
$DIMEXE
 40
2.0
  9
$DIMTP
 40
0.0
  9
$DIMTM
 40
0.0
  9
$DIMTXT
 40
3.2
  9
$DIMCEN
 40
0.09
  9
$DIMTSZ
 40
0.0
  9
$DIMTOL
 70
     0
  9
$DIMLIM
 70
     0
  9
$DIMTIH
 70
     0
  9
$DIMTOH
 70
     0
  9
$DIMSE1
 70
     0
  9
$DIMSE2
 70
     0
  9
$DIMTAD
 70
     1
  9
$DIMZIN
 70
     0
  9
$DIMBLK
  1

  9
$DIMASO
 70
     0
  9
$DIMSHO
 70
     0
  9
$DIMPOST
  1

  9
$DIMAPOST
  1

  9
$DIMALT
 70
     0
  9
$DIMALTD
 70
     2
  9
$DIMALTF
 40
25.4
  9
$DIMLFAC
 40
1.0
  9
$DIMTOFL
 70
     0
  9
$DIMTVP
 40
0.0
  9
$DIMTIX
 70
     0
  9
$DIMSOXD
 70
     0
  9
$DIMSAH
 70
     0
  9
$DIMBLK1
  1

  9
$DIMBLK2
  1

  9
$DIMSTYLE
  2
STANDARD
  9
$DIMCLRD
 70
     0
  9
$DIMCLRE
 70
     0
  9
$DIMCLRT
 70
     0
  9
$DIMTFAC
 40
1.0
  9
$DIMGAP
 40
0.09
  9
$LUNITS
 70
     2
  9
$LUPREC
 70
     4
  9
$SKETCHINC
 40
0.1
  9
$FILLETRAD
 40
0.0
  9
$AUNITS
 70
     0
  9
$AUPREC
 70
     0
  9
$MENU
  1
ACAD
  9
$ELEVATION
 40
0.0
  9
$PELEVATION
 40
0.0
  9
$THICKNESS
 40
0.0
  9
$LIMCHECK
 70
     0
  9
$BLIPMODE
 70
     0
  9
$CHAMFERA
 40
0.0
  9
$CHAMFERB
 40
0.0
  9
$SKPOLY
 70
     0
  9
$TDCREATE
 40
2450868.792212
  9
$TDUPDATE
 40
2450868.792212
  9
$TDINDWG
 40
0.0
  9
$TDUSRTIMER
 40
0.0
  9
$USRTIMER
 70
     1
  9
$ANGBASE
 50
0.0
  9
$ANGDIR
 70
     0
  9
$PDMODE
 70
     0
  9
$PDSIZE
 40
0.0
  9
$PLINEWID
 40
0.0
  9
$COORDS
 70
     0
  9
$SPLFRAME
 70
     0
  9
$SPLINETYPE
 70
     6
  9
$SPLINESEGS
 70
     8
  9
$ATTDIA
 70
     0
  9
$ATTREQ
 70
     1
  9
$HANDLING
 70
     1
  9
$HANDSEED
  5
17D
  9
$SURFTAB1
 70
     6
  9
$SURFTAB2
 70
     6
  9
$SURFTYPE
 70
     6
  9
$SURFU
 70
     6
  9
$SURFV
 70
     6
  9
$UCSNAME
  2

  9
$UCSORG
 10
0.0
 20
0.0
 30
0.0
  9
$UCSXDIR
 10
1.0
 20
0.0
 30
0.0
  9
$UCSYDIR
 10
0.0
 20
1.0
 30
0.0
  9
$PUCSNAME
  2

  9
$PUCSORG
 10
0.0
 20
0.0
 30
0.0
  9
$PUCSXDIR
 10
1.0
 20
0.0
 30
0.0
  9
$PUCSYDIR
 10
0.0
 20
1.0
 30
0.0
  9
$USERI1
 70
     0
  9
$USERI2
 70
     0
  9
$USERI3
 70
     0
  9
$USERI4
 70
     0
  9
$USERI5
 70
     0
  9
$USERR1
 40
0.0
  9
$USERR2
 40
0.0
  9
$USERR3
 40
0.0
  9
$USERR4
 40
0.0
  9
$USERR5
 40
0.0
  9
$WORLDVIEW
 70
     1
  9
$SHADEDGE
 70
     3
  9
$SHADEDIF
 70
    70
  9
$TILEMODE
 70
     1
  9
$MAXACTVP
 70
    16
  9
$PLIMCHECK
 70
     0
  9
$PEXTMIN
 10
1.000000E+020
 20
1.000000E+020
 30
1.000000E+020
  9
$PEXTMAX
 10
-1.000000E+020
 20
-1.000000E+020
 30
-1.000000E+020
  9
$PLIMMIN
 10
0.0
 20
0.0
  9
$PLIMMAX
 10
12.0
 20
9.0
  9
$UNITMODE
 70
     0
  9
$VISRETAIN
 70
     0
  9
$PLINEGEN
 70
   238
  9
$PSLTSCALE
 70
     0
  0
ENDSEC
  0
SECTION
  2
TABLES
  0
TABLE
  2
VPORT
 70
     3
  0
VPORT
  2
*ACTIVE
 70
     0
 10
0.0
 20
0.0
 11
1.0
 21
1.0
 12
62.076772
 22
45.861467
 13
0.0
 23
0.0
 14
5.0
 24
5.0
 15
10.0
 25
10.0
 16
0.0
 26
0.0
 36
1.0
 17
0.0
 27
0.0
 37
0.0
 40
91.722934
 41
1.353571
 42
50.0
 43
0.0
 44
0.0
 50
0.0
 51
0.0
 71
     0
 72
   500
 73
     1
 74
     1
 75
     1
 76
     1
 77
     0
 78
     0
  0
ENDTAB
  0
TABLE
  2
LTYPE
 70
     3
  0
LTYPE
  2
CONTINUOUS
 70
     0
  3
Solid line
 72
    65
 73
     0
 40
0.0
  0
LTYPE
  2
CENTER
 70
     0
  3
____ _ ____ _ ____ _ ____ _ ____ _ ____ _ ____
 72
    65
 73
     4
 40
2.0
 49
1.25
 49
-0.25
 49
0.25
 49
-0.25
  0
LTYPE
  2
HIDDEN
 70
     0
  3
_ _ _ _ _ _ _ _ _ _ _ _ _ _ _ _ _ _ _ _ _ _ _
 72
    65
 73
     2
 40
0.375
 49
0.25
 49
-0.125
  0
ENDTAB
  0
TABLE
  2
LAYER
 70
     6
  0
LAYER
  2
0
 70
     0
 62
     7
  6
CONTINUOUS
  0
LAYER
  2
1
 70
     0
 62
     1
  6
CENTER
  0
LAYER
  2
2
 70
     0
 62
     2
  6
HIDDEN
  0
LAYER
  2
3
 70
     0
 62
     3
  6
CONTINUOUS
  0
LAYER
  2
10
 70
     0
 62
     7
  6
CONTINUOUS
  0
LAYER
  2
11
 70
     0
 62
     3
  6
CONTINUOUS
  0
ENDTAB
  0
TABLE
  2
STYLE
 70
     2
  0
STYLE
  2
STANDARD
 70
     0
 40
0.0
 41
1.0
 50
0.0
 71
     0
 42
3.0
  3
TXT
  4
BIGFONT
  0
STYLE
  2
07500
 70
     0
 40
0.0
 41
0.75
 50
0.0
 71
     0
 42
6.0
  3
TXT
  4
BIGFONT
  0
ENDTAB
  0
TABLE
  2
VIEW
 70
     1
  0
VIEW
  2
ALL
 70
     0
 40
135.0
 10
110.495798
 20
67.5
 41
0.0
 11
0.0
 21
0.0
 31
1.0
 12
0.0
 22
0.0
 32
0.0
 42
0.0
 43
0.0
 44
0.0
 50
0.0
 71
     0
  0
ENDTAB
  0
TABLE
  2
UCS
 70
     0
  0
ENDTAB
  0
TABLE
  2
APPID
 70
     1
  0
APPID
  2
ACAD
 70
     0
  0
ENDTAB
  0
TABLE
  2
DIMSTYLE
 70
     1
  0
DIMSTYLE
  2
STANDARD
 70
     0
  3

  4

  5

  6

  7

 40
1.0
 41
0.18
 42
0.0625
 43
0.38
 44
0.18
 45
0.0
 46
0.0
 47
0.0
 48
0.0
140
0.18
141
0.09
142
0.0
143
25.4
144
1.0
145
0.0
146
1.0
147
0.09
 71
     0
 72
     0
 73
     1
 74
     1
 75
     0
 76
     0
 77
     0
 78
     0
170
     0
171
     2
172
     0
173
     0
174
     0
175
     0
176
     0
177
     0
178
     0
  0
ENDTAB
  0
ENDSEC
  0
SECTION
  2
BLOCKS
  0
BLOCK
  8
0
  2
$MODEL_SPACE
 70
     0
 10
0.0
 20
0.0
 30
0.0
  3
$MODEL_SPACE
  1

  0
ENDBLK
  5
176
  8
0
  0
BLOCK
 67
     1
  8
0
  2
$PAPER_SPACE
 70
     0
 10
0.0
 20
0.0
 30
0.0
  3
$PAPER_SPACE
  1

  0
ENDBLK
  5
174
 67
     1
  8
0
  0
BLOCK
  8
0
  2
QQ
 70
     0
 10
270.0
 20
0.0
 30
0.0
  3
QQ
  1

  0
LINE
  5
2D
  8
11
 10
173.0
 20
36.0
 30
0.0
 11
270.0
 21
36.0
 31
0.0
  0
TEXT
  5
2E
  8
11
 10
175.0
 20
32.5
 30
0.0
 40
2.5
  1
部品名称
  0
LINE
  5
2F
  8
11
 10
173.0
 20
36.0
 30
0.0
 11
173.0
 21
0.0
 31
0.0
  0
LINE
  5
30
  8
11
 10
173.0
 20
24.0
 30
0.0
 11
270.0
 21
24.0
 31
0.0
  0
TEXT
  5
31
  8
11
 10
175.0
 20
20.5
 30
0.0
 40
2.5
  1
品番
  0
LINE
  5
32
  8
11
 10
173.0
 20
12.0
 30
0.0
 11
270.0
 21
12.0
 31
0.0
  0
TEXT
  5
33
  8
11
 10
175.0
 20
8.5
 30
0.0
 40
2.5
  1
尺度
  0
TEXT
  5
34
  8
11
 10
200.0
 20
8.5
 30
0.0
 40
2.5
  1
図番
  0
LINE
  5
35
  8
11
 10
198.0
 20
0.0
 30
0.0
 11
198.0
 21
12.0
 31
0.0
  0
ENDBLK
  5
36
  8
0
  0
ENDSEC
  0
SECTION
  2
ENTITIES
  0
LINE
  5
37
  8
2
 10
79.0
 20
37.933
 30
0.0
 11
79.0
 21
40.0
 31
0.0
  0
LINE
  5
38
  8
2
 10
69.5
 20
37.933
 30
0.0
 11
69.5
 21
40.0
 31
0.0
  0
LINE
  5
39
  8
2
 10
79.0
 20
37.933
 30
0.0
 11
80.0
 21
36.933
 31
0.0
  0
LINE
  5
3A
  8
2
 10
68.5
 20
36.933
 30
0.0
 11
69.5
 21
37.933
 31
0.0
  0
LINE
  5
3B
  8
2
 10
79.433
 20
37.5
 30
0.0
 11
69.067
 21
37.5
 31
0.0
  0
LINE
  5
3C
  8
2
 10
79.0
 20
37.933
 30
0.0
 11
69.5
 21
37.933
 31
0.0
  0
LINE
  5
3D
  8
1
 10
66.0
 20
40.0
 30
0.0
 11
82.5
 21
40.0
 31
0.0
  0
LINE
  5
3E
  8
3
 10
68.9
 20
40.784591
 30
0.0
 11
72.1
 21
40.784591
 31
0.0
  0
LINE
  5
3F
  8
3
 10
68.9
 20
41.564345
 30
0.0
 11
72.1
 21
41.564345
 31
0.0
  0
LINE
  5
40
  8
3
 10
68.9
 20
42.334454
 30
0.0
 11
72.1
 21
42.334454
 31
0.0
  0
LINE
  5
41
  8
3
 10
68.9
 20
43.071118
 30
0.0
 11
72.1
 21
43.071118
 31
0.0
  0
LINE
  5
42
  8
3
 10
68.9
 20
43.826834
 30
0.0
 11
72.1
 21
43.826834
 31
0.0
  0
LINE
  5
43
  8
3
 10
68.9
 20
44.539905
 30
0.0
 11
72.1
 21
44.539905
 31
0.0
  0
LINE
  5
44
  8
3
 10
68.9
 20
45.224986
 30
0.0
 11
72.1
 21
45.224986
 31
0.0
  0
LINE
  5
45
  8
3
 10
68.9
 20
45.877853
 30
0.0
 11
72.1
 21
45.877853
 31
0.0
  0
LINE
  5
46
  8
3
 10
68.9
 20
46.613119
 30
0.0
 11
72.1
 21
46.613119
 31
0.0
  0
LINE
  5
47
  8
3
 10
68.9
 20
47.289686
 30
0.0
 11
72.1
 21
47.289686
 31
0.0
  0
LINE
  5
48
  8
3
 10
68.9
 20
47.90155
 30
0.0
 11
72.1
 21
47.90155
 31
0.0
  0
LINE
  5
49
  8
3
 10
68.9
 20
48.443279
 30
0.0
 11
72.1
 21
48.443279
 31
0.0
  0
LINE
  5
4A
  8
3
 10
68.9
 20
48.910065
 30
0.0
 11
72.1
 21
48.910065
 31
0.0
  0
LINE
  5
4B
  8
3
 10
68.9
 20
49.297765
 30
0.0
 11
72.1
 21
49.297765
 31
0.0
  0
LINE
  5
4C
  8
3
 10
68.9
 20
49.602937
 30
0.0
 11
72.1
 21
49.602937
 31
0.0
  0
LINE
  5
4D
  8
3
 10
68.9
 20
49.822873
 30
0.0
 11
72.1
 21
49.822873
 31
0.0
  0
LINE
  5
4E
  8
3
 10
68.9
 20
49.95562
 30
0.0
 11
72.1
 21
49.95562
 31
0.0
  0
LINE
  5
4F
  8
0
 10
79.6
 20
45.0
 30
0.0
 11
79.6
 21
35.0
 31
0.0
  0
LINE
  5
50
  8
0
 10
68.9
 20
50.0
 30
0.0
 11
68.9
 21
30.0
 31
0.0
  0
LINE
  5
51
  8
0
 10
72.5
 20
46.0
 30
0.0
 11
72.5
 21
30.4
 31
0.0
  0
LINE
  5
52
  8
0
 10
72.1
 20
50.0
 30
0.0
 11
72.1
 21
30.0
 31
0.0
  0
LINE
  5
53
  8
0
 10
80.0
 20
44.6
 30
0.0
 11
80.0
 21
35.4
 31
0.0
  0
LINE
  5
54
  8
0
 10
68.5
 20
49.6
 30
0.0
 11
68.5
 21
30.4
 31
0.0
  0
LINE
  5
55
  8
0
 10
68.5
 20
30.4
 30
0.0
 11
68.9
 21
30.0
 31
0.0
  0
LINE
  5
56
  8
0
 10
72.1
 20
30.0
 30
0.0
 11
72.5
 21
30.4
 31
0.0
  0
ARC
  5
57
  8
0
 10
73.5
 20
34.0
 30
0.0
 40
1.0
 50
90.0
 51
180.0
  0
LINE
  5
58
  8
0
 10
79.6
 20
35.0
 30
0.0
 11
80.0
 21
35.4
 31
0.0
  0
LINE
  5
59
  8
0
 10
73.5
 20
35.0
 30
0.0
 11
79.6
 21
35.0
 31
0.0
  0
LINE
  5
5A
  8
0
 10
73.5
 20
45.0
 30
0.0
 11
79.6
 21
45.0
 31
0.0
  0
LINE
  5
5B
  8
0
 10
79.6
 20
45.0
 30
0.0
 11
80.0
 21
44.6
 31
0.0
  0
ARC
  5
5C
  8
0
 10
73.5
 20
46.0
 30
0.0
 40
1.0
 50
180.0
 51
270.0
  0
LINE
  5
5D
  8
0
 10
72.5
 20
49.6
 30
0.0
 11
72.5
 21
46.0
 31
0.0
  0
LINE
  5
5E
  8
0
 10
72.1
 20
50.0
 30
0.0
 11
72.5
 21
49.6
 31
0.0
  0
LINE
  5
5F
  8
0
 10
68.9
 20
50.0
 30
0.0
 11
72.1
 21
50.0
 31
0.0
  0
LINE
  5
60
  8
0
 10
68.5
 20
49.6
 30
0.0
 11
68.9
 21
50.0
 31
0.0
  0
LINE
  5
61
  8
3
 10
68.9
 20
40.0
 30
0.0
 11
72.1
 21
40.0
 31
0.0
  0
LINE
  5
62
  8
2
 10
79.0
 20
42.067
 30
0.0
 11
69.5
 21
42.067
 31
0.0
  0
LINE
  5
63
  8
2
 10
79.433
 20
42.5
 30
0.0
 11
69.067
 21
42.5
 31
0.0
  0
LINE
  5
64
  8
2
 10
68.5
 20
43.067
 30
0.0
 11
69.5
 21
42.067
 31
0.0
  0
LINE
  5
65
  8
2
 10
79.0
 20
42.067
 30
0.0
 11
80.0
 21
43.067
 31
0.0
  0
LINE
  5
66
  8
2
 10
69.5
 20
42.067
 30
0.0
 11
69.5
 21
40.0
 31
0.0
  0
LINE
  5
67
  8
2
 10
79.0
 20
42.067
 30
0.0
 11
79.0
 21
40.0
 31
0.0
  0
LINE
  5
68
  8
3
 10
68.9
 20
40.0
 30
0.0
 11
72.1
 21
40.0
 31
0.0
  0
LINE
  5
69
  8
0
 10
68.9
 20
30.0
 30
0.0
 11
72.1
 21
30.0
 31
0.0
  0
LINE
  5
6A
  8
3
 10
68.9
 20
30.04438
 30
0.0
 11
72.1
 21
30.04438
 31
0.0
  0
LINE
  5
6B
  8
3
 10
68.9
 20
30.177127
 30
0.0
 11
72.1
 21
30.177127
 31
0.0
  0
LINE
  5
6C
  8
3
 10
68.9
 20
30.397063
 30
0.0
 11
72.1
 21
30.397063
 31
0.0
  0
LINE
  5
6D
  8
3
 10
68.9
 20
30.702235
 30
0.0
 11
72.1
 21
30.702235
 31
0.0
  0
LINE
  5
6E
  8
3
 10
68.9
 20
31.089935
 30
0.0
 11
72.1
 21
31.089935
 31
0.0
  0
LINE
  5
6F
  8
3
 10
68.9
 20
31.556721
 30
0.0
 11
72.1
 21
31.556721
 31
0.0
  0
LINE
  5
70
  8
3
 10
68.9
 20
32.09845
 30
0.0
 11
72.1
 21
32.09845
 31
0.0
  0
LINE
  5
71
  8
3
 10
68.9
 20
32.710314
 30
0.0
 11
72.1
 21
32.710314
 31
0.0
  0
LINE
  5
72
  8
3
 10
68.9
 20
33.386881
 30
0.0
 11
72.1
 21
33.386881
 31
0.0
  0
LINE
  5
73
  8
3
 10
68.9
 20
34.122147
 30
0.0
 11
72.1
 21
34.122147
 31
0.0
  0
LINE
  5
74
  8
3
 10
68.9
 20
34.775014
 30
0.0
 11
72.1
 21
34.775014
 31
0.0
  0
LINE
  5
75
  8
3
 10
68.9
 20
35.460095
 30
0.0
 11
72.1
 21
35.460095
 31
0.0
  0
LINE
  5
76
  8
3
 10
68.9
 20
36.173166
 30
0.0
 11
72.1
 21
36.173166
 31
0.0
  0
LINE
  5
77
  8
3
 10
68.9
 20
36.928882
 30
0.0
 11
72.1
 21
36.928882
 31
0.0
  0
LINE
  5
78
  8
3
 10
68.9
 20
37.665546
 30
0.0
 11
72.1
 21
37.665546
 31
0.0
  0
LINE
  5
79
  8
3
 10
68.9
 20
38.435655
 30
0.0
 11
72.1
 21
38.435655
 31
0.0
  0
LINE
  5
7A
  8
3
 10
68.9
 20
39.215409
 30
0.0
 11
72.1
 21
39.215409
 31
0.0
  0
CIRCLE
  5
103
  8
0
 10
30.0
 20
40.0
 30
0.0
 40
10.0
  0
CIRCLE
  5
106
  8
0
 10
30.0
 20
40.0
 30
0.0
 40
2.067
  0
CIRCLE
  5
107
  8
3
 10
30.0
 20
40.0
 30
0.0
 40
2.5
  0
CIRCLE
  5
10C
  8
0
 10
30.0
 20
40.0
 30
0.0
 40
9.6
  0
LINE
  5
10D
  8
1
 10
42.5
 20
40.0
 30
0.0
 11
17.5
 21
40.0
 31
0.0
  0
LINE
  5
10E
  8
1
 10
30.0
 20
52.5
 30
0.0
 11
30.0
 21
27.5
 31
0.0
  0
ENDSEC
  0
EOF
