  0
SECTION
  2
HEADER
  9
$ACADVER
  1
AC1009
  9
$INSBASE
 10
0.0
 20
0.0
 30
0.0
  9
$EXTMIN
 10
82.614899650931875
 20
45.61935492979751
 30
-0.0015258207003583
  9
$EXTMAX
 10
186.67030399859669
 20
165.28106740126501
 30
0.0000000349246037
  9
$LIMMIN
 10
0.0
 20
0.0
  9
$LIMMAX
 10
375.0
 20
270.0
  9
$ORTHOMODE
 70
     0
  9
$REGENMODE
 70
     1
  9
$FILLMODE
 70
     1
  9
$QTEXTMODE
 70
     0
  9
$MIRRTEXT
 70
     0
  9
$DRAGMODE
 70
     2
  9
$LTSCALE
 40
10.0
  9
$OSMODE
 70
   231
  9
$ATTMODE
 70
     1
  9
$TEXTSIZE
 40
4.000000000000048
  9
$TRACEWID
 40
0.05
  9
$TEXTSTYLE
  7
STANDARD
  9
$CLAYER
  8
0
  9
$CELTYPE
  6
BYLAYER
  9
$CECOLOR
 62
   256
  9
$DIMSCALE
 40
1.0
  9
$DIMASZ
 40
3.0
  9
$DIMEXO
 40
2.0
  9
$DIMDLI
 40
0.38
  9
$DIMRND
 40
0.0
  9
$DIMDLE
 40
0.0
  9
$DIMEXE
 40
2.0
  9
$DIMTP
 40
0.0
  9
$DIMTM
 40
0.0
  9
$DIMTXT
 40
3.2000000000000002
  9
$DIMCEN
 40
0.0
  9
$DIMTSZ
 40
0.0
  9
$DIMTOL
 70
     0
  9
$DIMLIM
 70
     0
  9
$DIMTIH
 70
     0
  9
$DIMTOH
 70
     0
  9
$DIMSE1
 70
     0
  9
$DIMSE2
 70
     0
  9
$DIMTAD
 70
     1
  9
$DIMZIN
 70
     0
  9
$DIMBLK
  1

  9
$DIMASO
 70
     1
  9
$DIMSHO
 70
     0
  9
$DIMPOST
  1

  9
$DIMAPOST
  1

  9
$DIMALT
 70
     0
  9
$DIMALTD
 70
     2
  9
$DIMALTF
 40
25.399999999999999
  9
$DIMLFAC
 40
1.0
  9
$DIMTOFL
 70
     1
  9
$DIMTVP
 40
1.6000000000000001
  9
$DIMTIX
 70
     1
  9
$DIMSOXD
 70
     0
  9
$DIMSAH
 70
     0
  9
$DIMBLK1
  1

  9
$DIMBLK2
  1

  9
$DIMSTYLE
  2
STANDARD
  9
$DIMCLRD
 70
     0
  9
$DIMCLRE
 70
     0
  9
$DIMCLRT
 70
     0
  9
$DIMTFAC
 40
1.0
  9
$DIMGAP
 40
0.09
  9
$LUNITS
 70
     2
  9
$LUPREC
 70
     4
  9
$SKETCHINC
 40
0.1
  9
$FILLETRAD
 40
3.0
  9
$AUNITS
 70
     0
  9
$AUPREC
 70
     4
  9
$MENU
  1
E:\r13\win\SUPPORT\ACAD
  9
$ELEVATION
 40
0.0
  9
$PELEVATION
 40
0.0
  9
$THICKNESS
 40
0.0
  9
$LIMCHECK
 70
     0
  9
$BLIPMODE
 70
     1
  9
$CHAMFERA
 40
0.0
  9
$CHAMFERB
 40
0.0
  9
$SKPOLY
 70
     0
  9
$TDCREATE
 40
2449839.7852314808
  9
$TDUPDATE
 40
2453236.8319731941
  9
$TDINDWG
 40
0.0016106134
  9
$TDUSRTIMER
 40
0.0016106134
  9
$USRTIMER
 70
     1
  9
$ANGBASE
 50
0.0
  9
$ANGDIR
 70
     0
  9
$PDMODE
 70
     0
  9
$PDSIZE
 40
0.0
  9
$PLINEWID
 40
0.0
  9
$COORDS
 70
     0
  9
$SPLFRAME
 70
     0
  9
$SPLINETYPE
 70
     6
  9
$SPLINESEGS
 70
     8
  9
$ATTDIA
 70
     0
  9
$ATTREQ
 70
     1
  9
$HANDLING
 70
-16383
  9
$HANDSEED
  5
24E
  9
$SURFTAB1
 70
     6
  9
$SURFTAB2
 70
     6
  9
$SURFTYPE
 70
     6
  9
$SURFU
 70
     6
  9
$SURFV
 70
     6
  9
$UCSNAME
  2

  9
$UCSORG
 10
0.0
 20
0.0
 30
0.0
  9
$UCSXDIR
 10
1.0
 20
0.0
 30
0.0
  9
$UCSYDIR
 10
0.0
 20
1.0
 30
0.0
  9
$PUCSNAME
  2

  9
$PUCSORG
 10
0.0
 20
0.0
 30
0.0
  9
$PUCSXDIR
 10
1.0
 20
0.0
 30
0.0
  9
$PUCSYDIR
 10
0.0
 20
1.0
 30
0.0
  9
$USERI1
 70
     0
  9
$USERI2
 70
     1
  9
$USERI3
 70
     1
  9
$USERI4
 70
     0
  9
$USERI5
 70
     0
  9
$USERR1
 40
0.0
  9
$USERR2
 40
0.0
  9
$USERR3
 40
0.0
  9
$USERR4
 40
0.0
  9
$USERR5
 40
0.0
  9
$WORLDVIEW
 70
     1
  9
$SHADEDGE
 70
     3
  9
$SHADEDIF
 70
    70
  9
$TILEMODE
 70
     1
  9
$MAXACTVP
 70
    16
  9
$PLIMCHECK
 70
     0
  9
$PEXTMIN
 10
1.0000000000000000E+020
 20
1.0000000000000000E+020
 30
1.0000000000000000E+020
  9
$PEXTMAX
 10
-1.0000000000000000E+020
 20
-1.0000000000000000E+020
 30
-1.0000000000000000E+020
  9
$PLIMMIN
 10
0.0
 20
0.0
  9
$PLIMMAX
 10
12.0
 20
9.0
  9
$UNITMODE
 70
     0
  9
$VISRETAIN
 70
     0
  9
$PLINEGEN
 70
     0
  9
$PSLTSCALE
 70
     0
  0
ENDSEC
  0
SECTION
  2
TABLES
  0
TABLE
  2
VPORT
 70
     3
  0
VPORT
  2
*ACTIVE
 70
     0
 10
0.0
 20
0.0
 11
1.0
 21
1.0
 12
134.64260182476431
 22
105.4502111655313
 13
0.0
 23
0.0
 14
10.0
 24
10.0
 15
10.0
 25
10.0
 16
0.0
 26
0.0
 36
1.0
 17
0.0
 27
0.0
 37
0.0
 40
134.00712244611711
 41
0.9407114624505929
 42
50.0
 43
0.0
 44
0.0
 50
0.0
 51
0.0
 71
     0
 72
   500
 73
     1
 74
     0
 75
     0
 76
     0
 77
     0
 78
     2
  0
ENDTAB
  0
TABLE
  2
LTYPE
 70
     3
  0
LTYPE
  2
CONTINUOUS
 70
     0
  3
Solid Line
 72
    65
 73
     0
 40
0.0
  0
LTYPE
  2
CENTER
 70
     0
  3
____ _ ____ _ ____ _ ____ _ ____ _ ____ _ ____
 72
    65
 73
     4
 40
2.0
 49
1.25
 49
-0.25
 49
0.25
 49
-0.25
  0
LTYPE
  2
HIDDEN
 70
     0
  3
_ _ _ _ _ _ _ _ _ _ _ _ _ _ _ _ _ _ _ _ _ _ _
 72
    65
 73
     2
 40
0.375
 49
0.25
 49
-0.125
  0
ENDTAB
  0
TABLE
  2
LAYER
 70
     3
  0
LAYER
  2
0
 70
     0
 62
     7
  6
CONTINUOUS
  0
LAYER
  2
1
 70
     0
 62
     1
  6
CENTER
  0
LAYER
  2
2
 70
     0
 62
     2
  6
HIDDEN
  0
ENDTAB
  0
TABLE
  2
STYLE
 70
     1
  0
STYLE
  2
STANDARD
 70
     0
 40
0.0
 41
1.0
 50
0.0
 71
     0
 42
4.000000000000048
  3
TXT
  4
BIGFONT
  0
ENDTAB
  0
TABLE
  2
VIEW
 70
     1
  0
VIEW
  2
ALL
 70
     0
 40
270.0
 10
220.99159663865541
 20
135.0
 41
0.0
 11
0.0
 21
0.0
 31
1.0
 12
0.0
 22
0.0
 32
0.0
 42
0.0
 43
0.0
 44
0.0
 50
0.0
 71
     0
  0
ENDTAB
  0
TABLE
  2
UCS
 70
     0
  0
ENDTAB
  0
TABLE
  2
APPID
 70
     5
  0
APPID
  2
ACAD
 70
     0
  0
APPID
  2
GENIUS_GENODEF_13
 70
     0
  0
APPID
  2
GENIUS_GENOBJ-N-FIL_13
 70
     0
  0
APPID
  2
GENIUS_GENFIL_13
 70
     0
  0
APPID
  2
GENIUS_GENOBJ-N-CHA_13
 70
     0
  0
ENDTAB
  0
TABLE
  2
DIMSTYLE
 70
     1
  0
DIMSTYLE
  2
STANDARD
 70
     0
  3

  4

  5

  6

  7

 40
1.0
 41
0.18
 42
0.0625
 43
0.38
 44
0.18
 45
0.0
 46
0.0
 47
0.0
 48
0.0
140
0.18
141
0.09
142
0.0
143
25.399999999999999
144
1.0
145
0.0
146
1.0
147
0.09
 71
     0
 72
     0
 73
     1
 74
     1
 75
     0
 76
     0
 77
     0
 78
     0
170
     0
171
     2
172
     0
173
     0
174
     0
175
     0
176
     0
177
     0
178
     0
  0
ENDTAB
  0
ENDSEC
  0
SECTION
  2
BLOCKS
  0
BLOCK
  8
0
  2
$MODEL_SPACE
 70
     0
 10
0.0
 20
0.0
 30
0.0
  3
$MODEL_SPACE
  1

  0
ENDBLK
  5
1F6
  8
0
  0
BLOCK
 67
     1
  8
0
  2
$PAPER_SPACE
 70
     0
 10
0.0
 20
0.0
 30
0.0
  3
$PAPER_SPACE
  1

  0
ENDBLK
  5
1F4
 67
     1
  8
0
  0
ENDSEC
  0
SECTION
  2
ENTITIES
  0
LINE
  5
175
  8
1
 10
134.6431493581986
 20
134.27604739721551
 30
0.0
 11
134.6431493581986
 21
165.27604739722381
 31
0.0
  0
ARC
  5
176
  8
0
 10
177.14314935819851
 20
146.33837084359291
 30
0.0
 40
4.5
 50
276.98231358004108
 51
0.0
1001
GENIUS_GENODEF_13
1002
{
1000
HIER
1070
     0
1002
}
1002
{
1000
MANEDIT
1070
     0
1002
}
1002
{
1000
NOSEL
1070
     0
1002
}
1002
{
1000
BEHIND
1070
     0
1002
}
1002
{
1000
REACTOR
1002
}
1001
GENIUS_GENOBJ-N-FIL_13
1002
{
1000
OWNER
1000
GEN
1002
}
  0
ARC
  5
177
  8
0
 10
92.143149358198741
 20
146.33837084359291
 30
0.0
 40
4.5
 50
180.0
 51
263.01768641995892
1001
GENIUS_GENODEF_13
1002
{
1000
HIER
1070
     0
1002
}
1002
{
1000
MANEDIT
1070
     0
1002
}
1002
{
1000
NOSEL
1070
     0
1002
}
1002
{
1000
BEHIND
1070
     0
1002
}
1002
{
1000
REACTOR
1002
}
1001
GENIUS_GENOBJ-N-FIL_13
1002
{
1000
OWNER
1000
GEN
1002
}
  0
ARC
  5
178
  8
0
 10
134.64359239416521
 20
-268.576841871059
 30
0.0
 40
365.4038139508915
 50
83.236244709215356
 51
90.000069468587654
  0
ARC
  5
179
  8
0
 10
134.64361061155421
 20
497.5122412253682
 30
0.0
 40
358.23619382844549
 50
269.99992622780439
 51
276.901483484739
  0
LINE
  5
17A
  8
0
 10
155.2638012822226
 20
81.376091740348826
 30
0.0
 11
176.73050352107489
 21
79.445329785516265
 31
0.0
  0
LINE
  5
17B
  8
1
 10
134.64314935819871
 20
45.627073059563649
 30
0.0
 11
134.6431493581986
 21
101.8269720795675
 31
0.0
  0
LINE
  5
17C
  8
0
 10
87.643149358198798
 20
83.926370224198365
 30
0.0
 11
87.643149358198798
 21
89.815894840841807
 31
0.0
  0
LINE
  5
17D
  8
0
 10
114.0224974341748
 20
81.376091740348826
 30
0.0
 11
92.555795195322446
 21
79.445329785516265
 31
0.0
  0
ARC
  5
17E
  8
0
 10
92.143149358198798
 20
83.926370224198365
 30
0.0
 40
4.5
 50
180.0
 51
275.26136117402319
1001
GENIUS_GENODEF_13
1002
{
1000
HIER
1070
     0
1002
}
1002
{
1000
MANEDIT
1070
     0
1002
}
1002
{
1000
NOSEL
1070
     0
1002
}
1002
{
1000
BEHIND
1070
     0
1002
}
1002
{
1000
REACTOR
1002
}
1001
GENIUS_GENOBJ-N-FIL_13
1002
{
1000
OWNER
1000
GEN
1002
}
  0
LINE
  5
17F
  8
0
 10
124.11992619793109
 20
51.926920754720577
 30
0.0
 11
123.7534393816856
 21
72.372936432621998
 31
0.0
  0
LINE
  5
180
  8
0
 10
145.1663725184662
 20
51.926920754720577
 30
0.0
 11
145.53285933471159
 21
72.372936432621998
 31
0.0
  0
LINE
  5
181
  8
2
 10
140.6431493581986
 20
50.800278140320529
 30
0.0
 11
140.6431493581986
 21
68.627073059563656
 31
0.0
  0
LINE
  5
182
  8
2
 10
139.7681493581986
 20
51.305459625861488
 30
0.0
 11
139.7681493581986
 21
75.624039313085234
 31
0.0
  0
LINE
  5
183
  8
2
 10
128.6431493581986
 20
50.800278140320529
 30
0.0
 11
128.6431493581986
 21
68.627073059563656
 31
0.0
  0
LINE
  5
184
  8
2
 10
129.5181493581986
 20
51.305459625861488
 30
0.0
 11
129.5181493581986
 21
75.624039313085234
 31
0.0
  0
LINE
  5
185
  8
2
 10
126.1431493581986
 20
81.127073059563656
 30
0.0
 11
126.1431493581986
 21
51.982581535868967
 31
0.0
  0
LINE
  5
186
  8
2
 10
143.1431493581986
 20
81.127073059563713
 30
0.0
 11
143.1431493581986
 21
51.982581535868967
 31
0.0
  0
LINE
  5
187
  8
0
 10
127.6431493581986
 20
50.627073059563649
 30
0.0
 11
134.6431493581986
 21
50.627073059563649
 31
0.0
  0
LINE
  5
188
  8
0
 10
134.6431493581986
 20
50.927073059563661
 30
0.0
 11
125.1373786043375
 21
50.927073059563661
 31
0.0
  0
LINE
  5
189
  8
0
 10
124.11992619793109
 20
51.926920754720577
 30
0.0
 11
134.6431493581986
 21
51.926920754720577
 31
0.0
  0
LINE
  5
18A
  8
2
 10
129.5181493581986
 20
51.305459625861488
 30
0.0
 11
139.7681493581986
 21
51.305459625861488
 31
0.0
  0
LINE
  5
18B
  8
2
 10
127.6431493581986
 20
51.580657747222233
 30
0.0
 11
126.1431493581986
 21
51.982581535868967
 31
0.0
  0
LINE
  5
18C
  8
0
 10
125.1373786043375
 20
50.927073059563661
 30
0.0
 11
124.11992619793109
 21
51.926920754720577
 31
0.0
1001
GENIUS_GENFIL_13
1070
     0
1040
1.0
1040
1.0
1040
20.0
1040
0.0
1002
{
1002
}
1001
GENIUS_GENODEF_13
1002
{
1000
HIER
1070
     0
1002
}
1002
{
1000
MANEDIT
1070
     0
1002
}
1002
{
1000
NOSEL
1070
     0
1002
}
1002
{
1000
BEHIND
1070
     0
1002
}
1002
{
1000
REACTOR
1002
}
1001
GENIUS_GENOBJ-N-CHA_13
1002
{
1000
OWNER
1000
GEN
1002
}
  0
LINE
  5
18D
  8
0
 10
127.6431493581986
 20
50.927073059563661
 30
0.0
 11
127.6431493581986
 21
50.627073059563649
 31
0.0
  0
LINE
  5
18E
  8
2
 10
127.6431493581986
 20
51.580657747222233
 30
0.0
 11
127.6431493581986
 21
50.927073059563661
 31
0.0
  0
LINE
  5
18F
  8
2
 10
129.5181493581986
 20
51.305459625861488
 30
0.0
 11
128.34314935819859
 21
50.627073059563649
 31
0.0
  0
LINE
  5
190
  8
0
 10
141.6431493581986
 20
50.627073059563649
 30
0.0
 11
134.6431493581986
 21
50.627073059563649
 31
0.0
  0
LINE
  5
191
  8
0
 10
145.1663725184662
 20
51.926920754720577
 30
0.0
 11
134.6431493581986
 21
51.926920754720577
 31
0.0
  0
LINE
  5
192
  8
0
 10
134.6431493581986
 20
50.927073059563661
 30
0.0
 11
144.14892011205981
 21
50.927073059563661
 31
0.0
  0
LINE
  5
193
  8
2
 10
139.7681493581986
 20
51.305459625861488
 30
0.0
 11
140.9431493581987
 21
50.627073059563649
 31
0.0
  0
LINE
  5
194
  8
0
 10
141.6431493581986
 20
50.927073059563661
 30
0.0
 11
141.6431493581986
 21
50.627073059563649
 31
0.0
  0
LINE
  5
195
  8
0
 10
144.14892011205981
 20
50.927073059563661
 30
0.0
 11
145.1663725184662
 21
51.926920754720577
 31
0.0
1001
GENIUS_GENFIL_13
1070
     0
1040
1.0
1040
1.0
1040
20.0
1040
0.0
1002
{
1002
}
1001
GENIUS_GENODEF_13
1002
{
1000
HIER
1070
     0
1002
}
1002
{
1000
MANEDIT
1070
     0
1002
}
1002
{
1000
NOSEL
1070
     0
1002
}
1002
{
1000
BEHIND
1070
     0
1002
}
1002
{
1000
REACTOR
1002
}
1001
GENIUS_GENOBJ-N-CHA_13
1002
{
1000
OWNER
1000
GEN
1002
}
  0
LINE
  5
196
  8
2
 10
141.6431493581986
 20
51.580657747222233
 30
0.0
 11
143.1431493581986
 21
51.982581535868967
 31
0.0
  0
LINE
  5
197
  8
2
 10
141.6431493581986
 20
51.580657747222233
 30
0.0
 11
141.6431493581986
 21
50.927073059563661
 31
0.0
  0
LINE
  5
198
  8
2
 10
134.6431493581986
 20
83.627073059563656
 30
0.0
 11
128.6431493581986
 21
83.627073059563656
 31
0.0
  0
LINE
  5
199
  8
2
 10
134.6431493581986
 20
78.582959442682053
 30
0.0
 11
129.5181493581986
 21
75.624039313085234
 31
0.0
  0
LINE
  5
19A
  8
2
 10
140.6431493581986
 20
68.627073059563656
 30
0.0
 11
128.6431493581986
 21
68.627073059563656
 31
0.0
  0
LINE
  5
19B
  8
2
 10
139.7681493581986
 20
75.624039313085234
 30
0.0
 11
129.5181493581986
 21
75.624039313085234
 31
0.0
  0
ARC
  5
19C
  8
0
 10
114.5748375401451
 20
72.212723341810204
 30
0.0
 40
9.1799999999999997
 50
0.9999999982367471
 51
93.449442537017475
1001
GENIUS_GENODEF_13
1002
{
1000
HIER
1070
     0
1002
}
1002
{
1000
MANEDIT
1070
     0
1002
}
1002
{
1000
NOSEL
1070
     0
1002
}
1002
{
1000
BEHIND
1070
     0
1002
}
1002
{
1000
REACTOR
1002
}
1001
GENIUS_GENOBJ-N-FIL_13
1002
{
1000
OWNER
1000
GEN
1002
}
  0
LINE
  5
19D
  8
2
 10
128.6431493581986
 20
83.627073059563656
 30
0.0
 11
126.1431493581986
 21
81.127073059563656
 31
0.0
  0
LINE
  5
19E
  8
2
 10
143.1350305238505
 20
58.187907914060077
 30
0.0
 11
143.1431493581986
 21
58.196026748408201
 31
0.0
  0
ARC
  5
19F
  8
0
 10
154.71146117625219
 20
72.212723341810204
 30
0.0
 40
9.1799999999999997
 50
86.550557462982525
 51
179.0000000017632
1001
GENIUS_GENODEF_13
1002
{
1000
HIER
1070
     0
1002
}
1002
{
1000
MANEDIT
1070
     0
1002
}
1002
{
1000
NOSEL
1070
     0
1002
}
1002
{
1000
BEHIND
1070
     0
1002
}
1002
{
1000
REACTOR
1002
}
1001
GENIUS_GENOBJ-N-FIL_13
1002
{
1000
OWNER
1000
GEN
1002
}
  0
LINE
  5
1A0
  8
2
 10
134.6431493581986
 20
78.582959442682053
 30
0.0
 11
139.7681493581986
 21
75.624039313085234
 31
0.0
  0
LINE
  5
1A1
  8
2
 10
134.6431493581986
 20
83.627073059563656
 30
0.0
 11
140.6431493581986
 21
83.627073059563656
 31
0.0
  0
LINE
  5
1A2
  8
2
 10
140.6431493581986
 20
83.627073059563656
 30
0.0
 11
143.1431493581986
 21
81.127073059563656
 31
0.0
  0
ARC
  5
1A3
  8
0
 10
134.6427063222321
 20
-268.576841871059
 30
0.0
 40
365.4038139508915
 50
89.999930531412346
 51
96.763755290784658
  0
ARC
  5
1A4
  8
0
 10
134.64268810484339
 20
497.5122412253682
 30
0.0
 40
358.23619382844549
 50
263.09851651526088
 51
270.00007377219549
  0
ARC
  5
1A5
  8
0
 10
92.143149358198741
 20
89.815894840841807
 30
0.0
 40
4.5
 50
96.843003145114594
 51
180.0
1001
GENIUS_GENODEF_13
1002
{
1000
HIER
1070
     0
1002
}
1002
{
1000
MANEDIT
1070
     0
1002
}
1002
{
1000
NOSEL
1070
     0
1002
}
1002
{
1000
BEHIND
1070
     0
1002
}
1002
{
1000
REACTOR
1002
}
1001
GENIUS_GENOBJ-N-FIL_13
1002
{
1000
OWNER
1000
GEN
1002
}
  0
LINE
  5
1A6
  8
0
 10
181.64314935819851
 20
83.926370224198365
 30
0.0
 11
181.64314935819851
 21
89.815894840841807
 31
0.0
  0
ARC
  5
1A7
  8
0
 10
177.14314935819851
 20
83.926370224198365
 30
0.0
 40
4.5
 50
264.73863882597669
 51
0.0
1001
GENIUS_GENODEF_13
1002
{
1000
HIER
1070
     0
1002
}
1002
{
1000
MANEDIT
1070
     0
1002
}
1002
{
1000
NOSEL
1070
     0
1002
}
1002
{
1000
BEHIND
1070
     0
1002
}
1002
{
1000
REACTOR
1002
}
1001
GENIUS_GENOBJ-N-FIL_13
1002
{
1000
OWNER
1000
GEN
1002
}
  0
ARC
  5
1A8
  8
0
 10
177.14314935819851
 20
89.815894840841807
 30
0.0
 40
4.5
 50
0.0
 51
83.156996854885392
1001
GENIUS_GENODEF_13
1002
{
1000
HIER
1070
     0
1002
}
1002
{
1000
MANEDIT
1070
     0
1002
}
1002
{
1000
NOSEL
1070
     0
1002
}
1002
{
1000
BEHIND
1070
     0
1002
}
1002
{
1000
REACTOR
1002
}
1001
GENIUS_GENOBJ-N-FIL_13
1002
{
1000
OWNER
1000
GEN
1002
}
  0
LINE
  5
1A9
  8
1
 10
82.643149358198627
 20
149.77604739721971
 30
0.0
 11
186.6431493581986
 21
149.77604739721971
 31
0.0
  0
ARC
  5
1AA
  8
0
 10
134.64361061155381
 20
-197.9601464309292
 30
0.0
 40
358.23619382844589
 50
83.098516515260954
 51
90.000073772195535
  0
ARC
  5
1AB
  8
0
 10
134.64268810484299
 20
-197.9601464309288
 30
0.0
 40
358.23619382844549
 50
89.999926227804394
 51
96.901483484738975
  0
LINE
  5
1AC
  8
0
 10
87.643149358198684
 20
149.77604739721971
 30
0.0
 11
87.643149358198684
 21
153.21372395084649
 31
0.0
  0
LINE
  5
1AD
  8
0
 10
87.643149358198684
 20
149.77604739721971
 30
0.0
 11
87.643149358198684
 21
146.33837084359291
 31
0.0
  0
ARC
  5
1AE
  8
0
 10
92.143149358198741
 20
153.21372395084649
 30
0.0
 40
4.5
 50
96.982313580041108
 51
180.0
1001
GENIUS_GENODEF_13
1002
{
1000
HIER
1070
     0
1002
}
1002
{
1000
MANEDIT
1070
     0
1002
}
1002
{
1000
NOSEL
1070
     0
1002
}
1002
{
1000
BEHIND
1070
     0
1002
}
1002
{
1000
REACTOR
1002
}
1001
GENIUS_GENOBJ-N-FIL_13
1002
{
1000
OWNER
1000
GEN
1002
}
  0
LINE
  5
1AF
  8
0
 10
181.64314935819871
 20
149.77604739721971
 30
0.0
 11
181.64314935819871
 21
153.21372395084649
 31
0.0
  0
LINE
  5
1B0
  8
0
 10
181.64314935819871
 20
149.77604739721971
 30
0.0
 11
181.64314935819871
 21
146.33837084359291
 31
0.0
  0
ARC
  5
1B1
  8
0
 10
177.14314935819851
 20
153.21372395084649
 30
0.0
 40
4.5
 50
0.0
 51
83.017686419958906
1001
GENIUS_GENODEF_13
1002
{
1000
HIER
1070
     0
1002
}
1002
{
1000
MANEDIT
1070
     0
1002
}
1002
{
1000
NOSEL
1070
     0
1002
}
1002
{
1000
BEHIND
1070
     0
1002
}
1002
{
1000
REACTOR
1002
}
1001
GENIUS_GENOBJ-N-FIL_13
1002
{
1000
OWNER
1000
GEN
1002
}
  0
ENDSEC
  0
EOF
