  0
SECTION
  2
HEADER
  9
$ACADVER
  1
AC1009
  9
$INSBASE
 10
0.0
 20
0.0
 30
0.0
  9
$EXTMIN
 10
79.982758534586424
 20
74.994049788212919
 30
-0.0015258207003583
  9
$EXTMAX
 10
300.02403337860483
 20
205.0172429846335
 30
0.0000000349246037
  9
$LIMMIN
 10
0.0
 20
0.0
  9
$LIMMAX
 10
375.0
 20
270.0
  9
$ORTHOMODE
 70
     1
  9
$REGENMODE
 70
     1
  9
$FILLMODE
 70
     1
  9
$QTEXTMODE
 70
     0
  9
$MIRRTEXT
 70
     0
  9
$DRAGMODE
 70
     2
  9
$LTSCALE
 40
10.0
  9
$OSMODE
 70
   231
  9
$ATTMODE
 70
     1
  9
$TEXTSIZE
 40
4.000000000000048
  9
$TRACEWID
 40
0.05
  9
$TEXTSTYLE
  7
STANDARD
  9
$CLAYER
  8
0
  9
$CELTYPE
  6
BYLAYER
  9
$CECOLOR
 62
   256
  9
$DIMSCALE
 40
1.0
  9
$DIMASZ
 40
3.0
  9
$DIMEXO
 40
2.0
  9
$DIMDLI
 40
0.38
  9
$DIMRND
 40
0.0
  9
$DIMDLE
 40
0.0
  9
$DIMEXE
 40
2.0
  9
$DIMTP
 40
0.0
  9
$DIMTM
 40
0.0
  9
$DIMTXT
 40
3.2000000000000002
  9
$DIMCEN
 40
0.0
  9
$DIMTSZ
 40
0.0
  9
$DIMTOL
 70
     0
  9
$DIMLIM
 70
     0
  9
$DIMTIH
 70
     0
  9
$DIMTOH
 70
     0
  9
$DIMSE1
 70
     0
  9
$DIMSE2
 70
     0
  9
$DIMTAD
 70
     1
  9
$DIMZIN
 70
     0
  9
$DIMBLK
  1

  9
$DIMASO
 70
     1
  9
$DIMSHO
 70
     0
  9
$DIMPOST
  1

  9
$DIMAPOST
  1

  9
$DIMALT
 70
     0
  9
$DIMALTD
 70
     2
  9
$DIMALTF
 40
25.399999999999999
  9
$DIMLFAC
 40
1.0
  9
$DIMTOFL
 70
     1
  9
$DIMTVP
 40
1.6000000000000001
  9
$DIMTIX
 70
     1
  9
$DIMSOXD
 70
     0
  9
$DIMSAH
 70
     0
  9
$DIMBLK1
  1

  9
$DIMBLK2
  1

  9
$DIMSTYLE
  2
STANDARD
  9
$DIMCLRD
 70
     0
  9
$DIMCLRE
 70
     0
  9
$DIMCLRT
 70
     0
  9
$DIMTFAC
 40
1.0
  9
$DIMGAP
 40
0.09
  9
$LUNITS
 70
     2
  9
$LUPREC
 70
     4
  9
$SKETCHINC
 40
0.1
  9
$FILLETRAD
 40
3.0
  9
$AUNITS
 70
     0
  9
$AUPREC
 70
     4
  9
$MENU
  1
E:\r13\win\SUPPORT\ACAD
  9
$ELEVATION
 40
0.0
  9
$PELEVATION
 40
0.0
  9
$THICKNESS
 40
0.0
  9
$LIMCHECK
 70
     0
  9
$BLIPMODE
 70
     1
  9
$CHAMFERA
 40
0.0
  9
$CHAMFERB
 40
0.0
  9
$SKPOLY
 70
     0
  9
$TDCREATE
 40
2449839.7852314808
  9
$TDUPDATE
 40
2453236.8318787962
  9
$TDINDWG
 40
0.0001540741
  9
$TDUSRTIMER
 40
0.0001540741
  9
$USRTIMER
 70
     1
  9
$ANGBASE
 50
0.0
  9
$ANGDIR
 70
     0
  9
$PDMODE
 70
     0
  9
$PDSIZE
 40
0.0
  9
$PLINEWID
 40
0.0
  9
$COORDS
 70
     0
  9
$SPLFRAME
 70
     0
  9
$SPLINETYPE
 70
     6
  9
$SPLINESEGS
 70
     8
  9
$ATTDIA
 70
     0
  9
$ATTREQ
 70
     1
  9
$HANDLING
 70
-16383
  9
$HANDSEED
  5
178
  9
$SURFTAB1
 70
     6
  9
$SURFTAB2
 70
     6
  9
$SURFTYPE
 70
     6
  9
$SURFU
 70
     6
  9
$SURFV
 70
     6
  9
$UCSNAME
  2

  9
$UCSORG
 10
0.0
 20
0.0
 30
0.0
  9
$UCSXDIR
 10
1.0
 20
0.0
 30
0.0
  9
$UCSYDIR
 10
0.0
 20
1.0
 30
0.0
  9
$PUCSNAME
  2

  9
$PUCSORG
 10
0.0
 20
0.0
 30
0.0
  9
$PUCSXDIR
 10
1.0
 20
0.0
 30
0.0
  9
$PUCSYDIR
 10
0.0
 20
1.0
 30
0.0
  9
$USERI1
 70
     0
  9
$USERI2
 70
     1
  9
$USERI3
 70
     1
  9
$USERI4
 70
     0
  9
$USERI5
 70
     0
  9
$USERR1
 40
0.0
  9
$USERR2
 40
0.0
  9
$USERR3
 40
0.0
  9
$USERR4
 40
0.0
  9
$USERR5
 40
0.0
  9
$WORLDVIEW
 70
     1
  9
$SHADEDGE
 70
     3
  9
$SHADEDIF
 70
    70
  9
$TILEMODE
 70
     1
  9
$MAXACTVP
 70
    16
  9
$PLIMCHECK
 70
     0
  9
$PEXTMIN
 10
1.0000000000000000E+020
 20
1.0000000000000000E+020
 30
1.0000000000000000E+020
  9
$PEXTMAX
 10
-1.0000000000000000E+020
 20
-1.0000000000000000E+020
 30
-1.0000000000000000E+020
  9
$PLIMMIN
 10
0.0
 20
0.0
  9
$PLIMMAX
 10
12.0
 20
9.0
  9
$UNITMODE
 70
     0
  9
$VISRETAIN
 70
     0
  9
$PLINEGEN
 70
     0
  9
$PSLTSCALE
 70
     0
  0
ENDSEC
  0
SECTION
  2
TABLES
  0
TABLE
  2
VPORT
 70
     3
  0
VPORT
  2
*ACTIVE
 70
     0
 10
0.0
 20
0.0
 11
1.0
 21
1.0
 12
190.0033959565956
 22
140.00564638642311
 13
0.0
 23
0.0
 14
10.0
 24
10.0
 15
10.0
 25
10.0
 16
0.0
 26
0.0
 36
1.0
 17
0.0
 27
0.0
 37
0.0
 40
262.08051274165018
 41
0.9407114624505929
 42
50.0
 43
0.0
 44
0.0
 50
0.0
 51
0.0
 71
     0
 72
   500
 73
     1
 74
     0
 75
     0
 76
     0
 77
     0
 78
     2
  0
ENDTAB
  0
TABLE
  2
LTYPE
 70
     3
  0
LTYPE
  2
CONTINUOUS
 70
     0
  3
Solid Line
 72
    65
 73
     0
 40
0.0
  0
LTYPE
  2
CENTER
 70
     0
  3
____ _ ____ _ ____ _ ____ _ ____ _ ____ _ ____
 72
    65
 73
     4
 40
2.0
 49
1.25
 49
-0.25
 49
0.25
 49
-0.25
  0
LTYPE
  2
HIDDEN
 70
     0
  3
_ _ _ _ _ _ _ _ _ _ _ _ _ _ _ _ _ _ _ _ _ _ _
 72
    65
 73
     2
 40
0.375
 49
0.25
 49
-0.125
  0
ENDTAB
  0
TABLE
  2
LAYER
 70
     3
  0
LAYER
  2
0
 70
     0
 62
     7
  6
CONTINUOUS
  0
LAYER
  2
1
 70
     0
 62
     1
  6
CENTER
  0
LAYER
  2
2
 70
     0
 62
     2
  6
HIDDEN
  0
ENDTAB
  0
TABLE
  2
STYLE
 70
     1
  0
STYLE
  2
STANDARD
 70
     0
 40
0.0
 41
1.0
 50
0.0
 71
     0
 42
4.000000000000048
  3
TXT
  4
BIGFONT
  0
ENDTAB
  0
TABLE
  2
VIEW
 70
     1
  0
VIEW
  2
ALL
 70
     0
 40
270.0
 10
220.99159663865541
 20
135.0
 41
0.0
 11
0.0
 21
0.0
 31
1.0
 12
0.0
 22
0.0
 32
0.0
 42
0.0
 43
0.0
 44
0.0
 50
0.0
 71
     0
  0
ENDTAB
  0
TABLE
  2
UCS
 70
     0
  0
ENDTAB
  0
TABLE
  2
APPID
 70
     1
  0
APPID
  2
ACAD
 70
     0
  0
ENDTAB
  0
TABLE
  2
DIMSTYLE
 70
     1
  0
DIMSTYLE
  2
STANDARD
 70
     0
  3

  4

  5

  6

  7

 40
1.0
 41
0.18
 42
0.0625
 43
0.38
 44
0.18
 45
0.0
 46
0.0
 47
0.0
 48
0.0
140
0.18
141
0.09
142
0.0
143
25.399999999999999
144
1.0
145
0.0
146
1.0
147
0.09
 71
     0
 72
     0
 73
     1
 74
     1
 75
     0
 76
     0
 77
     0
 78
     0
170
     0
171
     2
172
     0
173
     0
174
     0
175
     0
176
     0
177
     0
178
     0
  0
ENDTAB
  0
ENDSEC
  0
SECTION
  2
BLOCKS
  0
BLOCK
  8
0
  2
$MODEL_SPACE
 70
     0
 10
0.0
 20
0.0
 30
0.0
  3
$MODEL_SPACE
  1

  0
ENDBLK
  5
120
  8
0
  0
BLOCK
 67
     1
  8
0
  2
$PAPER_SPACE
 70
     0
 10
0.0
 20
0.0
 30
0.0
  3
$PAPER_SPACE
  1

  0
ENDBLK
  5
11E
 67
     1
  8
0
  0
ENDSEC
  0
SECTION
  2
ENTITIES
  0
ARC
  5
35
  8
2
 10
183.24999999999989
 20
196.74999999999989
 30
0.0
 40
3.0
 50
89.999999999999986
 51
179.99999999999989
  0
ARC
  5
36
  8
2
 10
196.75
 20
196.74999999999989
 30
0.0
 40
3.0
 50
360.0
 51
89.999999999999986
  0
ARC
  5
37
  8
2
 10
196.75
 20
183.24999999999989
 30
0.0
 40
3.0
 50
269.99999999999977
 51
360.0
  0
ARC
  5
38
  8
2
 10
183.24999999999989
 20
183.24999999999989
 30
0.0
 40
3.0
 50
179.99999999999989
 51
269.99999999999977
  0
LINE
  5
39
  8
2
 10
196.75
 20
180.25
 30
0.0
 11
183.24999999999989
 21
180.25
 31
0.0
  0
LINE
  5
3A
  8
2
 10
196.75
 20
199.74999999999989
 30
0.0
 11
183.24999999999989
 21
199.74999999999989
 31
0.0
  0
LINE
  5
3B
  8
2
 10
180.25
 20
196.74999999999989
 30
0.0
 11
180.25
 21
183.24999999999989
 31
0.0
  0
LINE
  5
3C
  8
2
 10
199.75
 20
196.74999999999989
 30
0.0
 11
199.75
 21
183.24999999999989
 31
0.0
  0
ARC
  5
3D
  8
0
 10
227.0
 20
194.4059158912064
 30
0.0
 40
3.0
 50
360.0
 51
81.979067124756142
  0
ARC
  5
3E
  8
0
 10
227.0
 20
185.59408410879351
 30
0.0
 40
3.0
 50
278.0209328752436
 51
360.0
  0
ARC
  5
3F
  8
0
 10
153.0
 20
185.59408410879351
 30
0.0
 40
3.0
 50
179.99999999999989
 51
261.97906712475572
  0
ARC
  5
40
  8
0
 10
153.0
 20
194.40591589120649
 30
0.0
 40
3.0
 50
98.020932875243844
 51
179.99999999999989
  0
ARC
  5
41
  8
0
 10
190.00000000000011
 20
448.16666666666549
 30
0.0
 40
268.16666666666549
 50
261.97906712475537
 51
278.02093287524451
  0
ARC
  5
42
  8
0
 10
189.99999999999989
 20
-68.166666666669272
 30
0.0
 40
268.16666666666907
 50
81.979067124755531
 51
98.020932875244441
  0
LINE
  5
43
  8
1
 10
190.0
 20
204.99999999999989
 30
0.0
 11
190.0
 21
175.0
 31
0.0
  0
LINE
  5
44
  8
0
 10
229.99999999999989
 20
194.40591858860469
 30
0.0
 11
230.0
 21
185.5940841087934
 31
0.0
  0
LINE
  5
45
  8
0
 10
150.0
 20
185.59408410879351
 30
0.0
 11
150.0
 21
194.40591589120649
 31
0.0
  0
ARC
  5
46
  8
0
 10
198.24999999999989
 20
81.799999999999955
 30
0.0
 40
1.5
 50
269.99999999999977
 51
359.99999999999977
  0
ARC
  5
47
  8
0
 10
181.75
 20
81.799999999999983
 30
0.0
 40
1.5
 50
179.99999999999989
 51
269.99999999999977
  0
LINE
  5
48
  8
0
 10
196.5
 20
80.299999999999955
 30
0.0
 11
196.5
 21
79.999999999999972
 31
0.0
  0
LINE
  5
49
  8
0
 10
183.49999999999989
 20
80.299999999999969
 30
0.0
 11
183.49999999999989
 21
79.999999999999986
 31
0.0
  0
LINE
  5
4A
  8
0
 10
198.24999999999989
 20
80.299999999999955
 30
0.0
 11
181.75
 21
80.299999999999983
 31
0.0
  0
ARC
  5
4B
  8
0
 10
189.99999999999989
 20
-292.49999999999881
 30
0.0
 40
400.99999999999892
 50
92.588667097709404
 51
95.254749738475169
  0
ARC
  5
4C
  8
0
 10
207.75
 20
100.0989524947819
 30
0.0
 40
8.0
 50
87.411332902290354
 51
179.99999999999989
  0
ARC
  5
4D
  8
0
 10
172.25
 20
100.0989524947819
 30
0.0
 40
8.0
 50
360.0
 51
92.588667097708694
  0
LINE
  5
4E
  8
0
 10
199.75
 20
100.0989524947819
 30
0.0
 11
199.74999999999989
 21
81.799999999999955
 31
0.0
  0
LINE
  5
4F
  8
0
 10
180.25
 20
100.0989524947819
 30
0.0
 11
180.25
 21
81.799999999999983
 31
0.0
  0
ARC
  5
50
  8
0
 10
153.0
 20
109.8021252740283
 30
0.0
 40
3.0
 50
179.99999999999989
 51
275.25474912037703
  0
ARC
  5
51
  8
0
 10
227.0
 20
109.8021252740283
 30
0.0
 40
3.0
 50
264.74525087962508
 51
360.0
  0
ARC
  5
52
  8
0
 10
227.0
 20
116.77641867766999
 30
0.0
 40
3.0
 50
360.0
 51
84.665805610669167
  0
ARC
  5
53
  8
0
 10
153.0
 20
116.77641867766999
 30
0.0
 40
3.0
 50
95.334194389330207
 51
179.99999999999989
  0
ARC
  5
54
  8
0
 10
189.9999999999998
 20
-292.49999999999881
 30
0.0
 40
400.99999999999892
 50
84.745250261524802
 51
87.41133290229061
  0
ARC
  5
55
  8
0
 10
189.9999999999998
 20
-279.49999999999881
 30
0.0
 40
400.99999999999892
 50
84.665805610669082
 51
95.334194389330833
  0
LINE
  5
56
  8
0
 10
229.99999999999989
 20
116.77641867766989
 30
0.0
 11
229.99999999999989
 21
109.8021252740283
 31
0.0
  0
LINE
  5
57
  8
0
 10
150.0
 20
116.77641867766999
 30
0.0
 11
149.99999999999989
 21
109.8021252740283
 31
0.0
  0
LINE
  5
58
  8
1
 10
190.0
 20
126.5
 30
0.0
 11
190.0
 21
74.999999999999943
 31
0.0
  0
LINE
  5
59
  8
0
 10
196.5
 20
79.999999999999972
 30
0.0
 11
183.49999999999989
 21
79.999999999999986
 31
0.0
  0
LINE
  5
5A
  8
2
 10
185.0
 20
80.688000000000073
 30
0.0
 11
185.0
 21
104.9999999999999
 31
0.0
  0
LINE
  5
5B
  8
2
 10
185.8119999999999
 20
81.500000000000028
 30
0.0
 11
185.8119999999999
 21
109.9999999999999
 31
0.0
  0
LINE
  5
5C
  8
2
 10
194.1880000000001
 20
81.500000000000028
 30
0.0
 11
194.1880000000001
 21
109.9999999999999
 31
0.0
  0
LINE
  5
5D
  8
2
 10
195.0
 20
80.688000000000073
 30
0.0
 11
195.0
 21
104.9999999999999
 31
0.0
  0
LINE
  5
5E
  8
2
 10
185.0
 20
104.9999999999999
 30
0.0
 11
195.0
 21
104.9999999999999
 31
0.0
  0
LINE
  5
5F
  8
2
 10
185.8119999999999
 20
109.9999999999999
 30
0.0
 11
194.1880000000001
 21
109.9999999999999
 31
0.0
  0
LINE
  5
60
  8
2
 10
185.8119999999995
 20
109.9999999999999
 30
0.0
 11
189.99999999999969
 21
112.51640427248751
 31
0.0
  0
LINE
  5
61
  8
2
 10
194.1879999999999
 20
109.9999999999999
 30
0.0
 11
189.99999999999969
 21
112.51640427248751
 31
0.0
  0
LINE
  5
62
  8
2
 10
194.99999999999989
 20
104.9999999999999
 30
0.0
 11
194.1880000000001
 21
106.4064252557456
 31
0.0
  0
LINE
  5
63
  8
2
 10
184.9999999999996
 20
104.9999999999999
 30
0.0
 11
185.81199999999939
 21
106.4064252557456
 31
0.0
  0
LINE
  5
64
  8
2
 10
195.6880000000001
 20
79.999999999999915
 30
0.0
 11
194.1880000000001
 21
81.499999999999957
 31
0.0
  0
LINE
  5
65
  8
2
 10
194.1880000000001
 20
81.499999999999957
 30
0.0
 11
185.8119999999999
 21
81.499999999999986
 31
0.0
  0
LINE
  5
66
  8
2
 10
184.31199999999981
 20
79.999999999999915
 30
0.0
 11
185.8119999999999
 21
81.499999999999986
 31
0.0
  0
ARC
  5
67
  8
0
 10
298.24999999999989
 20
81.799999999999955
 30
0.0
 40
1.5
 50
269.99999999999977
 51
359.99999999999977
  0
ARC
  5
68
  8
0
 10
281.74999999999989
 20
81.799999999999983
 30
0.0
 40
1.5
 50
179.99999999999989
 51
269.99999999999977
  0
LINE
  5
69
  8
0
 10
296.49999999999989
 20
80.299999999999955
 30
0.0
 11
296.49999999999989
 21
79.999999999999972
 31
0.0
  0
LINE
  5
6A
  8
0
 10
283.49999999999989
 20
80.299999999999969
 30
0.0
 11
283.49999999999989
 21
79.999999999999986
 31
0.0
  0
LINE
  5
6B
  8
0
 10
298.24999999999989
 20
80.299999999999955
 30
0.0
 11
281.74999999999989
 21
80.299999999999983
 31
0.0
  0
LINE
  5
6C
  8
0
 10
299.75
 20
109.8999946139605
 30
0.0
 11
299.74999999999989
 21
81.799999999999955
 31
0.0
  0
LINE
  5
6D
  8
0
 10
280.25
 20
109.8999946139495
 30
0.0
 11
280.25
 21
81.799999999999983
 31
0.0
  0
LINE
  5
6E
  8
1
 10
290.0
 20
126.5
 30
0.0
 11
290.0
 21
74.999999999999943
 31
0.0
  0
LINE
  5
6F
  8
0
 10
296.49999999999989
 20
79.999999999999972
 30
0.0
 11
283.49999999999989
 21
79.999999999999986
 31
0.0
  0
LINE
  5
70
  8
2
 10
285.0
 20
80.688000000000073
 30
0.0
 11
285.0
 21
104.9999999999999
 31
0.0
  0
LINE
  5
71
  8
2
 10
285.8119999999999
 20
81.500000000000028
 30
0.0
 11
285.8119999999999
 21
109.9999999999999
 31
0.0
  0
LINE
  5
72
  8
2
 10
294.1880000000001
 20
81.500000000000028
 30
0.0
 11
294.1880000000001
 21
109.9999999999999
 31
0.0
  0
LINE
  5
73
  8
2
 10
295.0
 20
80.688000000000073
 30
0.0
 11
295.0
 21
104.9999999999999
 31
0.0
  0
LINE
  5
74
  8
2
 10
295.6880000000001
 20
79.999999999999915
 30
0.0
 11
294.1880000000001
 21
81.499999999999957
 31
0.0
  0
LINE
  5
75
  8
2
 10
294.1880000000001
 20
81.499999999999957
 30
0.0
 11
285.8119999999999
 21
81.499999999999986
 31
0.0
  0
LINE
  5
76
  8
2
 10
284.31199999999978
 20
79.999999999999915
 30
0.0
 11
285.8119999999999
 21
81.499999999999986
 31
0.0
  0
LINE
  5
77
  8
2
 10
285.0
 20
104.9999999999999
 30
0.0
 11
295.0
 21
104.9999999999999
 31
0.0
  0
LINE
  5
78
  8
2
 10
285.8119999999999
 20
109.9999999999999
 30
0.0
 11
294.1880000000001
 21
109.9999999999999
 31
0.0
  0
LINE
  5
79
  8
2
 10
285.8119999999995
 20
109.9999999999999
 30
0.0
 11
289.99999999999972
 21
112.51640427248751
 31
0.0
  0
LINE
  5
7A
  8
2
 10
294.18799999999987
 20
109.9999999999999
 30
0.0
 11
289.99999999999972
 21
112.51640427248751
 31
0.0
  0
LINE
  5
7B
  8
2
 10
294.99999999999989
 20
104.9999999999999
 30
0.0
 11
294.1880000000001
 21
106.4064252557456
 31
0.0
  0
LINE
  5
7C
  8
2
 10
284.9999999999996
 20
104.9999999999999
 30
0.0
 11
285.81199999999939
 21
106.4064252557456
 31
0.0
  0
LINE
  5
7D
  8
0
 10
280.0
 20
118.5000000000001
 30
0.0
 11
280.0
 21
111.0989524947819
 31
0.0
  0
LINE
  5
7E
  8
0
 10
300.0
 20
118.5000000000001
 30
0.0
 11
300.0
 21
111.0989524947819
 31
0.0
  0
LINE
  5
7F
  8
0
 10
283.0
 20
121.5000000000001
 30
0.0
 11
297.0
 21
121.5000000000001
 31
0.0
  0
LINE
  5
80
  8
0
 10
285.99999999999989
 20
106.8021252740283
 30
0.0
 11
293.99999999999989
 21
106.8021252740283
 31
0.0
  0
ARC
  5
81
  8
0
 10
283.0
 20
118.5000000000001
 30
0.0
 40
3.0
 50
90.0
 51
179.99999999999989
  0
ARC
  5
82
  8
0
 10
297.0
 20
118.5000000000001
 30
0.0
 40
3.0
 50
0.0
 51
90.0
  0
ARC
  5
83
  8
0
 10
297.0
 20
111.0989524947819
 30
0.0
 40
3.0
 50
293.3776571737526
 51
359.99999999999977
  0
ARC
  5
84
  8
0
 10
283.0
 20
111.0989524947819
 30
0.0
 40
3.0
 50
179.9999999999998
 51
246.62234282624709
  0
LINE
  5
85
  8
0
 10
286.0
 20
119.5000000000001
 30
0.0
 11
294.0
 21
119.5000000000001
 31
0.0
  0
LINE
  5
86
  8
0
 10
283.0
 20
116.5000000000001
 30
0.0
 11
282.99999999999989
 21
109.8021252740283
 31
0.0
  0
LINE
  5
87
  8
0
 10
297.0
 20
116.5000000000001
 30
0.0
 11
296.99999999999977
 21
109.8021252740283
 31
0.0
  0
ARC
  5
88
  8
0
 10
286.0
 20
116.5000000000001
 30
0.0
 40
3.0
 50
90.0
 51
179.9999999999998
  0
ARC
  5
89
  8
0
 10
294.0
 20
116.5000000000001
 30
0.0
 40
3.0
 50
0.0
 51
90.0
  0
ARC
  5
8A
  8
0
 10
293.99999999999989
 20
109.8021252740283
 30
0.0
 40
3.0
 50
270.0
 51
359.99999999999972
  0
ARC
  5
8B
  8
0
 10
285.99999999999989
 20
109.8021252740283
 30
0.0
 40
3.0
 50
180.0
 51
269.99999999999989
  0
LINE
  5
8C
  8
0
 10
298.1903699298968
 20
108.3452242166111
 30
0.0
 11
295.19036992989669
 21
107.0483969958575
 31
0.0
  0
LINE
  5
8D
  8
0
 10
281.80963007010303
 20
108.3452242166111
 30
0.0
 11
284.80963007010303
 21
107.0483969958575
 31
0.0
  0
LINE
  5
8E
  8
0
 10
281.39036954382391
 20
120.2801937519707
 30
0.0
 11
283.37124907233527
 21
118.9596073996297
 31
0.0
  0
LINE
  5
8F
  8
0
 10
296.62875092766348
 20
118.95960739962899
 30
0.0
 11
298.60963045617791
 21
120.28019375197189
 31
0.0
  0
LINE
  5
99
  8
0
 10
83.371249072336468
 20
118.95960739962899
 30
0.0
 11
81.390369543822089
 21
120.28019375197189
 31
0.0
  0
LINE
  5
9A
  8
0
 10
98.609630456176092
 20
120.2801937519707
 30
0.0
 11
96.628750927664669
 21
118.9596073996297
 31
0.0
  0
LINE
  5
9B
  8
0
 10
98.190369929896974
 20
108.3452242166111
 30
0.0
 11
95.190369929896974
 21
107.0483969958575
 31
0.0
  0
LINE
  5
9C
  8
0
 10
81.80963007010314
 20
108.3452242166111
 30
0.0
 11
84.809630070103253
 21
107.0483969958575
 31
0.0
  0
ARC
  5
9D
  8
0
 10
94.000000000000057
 20
109.8021252740283
 30
0.0
 40
3.0
 50
270.00000000000011
 51
0.0000000000000254
  0
ARC
  5
9E
  8
0
 10
86.000000000000114
 20
109.8021252740283
 30
0.0
 40
3.0
 50
180.0000000000002
 51
270.0
  0
ARC
  5
9F
  8
0
 10
86.0
 20
116.5000000000001
 30
0.0
 40
3.0
 50
90.000000000000028
 51
180.0
  0
ARC
  5
A0
  8
0
 10
94.0
 20
116.5000000000001
 30
0.0
 40
3.0
 50
0.0000000000001781
 51
90.000000000000028
  0
LINE
  5
A1
  8
0
 10
83.0
 20
116.5000000000001
 30
0.0
 11
83.000000000000114
 21
109.8021252740283
 31
0.0
  0
LINE
  5
A2
  8
0
 10
97.0
 20
116.5000000000001
 30
0.0
 11
97.000000000000057
 21
109.8021252740283
 31
0.0
  0
LINE
  5
A3
  8
0
 10
94.0
 20
119.5000000000001
 30
0.0
 11
86.0
 21
119.5000000000001
 31
0.0
  0
ARC
  5
A4
  8
0
 10
97.0
 20
111.0989524947819
 30
0.0
 40
3.0
 50
293.37765717375282
 51
0.0000000000001272
  0
ARC
  5
A5
  8
0
 10
83.0
 20
111.0989524947819
 30
0.0
 40
3.0
 50
180.00000000000011
 51
246.62234282624729
  0
ARC
  5
A6
  8
0
 10
83.0
 20
118.5000000000001
 30
0.0
 40
3.0
 50
90.000000000000028
 51
180.0
  0
ARC
  5
A7
  8
0
 10
97.0
 20
118.5000000000001
 30
0.0
 40
3.0
 50
0.0000000000000763
 51
90.000000000000028
  0
LINE
  5
A8
  8
0
 10
94.000000000000057
 20
106.8021252740283
 30
0.0
 11
86.000000000000114
 21
106.8021252740283
 31
0.0
  0
LINE
  5
A9
  8
0
 10
97.0
 20
121.5000000000001
 30
0.0
 11
83.0
 21
121.5000000000001
 31
0.0
  0
LINE
  5
AA
  8
0
 10
80.0
 20
118.5000000000001
 30
0.0
 11
80.0
 21
111.0989524947819
 31
0.0
  0
LINE
  5
AB
  8
0
 10
100.0
 20
118.5000000000001
 30
0.0
 11
100.0
 21
111.0989524947819
 31
0.0
  0
LINE
  5
AC
  8
2
 10
95.000000000000398
 20
104.9999999999999
 30
0.0
 11
94.188000000000557
 21
106.4064252557456
 31
0.0
  0
LINE
  5
AD
  8
2
 10
85.000000000000057
 20
104.9999999999999
 30
0.0
 11
85.811999999999898
 21
106.4064252557456
 31
0.0
  0
LINE
  5
AE
  8
2
 10
85.811999999999998
 20
109.9999999999999
 30
0.0
 11
90.000000000000227
 21
112.51640427248751
 31
0.0
  0
LINE
  5
AF
  8
2
 10
94.188000000000443
 20
109.9999999999999
 30
0.0
 11
90.000000000000227
 21
112.51640427248751
 31
0.0
  0
LINE
  5
B0
  8
2
 10
94.188000000000088
 20
109.9999999999999
 30
0.0
 11
85.811999999999898
 21
109.9999999999999
 31
0.0
  0
LINE
  5
B1
  8
2
 10
95.0
 20
104.9999999999999
 30
0.0
 11
85.0
 21
104.9999999999999
 31
0.0
  0
LINE
  5
B2
  8
2
 10
95.688000000000144
 20
79.999999999999915
 30
0.0
 11
94.188000000000088
 21
81.499999999999986
 31
0.0
  0
LINE
  5
B3
  8
2
 10
85.811999999999898
 20
81.499999999999957
 30
0.0
 11
94.188000000000088
 21
81.499999999999986
 31
0.0
  0
LINE
  5
B4
  8
2
 10
84.311999999999841
 20
79.999999999999915
 30
0.0
 11
85.811999999999898
 21
81.499999999999957
 31
0.0
  0
LINE
  5
B5
  8
2
 10
85.0
 20
80.688000000000073
 30
0.0
 11
85.0
 21
104.9999999999999
 31
0.0
  0
LINE
  5
B6
  8
2
 10
85.811999999999898
 20
81.500000000000028
 30
0.0
 11
85.811999999999898
 21
109.9999999999999
 31
0.0
  0
LINE
  5
B7
  8
2
 10
94.188000000000088
 20
81.500000000000028
 30
0.0
 11
94.188000000000088
 21
109.9999999999999
 31
0.0
  0
LINE
  5
B8
  8
2
 10
95.0
 20
80.688000000000073
 30
0.0
 11
95.0
 21
104.9999999999999
 31
0.0
  0
LINE
  5
B9
  8
0
 10
83.499999999999986
 20
79.999999999999972
 30
0.0
 11
96.5
 21
79.999999999999986
 31
0.0
  0
LINE
  5
BA
  8
1
 10
90.0
 20
126.5
 30
0.0
 11
90.0
 21
74.999999999999943
 31
0.0
  0
LINE
  5
BB
  8
0
 10
99.750000000000014
 20
109.8999946139495
 30
0.0
 11
99.750000000000014
 21
81.799999999999983
 31
0.0
  0
LINE
  5
BC
  8
0
 10
80.25
 20
109.8999946139605
 30
0.0
 11
80.250000000000057
 21
81.799999999999955
 31
0.0
  0
LINE
  5
BD
  8
0
 10
81.750000000000057
 20
80.299999999999955
 30
0.0
 11
98.250000000000014
 21
80.299999999999983
 31
0.0
  0
LINE
  5
BE
  8
0
 10
96.5
 20
80.299999999999969
 30
0.0
 11
96.5
 21
79.999999999999986
 31
0.0
  0
LINE
  5
BF
  8
0
 10
83.499999999999986
 20
80.299999999999955
 30
0.0
 11
83.499999999999986
 21
79.999999999999972
 31
0.0
  0
ARC
  5
C0
  8
0
 10
98.250000000000014
 20
81.799999999999983
 30
0.0
 40
1.5
 50
270.00000000000011
 51
0.0000000000000509
  0
ARC
  5
C1
  8
0
 10
81.750000000000057
 20
81.799999999999955
 30
0.0
 40
1.5
 50
180.0000000000002
 51
270.00000000000011
  0
ENDSEC
  0
EOF
