  0
SECTION
  2
HEADER
  9
$ACADVER
  1
AC1009
  9
$INSBASE
 10
0.0
 20
0.0
 30
0.0
  9
$EXTMIN
 10
94.459534674486463
 20
38.636170107214973
 30
-0.0015258207003583
  9
$EXTMAX
 10
171.50688235008479
 20
166.41403249047471
 30
0.0000000349246037
  9
$LIMMIN
 10
0.0
 20
0.0
  9
$LIMMAX
 10
375.0
 20
270.0
  9
$ORTHOMODE
 70
     1
  9
$REGENMODE
 70
     1
  9
$FILLMODE
 70
     1
  9
$QTEXTMODE
 70
     0
  9
$MIRRTEXT
 70
     0
  9
$DRAGMODE
 70
     2
  9
$LTSCALE
 40
10.0
  9
$OSMODE
 70
   231
  9
$ATTMODE
 70
     1
  9
$TEXTSIZE
 40
4.000000000000048
  9
$TRACEWID
 40
0.05
  9
$TEXTSTYLE
  7
STANDARD
  9
$CLAYER
  8
0
  9
$CELTYPE
  6
BYLAYER
  9
$CECOLOR
 62
   256
  9
$DIMSCALE
 40
1.0
  9
$DIMASZ
 40
3.0
  9
$DIMEXO
 40
2.0
  9
$DIMDLI
 40
0.38
  9
$DIMRND
 40
0.0
  9
$DIMDLE
 40
0.0
  9
$DIMEXE
 40
2.0
  9
$DIMTP
 40
0.0
  9
$DIMTM
 40
0.0
  9
$DIMTXT
 40
3.2000000000000002
  9
$DIMCEN
 40
0.0
  9
$DIMTSZ
 40
0.0
  9
$DIMTOL
 70
     0
  9
$DIMLIM
 70
     0
  9
$DIMTIH
 70
     0
  9
$DIMTOH
 70
     0
  9
$DIMSE1
 70
     0
  9
$DIMSE2
 70
     0
  9
$DIMTAD
 70
     1
  9
$DIMZIN
 70
     0
  9
$DIMBLK
  1

  9
$DIMASO
 70
     1
  9
$DIMSHO
 70
     0
  9
$DIMPOST
  1

  9
$DIMAPOST
  1

  9
$DIMALT
 70
     0
  9
$DIMALTD
 70
     2
  9
$DIMALTF
 40
25.399999999999999
  9
$DIMLFAC
 40
1.0
  9
$DIMTOFL
 70
     1
  9
$DIMTVP
 40
1.6000000000000001
  9
$DIMTIX
 70
     1
  9
$DIMSOXD
 70
     0
  9
$DIMSAH
 70
     0
  9
$DIMBLK1
  1

  9
$DIMBLK2
  1

  9
$DIMSTYLE
  2
STANDARD
  9
$DIMCLRD
 70
     0
  9
$DIMCLRE
 70
     0
  9
$DIMCLRT
 70
     0
  9
$DIMTFAC
 40
1.0
  9
$DIMGAP
 40
0.09
  9
$LUNITS
 70
     2
  9
$LUPREC
 70
     4
  9
$SKETCHINC
 40
0.1
  9
$FILLETRAD
 40
3.0
  9
$AUNITS
 70
     0
  9
$AUPREC
 70
     4
  9
$MENU
  1
E:\r13\win\SUPPORT\ACAD
  9
$ELEVATION
 40
0.0
  9
$PELEVATION
 40
0.0
  9
$THICKNESS
 40
0.0
  9
$LIMCHECK
 70
     0
  9
$BLIPMODE
 70
     1
  9
$CHAMFERA
 40
0.0
  9
$CHAMFERB
 40
0.0
  9
$SKPOLY
 70
     0
  9
$TDCREATE
 40
2449839.7852314808
  9
$TDUPDATE
 40
2453236.8318475112
  9
$TDINDWG
 40
0.0064545949
  9
$TDUSRTIMER
 40
0.0064545949
  9
$USRTIMER
 70
     1
  9
$ANGBASE
 50
0.0
  9
$ANGDIR
 70
     0
  9
$PDMODE
 70
     0
  9
$PDSIZE
 40
0.0
  9
$PLINEWID
 40
0.0
  9
$COORDS
 70
     0
  9
$SPLFRAME
 70
     0
  9
$SPLINETYPE
 70
     6
  9
$SPLINESEGS
 70
     8
  9
$ATTDIA
 70
     0
  9
$ATTREQ
 70
     1
  9
$HANDLING
 70
-16383
  9
$HANDSEED
  5
3A5
  9
$SURFTAB1
 70
     6
  9
$SURFTAB2
 70
     6
  9
$SURFTYPE
 70
     6
  9
$SURFU
 70
     6
  9
$SURFV
 70
     6
  9
$UCSNAME
  2

  9
$UCSORG
 10
0.0
 20
0.0
 30
0.0
  9
$UCSXDIR
 10
1.0
 20
0.0
 30
0.0
  9
$UCSYDIR
 10
0.0
 20
1.0
 30
0.0
  9
$PUCSNAME
  2

  9
$PUCSORG
 10
0.0
 20
0.0
 30
0.0
  9
$PUCSXDIR
 10
1.0
 20
0.0
 30
0.0
  9
$PUCSYDIR
 10
0.0
 20
1.0
 30
0.0
  9
$USERI1
 70
     0
  9
$USERI2
 70
     1
  9
$USERI3
 70
     1
  9
$USERI4
 70
     0
  9
$USERI5
 70
     0
  9
$USERR1
 40
0.0
  9
$USERR2
 40
0.0
  9
$USERR3
 40
0.0
  9
$USERR4
 40
0.0
  9
$USERR5
 40
0.0
  9
$WORLDVIEW
 70
     1
  9
$SHADEDGE
 70
     3
  9
$SHADEDIF
 70
    70
  9
$TILEMODE
 70
     1
  9
$MAXACTVP
 70
    16
  9
$PLIMCHECK
 70
     0
  9
$PEXTMIN
 10
1.0000000000000000E+020
 20
1.0000000000000000E+020
 30
1.0000000000000000E+020
  9
$PEXTMAX
 10
-1.0000000000000000E+020
 20
-1.0000000000000000E+020
 30
-1.0000000000000000E+020
  9
$PLIMMIN
 10
0.0
 20
0.0
  9
$PLIMMAX
 10
12.0
 20
9.0
  9
$UNITMODE
 70
     0
  9
$VISRETAIN
 70
     0
  9
$PLINEGEN
 70
     0
  9
$PSLTSCALE
 70
     0
  0
ENDSEC
  0
SECTION
  2
TABLES
  0
TABLE
  2
VPORT
 70
     3
  0
VPORT
  2
*ACTIVE
 70
     0
 10
0.0
 20
0.0
 11
1.0
 21
1.0
 12
132.98320851228559
 22
102.5251012988448
 13
0.0
 23
0.0
 14
10.0
 24
10.0
 15
10.0
 25
10.0
 16
0.0
 26
0.0
 36
1.0
 17
0.0
 27
0.0
 37
0.0
 40
143.09626109002471
 41
0.9407114624505929
 42
50.0
 43
0.0
 44
0.0
 50
0.0
 51
0.0
 71
     0
 72
   500
 73
     1
 74
     0
 75
     0
 76
     0
 77
     0
 78
     2
  0
ENDTAB
  0
TABLE
  2
LTYPE
 70
     2
  0
LTYPE
  2
CONTINUOUS
 70
     0
  3
Solid Line
 72
    65
 73
     0
 40
0.0
  0
LTYPE
  2
CENTER
 70
     0
  3
____ _ ____ _ ____ _ ____ _ ____ _ ____ _ ____
 72
    65
 73
     4
 40
2.0
 49
1.25
 49
-0.25
 49
0.25
 49
-0.25
  0
ENDTAB
  0
TABLE
  2
LAYER
 70
     3
  0
LAYER
  2
0
 70
     0
 62
     7
  6
CONTINUOUS
  0
LAYER
  2
1
 70
     0
 62
     1
  6
CENTER
  0
LAYER
  2
3
 70
     0
 62
     3
  6
CONTINUOUS
  0
ENDTAB
  0
TABLE
  2
STYLE
 70
     1
  0
STYLE
  2
STANDARD
 70
     0
 40
0.0
 41
1.0
 50
0.0
 71
     0
 42
4.000000000000048
  3
TXT
  4
BIGFONT
  0
ENDTAB
  0
TABLE
  2
VIEW
 70
     1
  0
VIEW
  2
ALL
 70
     0
 40
270.0
 10
220.99159663865541
 20
135.0
 41
0.0
 11
0.0
 21
0.0
 31
1.0
 12
0.0
 22
0.0
 32
0.0
 42
0.0
 43
0.0
 44
0.0
 50
0.0
 71
     0
  0
ENDTAB
  0
TABLE
  2
UCS
 70
     0
  0
ENDTAB
  0
TABLE
  2
APPID
 70
     5
  0
APPID
  2
ACAD
 70
     0
  0
APPID
  2
GENIUS_GENODEF_13
 70
     0
  0
APPID
  2
GENIUS_GENOBJ-N-FIL_13
 70
     0
  0
APPID
  2
GENIUS_GENFIL_13
 70
     0
  0
APPID
  2
GENIUS_GENOBJ-N-CHA_13
 70
     0
  0
ENDTAB
  0
TABLE
  2
DIMSTYLE
 70
     1
  0
DIMSTYLE
  2
STANDARD
 70
     0
  3

  4

  5

  6

  7

 40
1.0
 41
0.18
 42
0.0625
 43
0.38
 44
0.18
 45
0.0
 46
0.0
 47
0.0
 48
0.0
140
0.18
141
0.09
142
0.0
143
25.399999999999999
144
1.0
145
0.0
146
1.0
147
0.09
 71
     0
 72
     0
 73
     1
 74
     1
 75
     0
 76
     0
 77
     0
 78
     0
170
     0
171
     2
172
     0
173
     0
174
     0
175
     0
176
     0
177
     0
178
     0
  0
ENDTAB
  0
ENDSEC
  0
SECTION
  2
BLOCKS
  0
BLOCK
  8
0
  2
$MODEL_SPACE
 70
     0
 10
0.0
 20
0.0
 30
0.0
  3
$MODEL_SPACE
  1

  0
ENDBLK
  5
34D
  8
0
  0
BLOCK
 67
     1
  8
0
  2
$PAPER_SPACE
 70
     0
 10
0.0
 20
0.0
 30
0.0
  3
$PAPER_SPACE
  1

  0
ENDBLK
  5
34B
 67
     1
  8
0
  0
ENDSEC
  0
SECTION
  2
ENTITIES
  0
LINE
  5
2EB
  8
1
 10
132.978763803031
 20
110.6381513688392
 30
0.0
 11
132.97876380303089
 21
38.638151368839203
 31
0.0
  0
LINE
  5
2EC
  8
3
 10
130.02574345991789
 20
66.638151368839203
 30
0.0
 11
130.02574345991789
 21
43.9897929180812
 31
0.0
  0
LINE
  5
2ED
  8
3
 10
135.93178414614411
 20
66.638151368839203
 30
0.0
 11
135.93178414614411
 21
43.9897929180812
 31
0.0
  0
LINE
  5
2EE
  8
0
 10
136.978763803031
 20
68.638151368839203
 30
0.0
 11
136.978763803031
 21
45.803214878300253
 31
0.0
  0
LINE
  5
2EF
  8
0
 10
128.978763803031
 20
68.638151368839203
 30
0.0
 11
128.978763803031
 21
45.803214878300253
 31
0.0
  0
LINE
  5
2F0
  8
0
 10
128.978763803031
 20
45.803214878300253
 30
0.0
 11
132.97745063585319
 21
45.803214878300253
 31
0.0
  0
LINE
  5
2F1
  8
0
 10
130.228763803031
 20
43.638151368839203
 30
0.0
 11
128.978763803031
 21
45.803214878300253
 31
0.0
  0
LINE
  5
2F2
  8
0
 10
136.978763803031
 20
45.803214878300253
 30
0.0
 11
132.97745063585319
 21
45.803214878300253
 31
0.0
  0
LINE
  5
2F3
  8
0
 10
132.978763803031
 20
43.638151368839203
 30
0.0
 11
135.728763803031
 21
43.638151368839203
 31
0.0
  0
LINE
  5
2F4
  8
0
 10
132.978763803031
 20
43.638151368839203
 30
0.0
 11
130.228763803031
 21
43.638151368839203
 31
0.0
  0
LINE
  5
2F5
  8
0
 10
136.978763803031
 20
45.803214878300253
 30
0.0
 11
135.728763803031
 21
43.638151368839203
 31
0.0
  0
LINE
  5
2F6
  8
1
 10
94.478763803030986
 20
153.4003448663918
 30
0.0
 11
171.478763803031
 21
153.4003448663918
 31
0.0
  0
ARC
  5
2F7
  8
0
 10
132.978763803031
 20
-64.299655133608155
 30
0.0
 40
225.7000000000001
 50
82.240599393307619
 51
97.759400606692367
  0
ARC
  5
2F8
  8
0
 10
132.978763803031
 20
371.10034486639239
 30
0.0
 40
225.7000000000005
 50
262.24059939330749
 51
277.75940060669228
  0
ARC
  5
2F9
  8
0
 10
132.97876380303089
 20
-175.9243486311629
 30
0.0
 40
281.5625000000021
 50
83.622064473287296
 51
96.37793552671269
  0
ARC
  5
2FA
  8
0
 10
132.48951286121661
 20
-195.24242301153481
 30
0.0
 40
290.58053172345291
 50
83.832938457317056
 51
86.974331894739464
  0
ARC
  5
2FB
  8
0
 10
118.478763803031
 20
88.4423883543177
 30
0.0
 40
6.5
 50
0.0
 51
93.073913385034245
  0
ARC
  5
2FC
  8
0
 10
133.46801487152899
 20
-195.24242780488271
 30
0.0
 40
290.58053651680552
 50
93.025668080317317
 51
96.167059839141785
  0
LINE
  5
2FD
  8
0
 10
99.478763803031029
 20
96.141555660150573
 30
0.0
 11
99.478763803031029
 21
101.4109699026495
 31
0.0
  0
ARC
  5
2FE
  8
0
 10
101.978763803031
 20
96.141555660150573
 30
0.0
 40
2.5
 50
179.99999999999989
 51
276.2652189532796
  0
ARC
  5
2FF
  8
0
 10
101.978763803031
 20
101.4109699026495
 30
0.0
 40
2.5
 50
96.377935526711624
 51
179.99999999999989
  0
LINE
  5
300
  8
0
 10
140.978763803031
 20
88.4423883543177
 30
0.0
 11
140.978763803031
 21
69.938151368839215
 31
0.0
  0
LINE
  5
301
  8
0
 10
124.978763803031
 20
88.4423883543177
 30
0.0
 11
124.9787638030309
 21
69.938151368839215
 31
0.0
  0
LINE
  5
302
  8
0
 10
139.978763803031
 20
68.938151368839215
 30
0.0
 11
125.9787638030309
 21
68.938151368839215
 31
0.0
  0
LINE
  5
303
  8
0
 10
124.9787638030309
 20
69.938151368839215
 30
0.0
 11
140.978763803031
 21
69.938151368839215
 31
0.0
  0
LINE
  5
304
  8
3
 10
130.02574345991789
 20
66.638151368839203
 30
0.0
 11
128.978763803031
 21
67.685131025726093
 31
0.0
  0
LINE
  5
305
  8
0
 10
132.978763803031
 20
66.638151368839203
 30
0.0
 11
128.978763803031
 21
66.638151368839203
 31
0.0
  0
LINE
  5
306
  8
0
 10
132.978763803031
 20
68.638151368839203
 30
0.0
 11
127.9774506358532
 21
68.638151368839203
 31
0.0
  0
LINE
  5
307
  8
0
 10
127.9774506358532
 20
68.638151368839203
 30
0.0
 11
127.9774506358532
 21
68.938151368839215
 31
0.0
  0
LINE
  5
308
  8
0
 10
125.9787638030309
 20
68.938151368839215
 30
0.0
 11
124.9787638030309
 21
69.938151368839215
 31
0.0
  0
LINE
  5
309
  8
0
 10
137.98007697020881
 20
68.638151368839203
 30
0.0
 11
137.98007697020881
 21
68.938151368839215
 31
0.0
  0
LINE
  5
30A
  8
0
 10
132.978763803031
 20
66.638151368839203
 30
0.0
 11
136.978763803031
 21
66.638151368839203
 31
0.0
  0
LINE
  5
30B
  8
0
 10
132.978763803031
 20
68.638151368839203
 30
0.0
 11
137.98007697020881
 21
68.638151368839203
 31
0.0
  0
LINE
  5
30C
  8
3
 10
135.93178414614411
 20
66.638151368839203
 30
0.0
 11
136.978763803031
 21
67.685131025726093
 31
0.0
  0
LINE
  5
30D
  8
0
 10
139.978763803031
 20
68.938151368839215
 30
0.0
 11
140.978763803031
 21
69.938151368839215
 31
0.0
  0
ARC
  5
30E
  8
0
 10
147.478763803031
 20
88.4423883543177
 30
0.0
 40
6.5
 50
86.926086614965556
 51
179.99999999999989
  0
LINE
  5
30F
  8
0
 10
99.478763803031029
 20
150.93486164978941
 30
0.0
 11
99.478763803031029
 21
155.86582808299431
 31
0.0
  0
ARC
  5
310
  8
0
 10
102.978763803031
 20
150.93486164978941
 30
0.0
 40
3.5
 50
180.0
 51
262.24059939330868
  0
ARC
  5
311
  8
0
 10
102.978763803031
 20
155.86582808299431
 30
0.0
 40
3.5
 50
97.759400606690932
 51
180.0
  0
LINE
  5
312
  8
1
 10
132.978763803031
 20
166.400344866392
 30
0.0
 11
132.978763803031
 21
140.40034486639189
 31
0.0
  0
ARC
  5
313
  8
0
 10
163.978763803031
 20
96.141555660150516
 30
0.0
 40
2.5
 50
263.73478104672142
 51
0.0
  0
LINE
  5
314
  8
0
 10
166.478763803031
 20
101.4109708563237
 30
0.0
 11
166.478763803031
 21
96.141557008849716
 31
0.0
  0
ARC
  5
315
  8
0
 10
163.978763803031
 20
101.4109699026494
 30
0.0
 40
2.5
 50
0.0
 51
83.622064473287395
  0
LINE
  5
316
  8
0
 10
166.478763803031
 20
155.86582808299431
 30
0.0
 11
166.478763803031
 21
150.93486164978941
 31
0.0
  0
ARC
  5
317
  8
0
 10
162.978763803031
 20
150.93486164978941
 30
0.0
 40
3.5
 50
277.75940060669319
 51
0.0
  0
ARC
  5
318
  8
0
 10
162.978763803031
 20
155.86582808299431
 30
0.0
 40
3.5
 50
0.0
 51
82.240599393309097
  0
ENDSEC
  0
EOF
