  0
SECTION
  2
HEADER
  9
$ACADVER
  1
AC1009
  9
$INSBASE
 10
0.0
 20
0.0
 30
0.0
  9
$EXTMIN
 10
27.488708964652229
 20
27.145843851782669
 30
-0.0015258207003583
  9
$EXTMAX
 10
162.50038187718059
 20
109.6566012369661
 30
0.0000000349246037
  9
$LIMMIN
 10
0.0
 20
0.0
  9
$LIMMAX
 10
187.5
 20
135.0
  9
$ORTHOMODE
 70
     1
  9
$REGENMODE
 70
     1
  9
$FILLMODE
 70
     1
  9
$QTEXTMODE
 70
     0
  9
$MIRRTEXT
 70
     0
  9
$DRAGMODE
 70
     2
  9
$LTSCALE
 40
5.0
  9
$OSMODE
 70
   231
  9
$ATTMODE
 70
     1
  9
$TEXTSIZE
 40
4.000000000000048
  9
$TRACEWID
 40
0.05
  9
$TEXTSTYLE
  7
STANDARD
  9
$CLAYER
  8
0
  9
$CELTYPE
  6
BYLAYER
  9
$CECOLOR
 62
   256
  9
$DIMSCALE
 40
0.5
  9
$DIMASZ
 40
3.0
  9
$DIMEXO
 40
2.0
  9
$DIMDLI
 40
0.38
  9
$DIMRND
 40
0.0
  9
$DIMDLE
 40
0.0
  9
$DIMEXE
 40
2.0
  9
$DIMTP
 40
0.0
  9
$DIMTM
 40
0.0
  9
$DIMTXT
 40
3.2000000000000002
  9
$DIMCEN
 40
0.0
  9
$DIMTSZ
 40
0.0
  9
$DIMTOL
 70
     0
  9
$DIMLIM
 70
     0
  9
$DIMTIH
 70
     0
  9
$DIMTOH
 70
     0
  9
$DIMSE1
 70
     0
  9
$DIMSE2
 70
     0
  9
$DIMTAD
 70
     1
  9
$DIMZIN
 70
     0
  9
$DIMBLK
  1

  9
$DIMASO
 70
     1
  9
$DIMSHO
 70
     0
  9
$DIMPOST
  1

  9
$DIMAPOST
  1

  9
$DIMALT
 70
     0
  9
$DIMALTD
 70
     2
  9
$DIMALTF
 40
25.399999999999999
  9
$DIMLFAC
 40
1.0
  9
$DIMTOFL
 70
     1
  9
$DIMTVP
 40
1.6000000000000001
  9
$DIMTIX
 70
     1
  9
$DIMSOXD
 70
     0
  9
$DIMSAH
 70
     0
  9
$DIMBLK1
  1

  9
$DIMBLK2
  1

  9
$DIMSTYLE
  2
STANDARD
  9
$DIMCLRD
 70
     0
  9
$DIMCLRE
 70
     0
  9
$DIMCLRT
 70
     0
  9
$DIMTFAC
 40
1.0
  9
$DIMGAP
 40
0.09
  9
$LUNITS
 70
     2
  9
$LUPREC
 70
     4
  9
$SKETCHINC
 40
0.1
  9
$FILLETRAD
 40
2.0
  9
$AUNITS
 70
     0
  9
$AUPREC
 70
     4
  9
$MENU
  1
E:\r13\win\SUPPORT\ACAD
  9
$ELEVATION
 40
0.0
  9
$PELEVATION
 40
0.0
  9
$THICKNESS
 40
0.0
  9
$LIMCHECK
 70
     0
  9
$BLIPMODE
 70
     1
  9
$CHAMFERA
 40
0.0
  9
$CHAMFERB
 40
0.0
  9
$SKPOLY
 70
     0
  9
$TDCREATE
 40
2449839.7851967588
  9
$TDUPDATE
 40
2453236.8317527431
  9
$TDINDWG
 40
0.0001354398
  9
$TDUSRTIMER
 40
0.0001354398
  9
$USRTIMER
 70
     1
  9
$ANGBASE
 50
0.0
  9
$ANGDIR
 70
     0
  9
$PDMODE
 70
     0
  9
$PDSIZE
 40
0.0
  9
$PLINEWID
 40
0.0
  9
$COORDS
 70
     0
  9
$SPLFRAME
 70
     0
  9
$SPLINETYPE
 70
     6
  9
$SPLINESEGS
 70
     8
  9
$ATTDIA
 70
     0
  9
$ATTREQ
 70
     1
  9
$HANDLING
 70
-16383
  9
$HANDSEED
  5
178
  9
$SURFTAB1
 70
     6
  9
$SURFTAB2
 70
     6
  9
$SURFTYPE
 70
     6
  9
$SURFU
 70
     6
  9
$SURFV
 70
     6
  9
$UCSNAME
  2

  9
$UCSORG
 10
0.0
 20
0.0
 30
0.0
  9
$UCSXDIR
 10
1.0
 20
0.0
 30
0.0
  9
$UCSYDIR
 10
0.0
 20
1.0
 30
0.0
  9
$PUCSNAME
  2

  9
$PUCSORG
 10
0.0
 20
0.0
 30
0.0
  9
$PUCSXDIR
 10
1.0
 20
0.0
 30
0.0
  9
$PUCSYDIR
 10
0.0
 20
1.0
 30
0.0
  9
$USERI1
 70
     0
  9
$USERI2
 70
     1
  9
$USERI3
 70
     1
  9
$USERI4
 70
     0
  9
$USERI5
 70
     0
  9
$USERR1
 40
0.0
  9
$USERR2
 40
0.0
  9
$USERR3
 40
0.0
  9
$USERR4
 40
0.0
  9
$USERR5
 40
0.0
  9
$WORLDVIEW
 70
     1
  9
$SHADEDGE
 70
     3
  9
$SHADEDIF
 70
    70
  9
$TILEMODE
 70
     1
  9
$MAXACTVP
 70
    16
  9
$PLIMCHECK
 70
     0
  9
$PEXTMIN
 10
1.0000000000000000E+020
 20
1.0000000000000000E+020
 30
1.0000000000000000E+020
  9
$PEXTMAX
 10
-1.0000000000000000E+020
 20
-1.0000000000000000E+020
 30
-1.0000000000000000E+020
  9
$PLIMMIN
 10
0.0
 20
0.0
  9
$PLIMMAX
 10
12.0
 20
9.0
  9
$UNITMODE
 70
     0
  9
$VISRETAIN
 70
     0
  9
$PLINEGEN
 70
     0
  9
$PSLTSCALE
 70
     0
  0
ENDSEC
  0
SECTION
  2
TABLES
  0
TABLE
  2
VPORT
 70
     3
  0
VPORT
  2
*ACTIVE
 70
     0
 10
0.0
 20
0.0
 11
1.0
 21
1.0
 12
94.994545420916467
 22
68.401222544374434
 13
0.0
 23
0.0
 14
5.0
 24
5.0
 15
5.0
 25
5.0
 16
0.0
 26
0.0
 36
1.0
 17
0.0
 27
0.0
 37
0.0
 40
160.8058692084299
 41
0.9407114624505929
 42
50.0
 43
0.0
 44
0.0
 50
0.0
 51
0.0
 71
     0
 72
   500
 73
     1
 74
     0
 75
     0
 76
     0
 77
     0
 78
     2
  0
ENDTAB
  0
TABLE
  2
LTYPE
 70
     3
  0
LTYPE
  2
CONTINUOUS
 70
     0
  3
Solid Line
 72
    65
 73
     0
 40
0.0
  0
LTYPE
  2
CENTER
 70
     0
  3
____ _ ____ _ ____ _ ____ _ ____ _ ____ _ ____
 72
    65
 73
     4
 40
2.0
 49
1.25
 49
-0.25
 49
0.25
 49
-0.25
  0
LTYPE
  2
HIDDEN
 70
     0
  3
_ _ _ _ _ _ _ _ _ _ _ _ _ _ _ _ _ _ _ _ _ _ _
 72
    65
 73
     2
 40
0.375
 49
0.25
 49
-0.125
  0
ENDTAB
  0
TABLE
  2
LAYER
 70
     3
  0
LAYER
  2
0
 70
     0
 62
     7
  6
CONTINUOUS
  0
LAYER
  2
1
 70
     0
 62
     1
  6
CENTER
  0
LAYER
  2
2
 70
     0
 62
     2
  6
HIDDEN
  0
ENDTAB
  0
TABLE
  2
STYLE
 70
     1
  0
STYLE
  2
STANDARD
 70
     0
 40
0.0
 41
1.0
 50
0.0
 71
     0
 42
4.000000000000048
  3
TXT
  4
BIGFONT
  0
ENDTAB
  0
TABLE
  2
VIEW
 70
     1
  0
VIEW
  2
ALL
 70
     0
 40
135.0
 10
110.4957983193277
 20
67.5
 41
0.0
 11
0.0
 21
0.0
 31
1.0
 12
0.0
 22
0.0
 32
0.0
 42
0.0
 43
0.0
 44
0.0
 50
0.0
 71
     0
  0
ENDTAB
  0
TABLE
  2
UCS
 70
     0
  0
ENDTAB
  0
TABLE
  2
APPID
 70
     1
  0
APPID
  2
ACAD
 70
     0
  0
ENDTAB
  0
TABLE
  2
DIMSTYLE
 70
     1
  0
DIMSTYLE
  2
STANDARD
 70
     0
  3

  4

  5

  6

  7

 40
1.0
 41
0.18
 42
0.0625
 43
0.38
 44
0.18
 45
0.0
 46
0.0
 47
0.0
 48
0.0
140
0.18
141
0.09
142
0.0
143
25.399999999999999
144
1.0
145
0.0
146
1.0
147
0.09
 71
     0
 72
     0
 73
     1
 74
     1
 75
     0
 76
     0
 77
     0
 78
     0
170
     0
171
     2
172
     0
173
     0
174
     0
175
     0
176
     0
177
     0
178
     0
  0
ENDTAB
  0
ENDSEC
  0
SECTION
  2
BLOCKS
  0
BLOCK
  8
0
  2
$MODEL_SPACE
 70
     0
 10
0.0
 20
0.0
 30
0.0
  3
$MODEL_SPACE
  1

  0
ENDBLK
  5
120
  8
0
  0
BLOCK
 67
     1
  8
0
  2
$PAPER_SPACE
 70
     0
 10
0.0
 20
0.0
 30
0.0
  3
$PAPER_SPACE
  1

  0
ENDBLK
  5
11E
 67
     1
  8
0
  0
ENDSEC
  0
SECTION
  2
ENTITIES
  0
ARC
  5
35
  8
2
 10
100.40000000000001
 20
94.251538655660312
 30
0.0
 40
2.0
 50
270.0
 51
360.0
  0
ARC
  5
36
  8
2
 10
89.600000000000023
 20
94.251538655660312
 30
0.0
 40
2.0
 50
179.99999999999989
 51
269.99999999999977
  0
ARC
  5
37
  8
2
 10
89.600000000000023
 20
105.05153865566029
 30
0.0
 40
2.0
 50
89.999999999999986
 51
179.99999999999989
  0
ARC
  5
38
  8
2
 10
100.40000000000001
 20
105.05153865566029
 30
0.0
 40
2.0
 50
360.0
 51
89.999999999999986
  0
LINE
  5
39
  8
2
 10
100.40000000000001
 20
92.251538655660312
 30
0.0
 11
89.600000000000023
 21
92.251538655660312
 31
0.0
  0
LINE
  5
3A
  8
2
 10
100.40000000000001
 20
107.05153865566029
 30
0.0
 11
89.600000000000023
 21
107.05153865566029
 31
0.0
  0
LINE
  5
3B
  8
2
 10
102.40000000000001
 20
105.05153865566029
 30
0.0
 11
102.40000000000001
 21
94.251538655660312
 31
0.0
  0
LINE
  5
3C
  8
2
 10
87.600000000000037
 20
105.05153865566029
 30
0.0
 11
87.600000000000037
 21
94.251538655660312
 31
0.0
  0
ARC
  5
3D
  8
0
 10
120.4999999999999
 20
103.4147049130227
 30
0.0
 40
2.0
 50
360.0
 51
82.207075664578085
  0
ARC
  5
3E
  8
0
 10
120.4999999999999
 20
95.888372398297903
 30
0.0
 40
2.0
 50
277.79292433542179
 51
360.0
  0
ARC
  5
3F
  8
0
 10
69.500000000000014
 20
95.888372398297932
 30
0.0
 40
2.0
 50
179.99999999999989
 51
262.20707566458088
  0
ARC
  5
40
  8
0
 10
69.5
 20
103.4147049130227
 30
0.0
 40
2.0
 50
97.792924335421475
 51
179.99999999999989
  0
ARC
  5
41
  8
0
 10
95.000000000000057
 20
282.21403865566037
 30
0.0
 40
190.06250000000011
 50
262.2070756645777
 51
277.7929243354223
  0
ARC
  5
42
  8
0
 10
94.999999999999957
 20
-82.910961344340819
 30
0.0
 40
190.06250000000111
 50
82.207074667647376
 51
97.792924335422285
  0
ARC
  5
43
  8
0
 10
100.89999999999991
 20
31.45153865566034
 30
0.0
 40
1.5
 50
270.0
 51
360.0
  0
ARC
  5
44
  8
0
 10
89.099999999999937
 20
31.45153865566034
 30
0.0
 40
1.5
 50
179.99999999999989
 51
270.0
  0
ARC
  5
45
  8
0
 10
108.39999999999991
 20
46.287543059183193
 30
0.0
 40
6.0
 50
86.888017291250776
 51
179.99999999999989
  0
ARC
  5
46
  8
0
 10
81.59999999999998
 20
46.287543059183129
 30
0.0
 40
6.0
 50
360.0
 51
93.111982708748727
  0
ARC
  5
47
  8
0
 10
69.499999999999986
 20
53.372494928671081
 30
0.0
 40
2.0
 50
179.99999999999989
 51
275.74293663915932
  0
ARC
  5
48
  8
0
 10
69.5
 20
59.351992836385151
 30
0.0
 40
2.0
 50
95.834833739236387
 51
179.99999999999989
  0
ARC
  5
49
  8
0
 10
94.999999999999915
 20
-200.1817946776728
 30
0.0
 40
252.83333333333309
 50
93.111982708748997
 51
95.742936639158046
  0
LINE
  5
4A
  8
0
 10
100.89999999999991
 20
29.95153865566034
 30
0.0
 11
89.099999999999937
 21
29.95153865566034
 31
0.0
  0
LINE
  5
4B
  8
0
 10
99.999999999999943
 20
29.95153865566034
 30
0.0
 11
99.999999999999943
 21
29.651538655660332
 31
0.0
  0
LINE
  5
4C
  8
0
 10
89.999999999999943
 20
29.95153865566034
 30
0.0
 11
89.999999999999986
 21
29.651538655660332
 31
0.0
  0
LINE
  5
4D
  8
0
 10
102.40000000000001
 20
46.287543059183193
 30
0.0
 11
102.39999999999991
 21
31.451538655660329
 31
0.0
  0
LINE
  5
4E
  8
0
 10
87.599999999999966
 20
46.287543059183129
 30
0.0
 11
87.599999999999937
 21
31.45153865566034
 31
0.0
  0
ARC
  5
4F
  8
0
 10
94.999999999999915
 20
-200.1817946776728
 30
0.0
 40
252.83333333333309
 50
84.257063360841926
 51
86.888017291250975
  0
ARC
  5
50
  8
0
 10
94.999999999999915
 20
-190.18179467767271
 30
0.0
 40
252.83333333333309
 50
84.165166260762007
 51
95.834833739237965
  0
LINE
  5
51
  8
1
 10
94.999999999999986
 20
65.151538655660374
 30
0.0
 11
94.999999999999957
 21
27.151538655660332
 31
0.0
  0
LINE
  5
52
  8
1
 10
95.0
 20
109.6515386556603
 30
0.0
 11
95.0
 21
89.651538655660318
 31
0.0
  0
LINE
  5
53
  8
0
 10
122.4999999999999
 20
103.4147049130227
 30
0.0
 11
122.5
 21
95.888372398297932
 31
0.0
  0
LINE
  5
54
  8
0
 10
67.5
 20
95.888372398297932
 30
0.0
 11
67.5
 21
103.4147049130227
 31
0.0
  0
LINE
  5
55
  8
0
 10
99.999999999999943
 20
29.651538655660332
 30
0.0
 11
89.999999999999915
 21
29.651538655660332
 31
0.0
  0
LINE
  5
56
  8
0
 10
122.4999999999999
 20
59.351992836385143
 30
0.0
 11
122.4999999999999
 21
53.372494928671053
 31
0.0
  0
LINE
  5
57
  8
0
 10
67.499999999999986
 20
53.372494928671081
 30
0.0
 11
67.499999999999986
 21
59.351992836385151
 31
0.0
  0
ARC
  5
58
  8
0
 10
120.4999999999999
 20
59.351992836385151
 30
0.0
 40
2.0
 50
360.0
 51
84.165166260762248
  0
ARC
  5
59
  8
0
 10
120.4999999999999
 20
53.372494928671031
 30
0.0
 40
2.0
 50
264.25706336084261
 51
0.0000000000001895
  0
LINE
  5
5A
  8
2
 10
91.999999999999972
 20
30.110038655660428
 30
0.0
 11
91.999999999999986
 21
47.651538655660332
 31
0.0
  0
LINE
  5
5B
  8
2
 10
92.5414999999999
 20
30.651538655660332
 30
0.0
 11
92.541499999999914
 21
52.651538655660332
 31
0.0
  0
LINE
  5
5C
  8
2
 10
97.458500000000072
 20
30.651538655660332
 30
0.0
 11
97.458500000000086
 21
52.651538655660332
 31
0.0
  0
LINE
  5
5D
  8
2
 10
97.999999999999972
 20
30.110038655660428
 30
0.0
 11
97.999999999999986
 21
47.651538655660332
 31
0.0
  0
LINE
  5
5E
  8
2
 10
91.999999999999986
 20
47.651538655660332
 30
0.0
 11
97.999999999999986
 21
47.651538655660332
 31
0.0
  0
LINE
  5
5F
  8
2
 10
92.541499999999914
 20
52.651538655660332
 30
0.0
 11
97.458500000000086
 21
52.651538655660332
 31
0.0
  0
LINE
  5
60
  8
2
 10
92.541499999999928
 20
52.65153865566031
 30
0.0
 11
95.000000000000014
 21
54.128754487539638
 31
0.0
  0
LINE
  5
61
  8
2
 10
97.458500000000086
 20
52.65153865566036
 30
0.0
 11
95.000000000000014
 21
54.128754487539638
 31
0.0
  0
LINE
  5
62
  8
2
 10
97.999999999999986
 20
47.651538655660332
 30
0.0
 11
97.458500000000058
 21
48.58944416795871
 31
0.0
  0
LINE
  5
63
  8
2
 10
92.000000000000085
 20
47.651538655660332
 30
0.0
 11
92.541500000000013
 21
48.58944416795871
 31
0.0
  0
LINE
  5
64
  8
2
 10
91.541499999999871
 20
29.651538655660332
 30
0.0
 11
92.541499999999928
 21
30.65153865566036
 31
0.0
  0
LINE
  5
65
  8
2
 10
97.458500000000072
 20
30.651538655660332
 30
0.0
 11
98.458500000000114
 21
29.651538655660332
 31
0.0
  0
LINE
  5
66
  8
2
 10
92.5414999999999
 20
30.651538655660332
 30
0.0
 11
97.458500000000043
 21
30.651538655660332
 31
0.0
  0
ARC
  5
67
  8
0
 10
160.89999999999989
 20
31.45153865566034
 30
0.0
 40
1.5
 50
270.0
 51
360.0
  0
ARC
  5
68
  8
0
 10
149.09999999999991
 20
31.45153865566034
 30
0.0
 40
1.5
 50
179.99999999999989
 51
270.0
  0
LINE
  5
69
  8
0
 10
160.89999999999989
 20
29.95153865566034
 30
0.0
 11
149.09999999999991
 21
29.95153865566034
 31
0.0
  0
LINE
  5
6A
  8
0
 10
159.99999999999989
 20
29.95153865566034
 30
0.0
 11
159.99999999999989
 21
29.651538655660332
 31
0.0
  0
LINE
  5
6B
  8
0
 10
149.99999999999989
 20
29.95153865566034
 30
0.0
 11
149.99999999999989
 21
29.651538655660332
 31
0.0
  0
LINE
  5
6C
  8
0
 10
162.39999999999989
 20
53.66304325933509
 30
0.0
 11
162.39999999999989
 21
31.451538655660329
 31
0.0
  0
LINE
  5
6D
  8
0
 10
147.59999999999991
 20
53.663043259338707
 30
0.0
 11
147.59999999999991
 21
31.45153865566034
 31
0.0
  0
LINE
  5
6E
  8
1
 10
155.0
 20
65.151538655660374
 30
0.0
 11
154.99999999999989
 21
27.151538655660332
 31
0.0
  0
LINE
  5
6F
  8
0
 10
159.99999999999989
 20
29.651538655660332
 30
0.0
 11
149.99999999999989
 21
29.651538655660332
 31
0.0
  0
LINE
  5
70
  8
2
 10
151.99999999999989
 20
30.110038655660428
 30
0.0
 11
152.0
 21
47.651538655660332
 31
0.0
  0
LINE
  5
71
  8
2
 10
152.5414999999999
 20
30.651538655660332
 30
0.0
 11
152.5414999999999
 21
52.651538655660332
 31
0.0
  0
LINE
  5
72
  8
2
 10
157.45849999999999
 20
30.651538655660332
 30
0.0
 11
157.45849999999999
 21
52.651538655660332
 31
0.0
  0
LINE
  5
73
  8
2
 10
157.99999999999989
 20
30.110038655660428
 30
0.0
 11
158.0
 21
47.651538655660332
 31
0.0
  0
LINE
  5
74
  8
2
 10
151.54149999999979
 20
29.651538655660332
 30
0.0
 11
152.5414999999999
 21
30.65153865566036
 31
0.0
  0
LINE
  5
75
  8
2
 10
157.45849999999999
 20
30.651538655660332
 30
0.0
 11
158.4585000000001
 21
29.651538655660332
 31
0.0
  0
LINE
  5
76
  8
2
 10
152.5414999999999
 20
30.651538655660332
 30
0.0
 11
157.45849999999999
 21
30.651538655660332
 31
0.0
  0
LINE
  5
77
  8
2
 10
152.0
 20
47.651538655660332
 30
0.0
 11
158.0
 21
47.651538655660332
 31
0.0
  0
LINE
  5
78
  8
2
 10
152.5414999999999
 20
52.651538655660332
 30
0.0
 11
157.45849999999999
 21
52.651538655660332
 31
0.0
  0
LINE
  5
79
  8
2
 10
152.5414999999999
 20
52.65153865566031
 30
0.0
 11
155.0
 21
54.128754487539638
 31
0.0
  0
LINE
  5
7A
  8
2
 10
157.45849999999999
 20
52.65153865566036
 30
0.0
 11
155.0
 21
54.128754487539638
 31
0.0
  0
LINE
  5
7B
  8
2
 10
158.0
 20
47.651538655660332
 30
0.0
 11
157.45849999999999
 21
48.58944416795871
 31
0.0
  0
LINE
  5
7C
  8
2
 10
152.00000000000011
 20
47.651538655660332
 30
0.0
 11
152.54150000000001
 21
48.58944416795871
 31
0.0
  0
LINE
  5
7D
  8
0
 10
147.4999999999998
 20
60.651538655660367
 30
0.0
 11
147.49999999999989
 21
54.287543059183172
 31
0.0
  0
LINE
  5
7E
  8
0
 10
162.49999999999989
 20
60.651538655660367
 30
0.0
 11
162.5
 21
54.287543059183207
 31
0.0
  0
LINE
  5
7F
  8
0
 10
149.49999999999989
 20
62.651538655660381
 30
0.0
 11
160.49999999999989
 21
62.651538655660381
 31
0.0
  0
LINE
  5
80
  8
0
 10
151.49999999999989
 20
51.372494928671017
 30
0.0
 11
158.49999999999989
 21
51.372494928671017
 31
0.0
  0
LINE
  5
81
  8
0
 10
149.49999999999989
 20
59.151538655660367
 30
0.0
 11
149.49999999999989
 21
53.37249492867101
 31
0.0
  0
LINE
  5
82
  8
0
 10
160.49999999999989
 20
59.151538655660367
 30
0.0
 11
160.49999999999989
 21
53.37249492867101
 31
0.0
  0
LINE
  5
83
  8
0
 10
151.49999999999989
 20
61.151538655660367
 30
0.0
 11
158.49999999999989
 21
61.151538655660367
 31
0.0
  0
ARC
  5
84
  8
0
 10
151.49999999999989
 20
59.151538655660367
 30
0.0
 40
2.0
 50
90.0
 51
179.99999999999989
  0
ARC
  5
85
  8
0
 10
158.49999999999989
 20
59.151538655660367
 30
0.0
 40
2.0
 50
0.0
 51
90.0
  0
ARC
  5
86
  8
0
 10
158.49999999999989
 20
53.37249492867101
 30
0.0
 40
2.0
 50
270.0
 51
0.0
  0
ARC
  5
87
  8
0
 10
151.49999999999989
 20
53.37249492867101
 30
0.0
 40
2.0
 50
180.0
 51
269.99999999999977
  0
ARC
  5
88
  8
0
 10
149.49999999999989
 20
60.651538655660367
 30
0.0
 40
2.0
 50
90.0
 51
179.99999999999989
  0
ARC
  5
89
  8
0
 10
160.49999999999989
 20
60.651538655660367
 30
0.0
 40
2.0
 50
0.0000000000001018
 51
90.0
  0
ARC
  5
8A
  8
0
 10
160.5
 20
54.287543059183207
 30
0.0
 40
2.0
 50
294.58523487399287
 51
0.0000000000001272
  0
ARC
  5
8B
  8
0
 10
149.49999999999989
 20
54.287543059183172
 30
0.0
 40
2.0
 50
180.0
 51
245.41476512600951
  0
LINE
  5
8C
  8
0
 10
161.33209293647531
 20
52.468856350300172
 30
0.0
 11
159.33209293647531
 21
51.553808219787982
 31
0.0
  0
LINE
  5
8D
  8
0
 10
148.6679070635245
 20
52.46885635030015
 30
0.0
 11
150.6679070635245
 21
51.553808219787982
 31
0.0
  0
LINE
  5
8E
  8
0
 10
148.40986436764041
 20
61.822693770523252
 30
0.0
 11
149.76308558143299
 21
60.807777860178788
 31
0.0
  0
LINE
  5
8F
  8
0
 10
161.59013563235959
 20
61.822693770523252
 30
0.0
 11
160.23691441856701
 21
60.807777860178788
 31
0.0
  0
LINE
  5
99
  8
0
 10
28.409864367640349
 20
61.822693770523252
 30
0.0
 11
29.763085581432961
 21
60.807777860178788
 31
0.0
  0
LINE
  5
9A
  8
0
 10
41.590135632359527
 20
61.822693770523252
 30
0.0
 11
40.236914418566919
 21
60.807777860178788
 31
0.0
  0
LINE
  5
9B
  8
0
 10
41.332092936475412
 20
52.46885635030015
 30
0.0
 11
39.332092936475412
 21
51.553808219787982
 31
0.0
  0
LINE
  5
9C
  8
0
 10
28.667907063524581
 20
52.468856350300172
 30
0.0
 11
30.66790706352463
 21
51.553808219787982
 31
0.0
  0
ARC
  5
9D
  8
0
 10
40.500000000000057
 20
54.287543059183172
 30
0.0
 40
2.0
 50
294.58523487399037
 51
0.0000000000000254
  0
ARC
  5
9E
  8
0
 10
29.49999999999994
 20
54.287543059183207
 30
0.0
 40
2.0
 50
179.9999999999998
 51
245.41476512600701
  0
ARC
  5
9F
  8
0
 10
29.5
 20
60.651538655660367
 30
0.0
 40
2.0
 50
90.000000000000028
 51
179.99999999999989
  0
ARC
  5
A0
  8
0
 10
40.500000000000078
 20
60.651538655660367
 30
0.0
 40
2.0
 50
0.0000000000000763
 51
90.000000000000028
  0
ARC
  5
A1
  8
0
 10
38.50000000000005
 20
53.37249492867101
 30
0.0
 40
2.0
 50
270.00000000000023
 51
0.0000000000000254
  0
ARC
  5
A2
  8
0
 10
31.5
 20
53.37249492867101
 30
0.0
 40
2.0
 50
180.0
 51
270.0
  0
ARC
  5
A3
  8
0
 10
31.499999999999972
 20
59.151538655660367
 30
0.0
 40
2.0
 50
90.000000000000028
 51
180.0
  0
ARC
  5
A4
  8
0
 10
38.500000000000028
 20
59.151538655660367
 30
0.0
 40
2.0
 50
0.0000000000000763
 51
90.000000000000028
  0
LINE
  5
A5
  8
0
 10
38.500000000000028
 20
61.151538655660367
 30
0.0
 11
31.499999999999972
 21
61.151538655660367
 31
0.0
  0
LINE
  5
A6
  8
0
 10
29.499999999999972
 20
59.151538655660367
 30
0.0
 11
29.5
 21
53.37249492867101
 31
0.0
  0
LINE
  5
A7
  8
0
 10
40.500000000000028
 20
59.151538655660367
 30
0.0
 11
40.500000000000057
 21
53.37249492867101
 31
0.0
  0
LINE
  5
A8
  8
0
 10
38.50000000000005
 20
51.372494928671017
 30
0.0
 11
31.5
 21
51.372494928671017
 31
0.0
  0
LINE
  5
A9
  8
0
 10
40.500000000000078
 20
62.651538655660381
 30
0.0
 11
29.5
 21
62.651538655660381
 31
0.0
  0
LINE
  5
AA
  8
0
 10
27.5
 20
60.651538655660367
 30
0.0
 11
27.49999999999994
 21
54.287543059183207
 31
0.0
  0
LINE
  5
AB
  8
0
 10
42.500000000000078
 20
60.651538655660367
 30
0.0
 11
42.500000000000057
 21
54.287543059183172
 31
0.0
  0
LINE
  5
AC
  8
2
 10
37.999999999999858
 20
47.651538655660332
 30
0.0
 11
37.45849999999993
 21
48.58944416795871
 31
0.0
  0
LINE
  5
AD
  8
2
 10
31.999999999999972
 20
47.651538655660332
 30
0.0
 11
32.5414999999999
 21
48.58944416795871
 31
0.0
  0
LINE
  5
AE
  8
2
 10
32.5414999999999
 20
52.65153865566036
 30
0.0
 11
34.999999999999972
 21
54.128754487539638
 31
0.0
  0
LINE
  5
AF
  8
2
 10
37.458500000000043
 20
52.65153865566031
 30
0.0
 11
34.999999999999972
 21
54.128754487539638
 31
0.0
  0
LINE
  5
B0
  8
2
 10
37.458500000000043
 20
52.651538655660332
 30
0.0
 11
32.5414999999999
 21
52.651538655660332
 31
0.0
  0
LINE
  5
B1
  8
2
 10
37.999999999999972
 20
47.651538655660332
 30
0.0
 11
31.999999999999972
 21
47.651538655660332
 31
0.0
  0
LINE
  5
B2
  8
2
 10
37.458500000000072
 20
30.651538655660332
 30
0.0
 11
32.541499999999921
 21
30.651538655660332
 31
0.0
  0
LINE
  5
B3
  8
2
 10
32.5414999999999
 20
30.651538655660332
 30
0.0
 11
31.541499999999871
 21
29.651538655660332
 31
0.0
  0
LINE
  5
B4
  8
2
 10
38.4585000000001
 20
29.651538655660332
 30
0.0
 11
37.458500000000043
 21
30.65153865566036
 31
0.0
  0
LINE
  5
B5
  8
2
 10
32.0
 20
30.110038655660428
 30
0.0
 11
31.999999999999972
 21
47.651538655660332
 31
0.0
  0
LINE
  5
B6
  8
2
 10
32.5414999999999
 20
30.651538655660332
 30
0.0
 11
32.5414999999999
 21
52.651538655660332
 31
0.0
  0
LINE
  5
B7
  8
2
 10
37.458500000000072
 20
30.651538655660332
 30
0.0
 11
37.458500000000043
 21
52.651538655660332
 31
0.0
  0
LINE
  5
B8
  8
2
 10
38.0
 20
30.110038655660428
 30
0.0
 11
37.999999999999972
 21
47.651538655660332
 31
0.0
  0
LINE
  5
B9
  8
0
 10
30.000000000000028
 20
29.651538655660332
 30
0.0
 11
40.000000000000057
 21
29.651538655660332
 31
0.0
  0
LINE
  5
BA
  8
1
 10
34.999999999999972
 20
65.151538655660374
 30
0.0
 11
35.0
 21
27.151538655660332
 31
0.0
  0
LINE
  5
BB
  8
0
 10
42.400000000000013
 20
53.663043259338707
 30
0.0
 11
42.400000000000027
 21
31.45153865566034
 31
0.0
  0
LINE
  5
BC
  8
0
 10
27.599999999999991
 20
53.66304325933509
 30
0.0
 11
27.600000000000019
 21
31.451538655660329
 31
0.0
  0
LINE
  5
BD
  8
0
 10
40.000000000000021
 20
29.95153865566034
 30
0.0
 11
40.0
 21
29.651538655660332
 31
0.0
  0
LINE
  5
BE
  8
0
 10
30.000000000000028
 20
29.95153865566034
 30
0.0
 11
30.000000000000028
 21
29.651538655660332
 31
0.0
  0
LINE
  5
BF
  8
0
 10
29.100000000000019
 20
29.95153865566034
 30
0.0
 11
40.900000000000027
 21
29.95153865566034
 31
0.0
  0
ARC
  5
C0
  8
0
 10
40.900000000000027
 20
31.45153865566034
 30
0.0
 40
1.5
 50
270.0
 51
0.0000000000000509
  0
ARC
  5
C1
  8
0
 10
29.100000000000019
 20
31.45153865566034
 30
0.0
 40
1.5
 50
180.0
 51
270.0
  0
ENDSEC
  0
EOF
