  0
SECTION
  2
HEADER
  9
$ACADVER
  1
AC1009
  9
$INSBASE
 10
0.0
 20
0.0
 30
0.0
  9
$EXTMIN
 10
84.760666865343978
 20
31.446991632048711
 30
-0.0015258207003583
  9
$EXTMAX
 10
188.7874609834833
 20
176.23992971871041
 30
0.0000000349246037
  9
$LIMMIN
 10
0.0
 20
0.0
  9
$LIMMAX
 10
375.0
 20
270.0
  9
$ORTHOMODE
 70
     1
  9
$REGENMODE
 70
     1
  9
$FILLMODE
 70
     1
  9
$QTEXTMODE
 70
     0
  9
$MIRRTEXT
 70
     0
  9
$DRAGMODE
 70
     2
  9
$LTSCALE
 40
10.0
  9
$OSMODE
 70
   231
  9
$ATTMODE
 70
     1
  9
$TEXTSIZE
 40
4.000000000000048
  9
$TRACEWID
 40
0.05
  9
$TEXTSTYLE
  7
STANDARD
  9
$CLAYER
  8
0
  9
$CELTYPE
  6
BYLAYER
  9
$CECOLOR
 62
   256
  9
$DIMSCALE
 40
1.0
  9
$DIMASZ
 40
3.0
  9
$DIMEXO
 40
2.0
  9
$DIMDLI
 40
0.38
  9
$DIMRND
 40
0.0
  9
$DIMDLE
 40
0.0
  9
$DIMEXE
 40
2.0
  9
$DIMTP
 40
0.0
  9
$DIMTM
 40
0.0
  9
$DIMTXT
 40
3.2000000000000002
  9
$DIMCEN
 40
0.0
  9
$DIMTSZ
 40
0.0
  9
$DIMTOL
 70
     0
  9
$DIMLIM
 70
     0
  9
$DIMTIH
 70
     0
  9
$DIMTOH
 70
     0
  9
$DIMSE1
 70
     0
  9
$DIMSE2
 70
     0
  9
$DIMTAD
 70
     1
  9
$DIMZIN
 70
     0
  9
$DIMBLK
  1

  9
$DIMASO
 70
     1
  9
$DIMSHO
 70
     0
  9
$DIMPOST
  1

  9
$DIMAPOST
  1

  9
$DIMALT
 70
     0
  9
$DIMALTD
 70
     2
  9
$DIMALTF
 40
25.399999999999999
  9
$DIMLFAC
 40
1.0
  9
$DIMTOFL
 70
     1
  9
$DIMTVP
 40
1.6000000000000001
  9
$DIMTIX
 70
     1
  9
$DIMSOXD
 70
     0
  9
$DIMSAH
 70
     0
  9
$DIMBLK1
  1

  9
$DIMBLK2
  1

  9
$DIMSTYLE
  2
STANDARD
  9
$DIMCLRD
 70
     0
  9
$DIMCLRE
 70
     0
  9
$DIMCLRT
 70
     0
  9
$DIMTFAC
 40
1.0
  9
$DIMGAP
 40
0.09
  9
$LUNITS
 70
     2
  9
$LUPREC
 70
     4
  9
$SKETCHINC
 40
0.1
  9
$FILLETRAD
 40
3.0
  9
$AUNITS
 70
     0
  9
$AUPREC
 70
     4
  9
$MENU
  1
E:\r13\win\SUPPORT\ACAD
  9
$ELEVATION
 40
0.0
  9
$PELEVATION
 40
0.0
  9
$THICKNESS
 40
0.0
  9
$LIMCHECK
 70
     0
  9
$BLIPMODE
 70
     1
  9
$CHAMFERA
 40
0.0
  9
$CHAMFERB
 40
0.0
  9
$SKPOLY
 70
     0
  9
$TDCREATE
 40
2449839.7852314808
  9
$TDUPDATE
 40
2453236.8320048382
  9
$TDINDWG
 40
0.0091208681
  9
$TDUSRTIMER
 40
0.0091208681
  9
$USRTIMER
 70
     1
  9
$ANGBASE
 50
0.0
  9
$ANGDIR
 70
     0
  9
$PDMODE
 70
     0
  9
$PDSIZE
 40
0.0
  9
$PLINEWID
 40
0.0
  9
$COORDS
 70
     0
  9
$SPLFRAME
 70
     0
  9
$SPLINETYPE
 70
     6
  9
$SPLINESEGS
 70
     8
  9
$ATTDIA
 70
     0
  9
$ATTREQ
 70
     1
  9
$HANDLING
 70
-16383
  9
$HANDSEED
  5
4CC
  9
$SURFTAB1
 70
     6
  9
$SURFTAB2
 70
     6
  9
$SURFTYPE
 70
     6
  9
$SURFU
 70
     6
  9
$SURFV
 70
     6
  9
$UCSNAME
  2

  9
$UCSORG
 10
0.0
 20
0.0
 30
0.0
  9
$UCSXDIR
 10
1.0
 20
0.0
 30
0.0
  9
$UCSYDIR
 10
0.0
 20
1.0
 30
0.0
  9
$PUCSNAME
  2

  9
$PUCSORG
 10
0.0
 20
0.0
 30
0.0
  9
$PUCSXDIR
 10
1.0
 20
0.0
 30
0.0
  9
$PUCSYDIR
 10
0.0
 20
1.0
 30
0.0
  9
$USERI1
 70
     0
  9
$USERI2
 70
     1
  9
$USERI3
 70
     1
  9
$USERI4
 70
     0
  9
$USERI5
 70
     0
  9
$USERR1
 40
0.0
  9
$USERR2
 40
0.0
  9
$USERR3
 40
0.0
  9
$USERR4
 40
0.0
  9
$USERR5
 40
0.0
  9
$WORLDVIEW
 70
     1
  9
$SHADEDGE
 70
     3
  9
$SHADEDIF
 70
    70
  9
$TILEMODE
 70
     1
  9
$MAXACTVP
 70
    16
  9
$PLIMCHECK
 70
     0
  9
$PEXTMIN
 10
1.0000000000000000E+020
 20
1.0000000000000000E+020
 30
1.0000000000000000E+020
  9
$PEXTMAX
 10
-1.0000000000000000E+020
 20
-1.0000000000000000E+020
 30
-1.0000000000000000E+020
  9
$PLIMMIN
 10
0.0
 20
0.0
  9
$PLIMMAX
 10
12.0
 20
9.0
  9
$UNITMODE
 70
     0
  9
$VISRETAIN
 70
     0
  9
$PLINEGEN
 70
     0
  9
$PSLTSCALE
 70
     0
  0
ENDSEC
  0
SECTION
  2
TABLES
  0
TABLE
  2
VPORT
 70
     3
  0
VPORT
  2
*ACTIVE
 70
     0
 10
0.0
 20
0.0
 11
1.0
 21
1.0
 12
136.77406392441361
 22
103.8434606753795
 13
0.0
 23
0.0
 14
10.0
 24
10.0
 15
10.0
 25
10.0
 16
0.0
 26
0.0
 36
1.0
 17
0.0
 27
0.0
 37
0.0
 40
162.15115581050119
 41
0.9407114624505929
 42
50.0
 43
0.0
 44
0.0
 50
0.0
 51
0.0
 71
     0
 72
   500
 73
     1
 74
     0
 75
     0
 76
     0
 77
     0
 78
     2
  0
ENDTAB
  0
TABLE
  2
LTYPE
 70
     2
  0
LTYPE
  2
CONTINUOUS
 70
     0
  3
Solid Line
 72
    65
 73
     0
 40
0.0
  0
LTYPE
  2
CENTER
 70
     0
  3
____ _ ____ _ ____ _ ____ _ ____ _ ____ _ ____
 72
    65
 73
     4
 40
2.0
 49
1.25
 49
-0.25
 49
0.25
 49
-0.25
  0
ENDTAB
  0
TABLE
  2
LAYER
 70
     3
  0
LAYER
  2
0
 70
     0
 62
     7
  6
CONTINUOUS
  0
LAYER
  2
1
 70
     0
 62
     1
  6
CENTER
  0
LAYER
  2
3
 70
     0
 62
     3
  6
CONTINUOUS
  0
ENDTAB
  0
TABLE
  2
STYLE
 70
     1
  0
STYLE
  2
STANDARD
 70
     0
 40
0.0
 41
1.0
 50
0.0
 71
     0
 42
4.000000000000048
  3
TXT
  4
BIGFONT
  0
ENDTAB
  0
TABLE
  2
VIEW
 70
     1
  0
VIEW
  2
ALL
 70
     0
 40
270.0
 10
220.99159663865541
 20
135.0
 41
0.0
 11
0.0
 21
0.0
 31
1.0
 12
0.0
 22
0.0
 32
0.0
 42
0.0
 43
0.0
 44
0.0
 50
0.0
 71
     0
  0
ENDTAB
  0
TABLE
  2
UCS
 70
     0
  0
ENDTAB
  0
TABLE
  2
APPID
 70
     6
  0
APPID
  2
ACAD
 70
     0
  0
APPID
  2
GENIUS_GENODEF_13
 70
     0
  0
APPID
  2
GENIUS_GENOBJ-N-FIL_13
 70
     0
  0
APPID
  2
GENIUS_GENFIL_13
 70
     0
  0
APPID
  2
GENIUS_GENOBJ-N-CHA_13
 70
     0
  0
APPID
  2
GENIUS_GENOREF_13
 70
     0
  0
ENDTAB
  0
TABLE
  2
DIMSTYLE
 70
     1
  0
DIMSTYLE
  2
STANDARD
 70
     0
  3

  4

  5

  6

  7

 40
1.0
 41
0.18
 42
0.0625
 43
0.38
 44
0.18
 45
0.0
 46
0.0
 47
0.0
 48
0.0
140
0.18
141
0.09
142
0.0
143
25.399999999999999
144
1.0
145
0.0
146
1.0
147
0.09
 71
     0
 72
     0
 73
     1
 74
     1
 75
     0
 76
     0
 77
     0
 78
     0
170
     0
171
     2
172
     0
173
     0
174
     0
175
     0
176
     0
177
     0
178
     0
  0
ENDTAB
  0
ENDSEC
  0
SECTION
  2
BLOCKS
  0
BLOCK
  8
0
  2
$MODEL_SPACE
 70
     0
 10
0.0
 20
0.0
 30
0.0
  3
$MODEL_SPACE
  1

  0
ENDBLK
  5
474
  8
0
  0
BLOCK
 67
     1
  8
0
  2
$PAPER_SPACE
 70
     0
 10
0.0
 20
0.0
 30
0.0
  3
$PAPER_SPACE
  1

  0
ENDBLK
  5
472
 67
     1
  8
0
  0
ENDSEC
  0
SECTION
  2
ENTITIES
  0
LINE
  5
3B9
  8
1
 10
84.765961296560761
 20
160.73747449020621
 30
0.0
 11
188.7659612965607
 21
160.73747449020621
 31
0.0
  0
ARC
  5
3BA
  8
0
 10
136.76550004320501
 20
-186.99871933794219
 30
0.0
 40
358.23619382844549
 50
89.999926227804394
 51
96.901483484738975
  0
ARC
  5
3BB
  8
0
 10
136.76550004320549
 20
508.4736683183549
 30
0.0
 40
358.23619382844549
 50
263.09851651526088
 51
270.00007377219549
  0
ARC
  5
3BC
  8
0
 10
136.76551826059409
 20
-252.75390065292231
 30
0.0
 40
365.4038139508915
 50
89.999930531412346
 51
96.763755290784658
  0
LINE
  5
3BD
  8
0
 10
116.1453093725368
 20
97.199032958485603
 30
0.0
 11
94.678607133684466
 21
95.268271003652998
 31
0.0
  0
ARC
  5
3BE
  8
0
 10
94.265961296560761
 20
105.6388360589785
 30
0.0
 40
4.5
 50
96.843003145114594
 51
180.0
1001
GENIUS_GENODEF_13
1002
{
1000
HIER
1070
     0
1002
}
1002
{
1000
MANEDIT
1070
     0
1002
}
1002
{
1000
NOSEL
1070
     0
1002
}
1002
{
1000
BEHIND
1070
     0
1002
}
1002
{
1000
REACTOR
1002
}
1001
GENIUS_GENOBJ-N-FIL_13
1002
{
1000
OWNER
1000
GEN
1002
}
  0
ARC
  5
3BF
  8
0
 10
94.265961296560803
 20
99.749311442335113
 30
0.0
 40
4.5
 50
180.0
 51
275.26136117402319
1001
GENIUS_GENODEF_13
1002
{
1000
HIER
1070
     0
1002
}
1002
{
1000
MANEDIT
1070
     0
1002
}
1002
{
1000
NOSEL
1070
     0
1002
}
1002
{
1000
BEHIND
1070
     0
1002
}
1002
{
1000
REACTOR
1002
}
1001
GENIUS_GENOBJ-N-FIL_13
1002
{
1000
OWNER
1000
GEN
1002
}
  0
LINE
  5
3C0
  8
0
 10
89.765961296560818
 20
99.749311442335113
 30
0.0
 11
89.765961296560818
 21
105.6388360589785
 31
0.0
  0
LINE
  5
3C1
  8
0
 10
89.765961296560704
 20
160.73747449020621
 30
0.0
 11
89.765961296560704
 21
157.29979793657941
 31
0.0
  0
ARC
  5
3C2
  8
0
 10
94.265961296560761
 20
157.29979793657941
 30
0.0
 40
4.5
 50
180.0
 51
263.01768641995892
1001
GENIUS_GENODEF_13
1002
{
1000
HIER
1070
     0
1002
}
1002
{
1000
MANEDIT
1070
     0
1002
}
1002
{
1000
NOSEL
1070
     0
1002
}
1002
{
1000
BEHIND
1070
     0
1002
}
1002
{
1000
REACTOR
1002
}
1001
GENIUS_GENOBJ-N-FIL_13
1002
{
1000
OWNER
1000
GEN
1002
}
  0
ARC
  5
3C3
  8
0
 10
94.265961296560761
 20
164.1751510438331
 30
0.0
 40
4.5
 50
96.982313580041108
 51
180.0
1001
GENIUS_GENODEF_13
1002
{
1000
HIER
1070
     0
1002
}
1002
{
1000
MANEDIT
1070
     0
1002
}
1002
{
1000
NOSEL
1070
     0
1002
}
1002
{
1000
BEHIND
1070
     0
1002
}
1002
{
1000
REACTOR
1002
}
1001
GENIUS_GENOBJ-N-FIL_13
1002
{
1000
OWNER
1000
GEN
1002
}
  0
LINE
  5
3C4
  8
0
 10
89.765961296560704
 20
160.73747449020621
 30
0.0
 11
89.765961296560704
 21
164.1751510438331
 31
0.0
  0
ARC
  5
3C5
  8
0
 10
136.7664043325272
 20
-252.75390065292231
 30
0.0
 40
365.4038139508915
 50
83.236244709215356
 51
90.000069468587654
  0
LINE
  5
3C6
  8
0
 10
157.38661322058459
 20
97.199032958485603
 30
0.0
 11
178.85331545943691
 21
95.268271003652998
 31
0.0
  0
LINE
  5
3C7
  8
1
 10
136.7659612965607
 20
31.450014277700369
 30
0.0
 11
136.7659612965607
 21
117.6499132977043
 31
0.0
  0
LINE
  5
3C8
  8
0
 10
126.242738136293
 20
67.749861972857332
 30
0.0
 11
125.8762513200477
 21
88.195877650758746
 31
0.0
  0
LINE
  5
3C9
  8
0
 10
147.28918445682831
 20
67.749861972857332
 30
0.0
 11
147.65567127307361
 21
88.195877650758746
 31
0.0
  0
LINE
  5
3CA
  8
0
 10
136.7659612965607
 20
64.450014277700404
 30
0.0
 11
130.76596129656059
 21
64.450014277700404
 31
0.0
1001
GENIUS_GENOREF_13
1005
0
  0
LINE
  5
3CB
  8
0
 10
141.0159612965607
 20
36.450014277700397
 30
0.0
 11
132.5159612965607
 21
36.450014277700397
 31
0.0
1001
GENIUS_GENOREF_13
1005
0
1005
0
  0
LINE
  5
3CC
  8
0
 10
142.7659612965607
 20
38.200014277700397
 30
0.0
 11
130.7659612965607
 21
38.200014277700397
 31
0.0
  0
LINE
  5
3CD
  8
0
 10
136.7659612965607
 20
66.450014277700404
 30
0.0
 11
129.7659612965607
 21
66.450014277700404
 31
0.0
1001
GENIUS_GENOREF_13
1005
0
  0
LINE
  5
3CE
  8
0
 10
136.7659612965607
 20
66.750014277700416
 30
0.0
 11
127.2601905426996
 21
66.750014277700416
 31
0.0
  0
LINE
  5
3CF
  8
0
 10
126.242738136293
 20
67.749861972857332
 30
0.0
 11
136.7659612965607
 21
67.749861972857332
 31
0.0
  0
LINE
  5
3D0
  8
3
 10
131.83946129656059
 20
37.12651427770043
 30
0.0
 11
131.8394612965607
 21
64.450014277700333
 31
0.0
1001
GENIUS_GENOREF_13
1005
0
1005
0
  0
LINE
  5
3D1
  8
0
 10
130.7659612965607
 20
66.450014277700404
 30
0.0
 11
130.7659612965607
 21
38.200014277700397
 31
0.0
1001
GENIUS_GENOREF_13
1005
0
1005
0
  0
LINE
  5
3D2
  8
0
 10
130.7659612965607
 20
38.200014277700397
 30
0.0
 11
132.5159612965607
 21
36.450014277700397
 31
0.0
  0
LINE
  5
3D3
  8
0
 10
127.2601905426996
 20
66.750014277700416
 30
0.0
 11
126.242738136293
 21
67.749861972857332
 31
0.0
1001
GENIUS_GENFIL_13
1070
     0
1040
1.0
1040
1.0
1040
20.0
1040
0.0
1002
{
1002
}
1001
GENIUS_GENODEF_13
1002
{
1000
HIER
1070
     0
1002
}
1002
{
1000
MANEDIT
1070
     0
1002
}
1002
{
1000
NOSEL
1070
     0
1002
}
1002
{
1000
BEHIND
1070
     0
1002
}
1002
{
1000
REACTOR
1002
}
1001
GENIUS_GENOBJ-N-CHA_13
1002
{
1000
OWNER
1000
GEN
1002
}
  0
LINE
  5
3D4
  8
3
 10
131.8394612965607
 20
64.450014277700404
 30
0.0
 11
130.7659612965607
 21
65.523514277700485
 31
0.0
  0
LINE
  5
3D5
  8
0
 10
129.7659612965607
 20
66.450014277700404
 30
0.0
 11
129.7659612965607
 21
66.750014277700416
 31
0.0
  0
LINE
  5
3D6
  8
3
 10
141.69246129656059
 20
37.12651427770043
 30
0.0
 11
141.69246129656071
 21
64.450014277700404
 31
0.0
1001
GENIUS_GENOREF_13
1005
0
1005
0
  0
LINE
  5
3D7
  8
0
 10
142.7659612965607
 20
66.450014277700404
 30
0.0
 11
142.7659612965607
 21
38.200014277700397
 31
0.0
1001
GENIUS_GENOREF_13
1005
0
1005
0
  0
LINE
  5
3D8
  8
0
 10
142.7659612965607
 20
38.200014277700397
 30
0.0
 11
141.0159612965607
 21
36.450014277700397
 31
0.0
  0
LINE
  5
3D9
  8
0
 10
136.7659612965607
 20
66.450014277700404
 30
0.0
 11
143.7659612965607
 21
66.450014277700404
 31
0.0
1001
GENIUS_GENOREF_13
1005
0
  0
LINE
  5
3DA
  8
0
 10
147.28918445682831
 20
67.749861972857332
 30
0.0
 11
136.7659612965607
 21
67.749861972857332
 31
0.0
  0
LINE
  5
3DB
  8
0
 10
136.7659612965607
 20
66.750014277700416
 30
0.0
 11
146.2717320504218
 21
66.750014277700416
 31
0.0
  0
LINE
  5
3DC
  8
0
 10
136.7659612965607
 20
64.450014277700404
 30
0.0
 11
142.7659612965607
 21
64.450014277700404
 31
0.0
1001
GENIUS_GENOREF_13
1005
0
  0
LINE
  5
3DD
  8
3
 10
141.69246129656059
 20
64.450014277700404
 30
0.0
 11
142.7659612965607
 21
65.523514277700485
 31
0.0
  0
LINE
  5
3DE
  8
0
 10
143.7659612965607
 20
66.450014277700404
 30
0.0
 11
143.7659612965607
 21
66.750014277700416
 31
0.0
  0
LINE
  5
3DF
  8
0
 10
146.2717320504218
 20
66.750014277700416
 30
0.0
 11
147.28918445682831
 21
67.749861972857332
 31
0.0
1001
GENIUS_GENFIL_13
1070
     0
1040
1.0
1040
1.0
1040
20.0
1040
0.0
1002
{
1002
}
1001
GENIUS_GENODEF_13
1002
{
1000
HIER
1070
     0
1002
}
1002
{
1000
MANEDIT
1070
     0
1002
}
1002
{
1000
NOSEL
1070
     0
1002
}
1002
{
1000
BEHIND
1070
     0
1002
}
1002
{
1000
REACTOR
1002
}
1001
GENIUS_GENOBJ-N-CHA_13
1002
{
1000
OWNER
1000
GEN
1002
}
  0
ARC
  5
3E0
  8
0
 10
116.6976494785071
 20
88.035664559946966
 30
0.0
 40
9.1799999999999997
 50
0.9999999982367471
 51
93.449442537017475
1001
GENIUS_GENODEF_13
1002
{
1000
HIER
1070
     0
1002
}
1002
{
1000
MANEDIT
1070
     0
1002
}
1002
{
1000
NOSEL
1070
     0
1002
}
1002
{
1000
BEHIND
1070
     0
1002
}
1002
{
1000
REACTOR
1002
}
1001
GENIUS_GENOBJ-N-FIL_13
1002
{
1000
OWNER
1000
GEN
1002
}
  0
ARC
  5
3E1
  8
0
 10
156.83427311461421
 20
88.035664559946966
 30
0.0
 40
9.1799999999999997
 50
86.550557462982525
 51
179.0000000017632
1001
GENIUS_GENODEF_13
1002
{
1000
HIER
1070
     0
1002
}
1002
{
1000
MANEDIT
1070
     0
1002
}
1002
{
1000
NOSEL
1070
     0
1002
}
1002
{
1000
BEHIND
1070
     0
1002
}
1002
{
1000
REACTOR
1002
}
1001
GENIUS_GENOBJ-N-FIL_13
1002
{
1000
OWNER
1000
GEN
1002
}
  0
ARC
  5
3E2
  8
0
 10
179.26596129656059
 20
105.6388360589785
 30
0.0
 40
4.5
 50
0.0
 51
83.156996854885392
1001
GENIUS_GENODEF_13
1002
{
1000
HIER
1070
     0
1002
}
1002
{
1000
MANEDIT
1070
     0
1002
}
1002
{
1000
NOSEL
1070
     0
1002
}
1002
{
1000
BEHIND
1070
     0
1002
}
1002
{
1000
REACTOR
1002
}
1001
GENIUS_GENOBJ-N-FIL_13
1002
{
1000
OWNER
1000
GEN
1002
}
  0
ARC
  5
3E3
  8
0
 10
179.2659612965605
 20
99.749311442335113
 30
0.0
 40
4.5
 50
264.73863882597669
 51
0.0
1001
GENIUS_GENODEF_13
1002
{
1000
HIER
1070
     0
1002
}
1002
{
1000
MANEDIT
1070
     0
1002
}
1002
{
1000
NOSEL
1070
     0
1002
}
1002
{
1000
BEHIND
1070
     0
1002
}
1002
{
1000
REACTOR
1002
}
1001
GENIUS_GENOBJ-N-FIL_13
1002
{
1000
OWNER
1000
GEN
1002
}
  0
LINE
  5
3E4
  8
0
 10
183.7659612965605
 20
99.749311442335113
 30
0.0
 11
183.7659612965605
 21
105.6388360589785
 31
0.0
  0
ARC
  5
3E5
  8
0
 10
136.7664225499158
 20
-186.9987193379427
 30
0.0
 40
358.23619382844589
 50
83.098516515260954
 51
90.000073772195535
  0
ARC
  5
3E6
  8
0
 10
136.7664225499162
 20
508.4736683183549
 30
0.0
 40
358.23619382844549
 50
269.99992622780439
 51
276.901483484739
  0
LINE
  5
3E7
  8
1
 10
136.7659612965607
 20
145.2374744902022
 30
0.0
 11
136.7659612965607
 21
176.2374744902103
 31
0.0
  0
LINE
  5
3E8
  8
0
 10
183.7659612965607
 20
160.73747449020621
 30
0.0
 11
183.7659612965607
 21
157.29979793657941
 31
0.0
  0
ARC
  5
3E9
  8
0
 10
179.26596129656059
 20
157.29979793657941
 30
0.0
 40
4.5
 50
276.98231358004108
 51
0.0
1001
GENIUS_GENODEF_13
1002
{
1000
HIER
1070
     0
1002
}
1002
{
1000
MANEDIT
1070
     0
1002
}
1002
{
1000
NOSEL
1070
     0
1002
}
1002
{
1000
BEHIND
1070
     0
1002
}
1002
{
1000
REACTOR
1002
}
1001
GENIUS_GENOBJ-N-FIL_13
1002
{
1000
OWNER
1000
GEN
1002
}
  0
ARC
  5
3EA
  8
0
 10
179.26596129656059
 20
164.1751510438331
 30
0.0
 40
4.5
 50
0.0
 51
83.017686419958906
1001
GENIUS_GENODEF_13
1002
{
1000
HIER
1070
     0
1002
}
1002
{
1000
MANEDIT
1070
     0
1002
}
1002
{
1000
NOSEL
1070
     0
1002
}
1002
{
1000
BEHIND
1070
     0
1002
}
1002
{
1000
REACTOR
1002
}
1001
GENIUS_GENOBJ-N-FIL_13
1002
{
1000
OWNER
1000
GEN
1002
}
  0
LINE
  5
3EB
  8
0
 10
183.7659612965607
 20
160.73747449020621
 30
0.0
 11
183.7659612965607
 21
164.1751510438331
 31
0.0
  0
ENDSEC
  0
EOF
