  0
SECTION
  2
HEADER
  9
$ACADVER
  1
AC1009
  9
$INSBASE
 10
0.0
 20
0.0
 30
0.0
  9
$EXTMIN
 10
86.534501095924597
 20
34.82528753441909
 30
-0.0015258207003583
  9
$EXTMAX
 10
176.5422827465718
 20
172.36724905013949
 30
0.0000000349246037
  9
$LIMMIN
 10
0.0
 20
0.0
  9
$LIMMAX
 10
375.0
 20
270.0
  9
$ORTHOMODE
 70
     1
  9
$REGENMODE
 70
     1
  9
$FILLMODE
 70
     1
  9
$QTEXTMODE
 70
     0
  9
$MIRRTEXT
 70
     0
  9
$DRAGMODE
 70
     2
  9
$LTSCALE
 40
10.0
  9
$OSMODE
 70
   231
  9
$ATTMODE
 70
     1
  9
$TEXTSIZE
 40
4.000000000000048
  9
$TRACEWID
 40
0.05
  9
$TEXTSTYLE
  7
STANDARD
  9
$CLAYER
  8
0
  9
$CELTYPE
  6
BYLAYER
  9
$CECOLOR
 62
   256
  9
$DIMSCALE
 40
1.0
  9
$DIMASZ
 40
3.0
  9
$DIMEXO
 40
2.0
  9
$DIMDLI
 40
0.38
  9
$DIMRND
 40
0.0
  9
$DIMDLE
 40
0.0
  9
$DIMEXE
 40
2.0
  9
$DIMTP
 40
0.0
  9
$DIMTM
 40
0.0
  9
$DIMTXT
 40
3.2000000000000002
  9
$DIMCEN
 40
0.0
  9
$DIMTSZ
 40
0.0
  9
$DIMTOL
 70
     0
  9
$DIMLIM
 70
     0
  9
$DIMTIH
 70
     0
  9
$DIMTOH
 70
     0
  9
$DIMSE1
 70
     0
  9
$DIMSE2
 70
     0
  9
$DIMTAD
 70
     1
  9
$DIMZIN
 70
     0
  9
$DIMBLK
  1

  9
$DIMASO
 70
     1
  9
$DIMSHO
 70
     0
  9
$DIMPOST
  1

  9
$DIMAPOST
  1

  9
$DIMALT
 70
     0
  9
$DIMALTD
 70
     2
  9
$DIMALTF
 40
25.399999999999999
  9
$DIMLFAC
 40
1.0
  9
$DIMTOFL
 70
     1
  9
$DIMTVP
 40
1.6000000000000001
  9
$DIMTIX
 70
     1
  9
$DIMSOXD
 70
     0
  9
$DIMSAH
 70
     0
  9
$DIMBLK1
  1

  9
$DIMBLK2
  1

  9
$DIMSTYLE
  2
STANDARD
  9
$DIMCLRD
 70
     0
  9
$DIMCLRE
 70
     0
  9
$DIMCLRT
 70
     0
  9
$DIMTFAC
 40
1.0
  9
$DIMGAP
 40
0.09
  9
$LUNITS
 70
     2
  9
$LUPREC
 70
     4
  9
$SKETCHINC
 40
0.1
  9
$FILLETRAD
 40
3.0
  9
$AUNITS
 70
     0
  9
$AUPREC
 70
     4
  9
$MENU
  1
E:\r13\win\SUPPORT\ACAD
  9
$ELEVATION
 40
0.0
  9
$PELEVATION
 40
0.0
  9
$THICKNESS
 40
0.0
  9
$LIMCHECK
 70
     0
  9
$BLIPMODE
 70
     1
  9
$CHAMFERA
 40
0.0
  9
$CHAMFERB
 40
0.0
  9
$SKPOLY
 70
     0
  9
$TDCREATE
 40
2449839.7852314808
  9
$TDUPDATE
 40
2453236.8319415511
  9
$TDINDWG
 40
0.0072342708
  9
$TDUSRTIMER
 40
0.0072342708
  9
$USRTIMER
 70
     1
  9
$ANGBASE
 50
0.0
  9
$ANGDIR
 70
     0
  9
$PDMODE
 70
     0
  9
$PDSIZE
 40
0.0
  9
$PLINEWID
 40
0.0
  9
$COORDS
 70
     0
  9
$SPLFRAME
 70
     0
  9
$SPLINETYPE
 70
     6
  9
$SPLINESEGS
 70
     8
  9
$ATTDIA
 70
     0
  9
$ATTREQ
 70
     1
  9
$HANDLING
 70
-16383
  9
$HANDSEED
  5
409
  9
$SURFTAB1
 70
     6
  9
$SURFTAB2
 70
     6
  9
$SURFTYPE
 70
     6
  9
$SURFU
 70
     6
  9
$SURFV
 70
     6
  9
$UCSNAME
  2

  9
$UCSORG
 10
0.0
 20
0.0
 30
0.0
  9
$UCSXDIR
 10
1.0
 20
0.0
 30
0.0
  9
$UCSYDIR
 10
0.0
 20
1.0
 30
0.0
  9
$PUCSNAME
  2

  9
$PUCSORG
 10
0.0
 20
0.0
 30
0.0
  9
$PUCSXDIR
 10
1.0
 20
0.0
 30
0.0
  9
$PUCSYDIR
 10
0.0
 20
1.0
 30
0.0
  9
$USERI1
 70
     0
  9
$USERI2
 70
     1
  9
$USERI3
 70
     1
  9
$USERI4
 70
     0
  9
$USERI5
 70
     0
  9
$USERR1
 40
0.0
  9
$USERR2
 40
0.0
  9
$USERR3
 40
0.0
  9
$USERR4
 40
0.0
  9
$USERR5
 40
0.0
  9
$WORLDVIEW
 70
     1
  9
$SHADEDGE
 70
     3
  9
$SHADEDIF
 70
    70
  9
$TILEMODE
 70
     1
  9
$MAXACTVP
 70
    16
  9
$PLIMCHECK
 70
     0
  9
$PEXTMIN
 10
1.0000000000000000E+020
 20
1.0000000000000000E+020
 30
1.0000000000000000E+020
  9
$PEXTMAX
 10
-1.0000000000000000E+020
 20
-1.0000000000000000E+020
 30
-1.0000000000000000E+020
  9
$PLIMMIN
 10
0.0
 20
0.0
  9
$PLIMMAX
 10
12.0
 20
9.0
  9
$UNITMODE
 70
     0
  9
$VISRETAIN
 70
     0
  9
$PLINEGEN
 70
     0
  9
$PSLTSCALE
 70
     0
  0
ENDSEC
  0
SECTION
  2
TABLES
  0
TABLE
  2
VPORT
 70
     3
  0
VPORT
  2
*ACTIVE
 70
     0
 10
0.0
 20
0.0
 11
1.0
 21
1.0
 12
131.53839192124821
 22
103.59626829227931
 13
0.0
 23
0.0
 14
10.0
 24
10.0
 15
10.0
 25
10.0
 16
0.0
 26
0.0
 36
1.0
 17
0.0
 27
0.0
 37
0.0
 40
154.03091011848221
 41
0.9407114624505929
 42
50.0
 43
0.0
 44
0.0
 50
0.0
 51
0.0
 71
     0
 72
   500
 73
     1
 74
     0
 75
     0
 76
     0
 77
     0
 78
     2
  0
ENDTAB
  0
TABLE
  2
LTYPE
 70
     2
  0
LTYPE
  2
CONTINUOUS
 70
     0
  3
Solid Line
 72
    65
 73
     0
 40
0.0
  0
LTYPE
  2
CENTER
 70
     0
  3
____ _ ____ _ ____ _ ____ _ ____ _ ____ _ ____
 72
    65
 73
     4
 40
2.0
 49
1.25
 49
-0.25
 49
0.25
 49
-0.25
  0
ENDTAB
  0
TABLE
  2
LAYER
 70
     3
  0
LAYER
  2
0
 70
     0
 62
     7
  6
CONTINUOUS
  0
LAYER
  2
1
 70
     0
 62
     1
  6
CENTER
  0
LAYER
  2
3
 70
     0
 62
     3
  6
CONTINUOUS
  0
ENDTAB
  0
TABLE
  2
STYLE
 70
     1
  0
STYLE
  2
STANDARD
 70
     0
 40
0.0
 41
1.0
 50
0.0
 71
     0
 42
4.000000000000048
  3
TXT
  4
BIGFONT
  0
ENDTAB
  0
TABLE
  2
VIEW
 70
     1
  0
VIEW
  2
ALL
 70
     0
 40
270.0
 10
220.99159663865541
 20
135.0
 41
0.0
 11
0.0
 21
0.0
 31
1.0
 12
0.0
 22
0.0
 32
0.0
 42
0.0
 43
0.0
 44
0.0
 50
0.0
 71
     0
  0
ENDTAB
  0
TABLE
  2
UCS
 70
     0
  0
ENDTAB
  0
TABLE
  2
APPID
 70
     5
  0
APPID
  2
ACAD
 70
     0
  0
APPID
  2
GENIUS_GENODEF_13
 70
     0
  0
APPID
  2
GENIUS_GENOBJ-N-FIL_13
 70
     0
  0
APPID
  2
GENIUS_GENFIL_13
 70
     0
  0
APPID
  2
GENIUS_GENOBJ-N-CHA_13
 70
     0
  0
ENDTAB
  0
TABLE
  2
DIMSTYLE
 70
     1
  0
DIMSTYLE
  2
STANDARD
 70
     0
  3

  4

  5

  6

  7

 40
1.0
 41
0.18
 42
0.0625
 43
0.38
 44
0.18
 45
0.0
 46
0.0
 47
0.0
 48
0.0
140
0.18
141
0.09
142
0.0
143
25.399999999999999
144
1.0
145
0.0
146
1.0
147
0.09
 71
     0
 72
     0
 73
     1
 74
     1
 75
     0
 76
     0
 77
     0
 78
     0
170
     0
171
     2
172
     0
173
     0
174
     0
175
     0
176
     0
177
     0
178
     0
  0
ENDTAB
  0
ENDSEC
  0
SECTION
  2
BLOCKS
  0
BLOCK
  8
0
  2
$MODEL_SPACE
 70
     0
 10
0.0
 20
0.0
 30
0.0
  3
$MODEL_SPACE
  1

  0
ENDBLK
  5
3B1
  8
0
  0
BLOCK
 67
     1
  8
0
  2
$PAPER_SPACE
 70
     0
 10
0.0
 20
0.0
 30
0.0
  3
$PAPER_SPACE
  1

  0
ENDBLK
  5
3AF
 67
     1
  8
0
  0
ENDSEC
  0
SECTION
  2
ENTITIES
  0
LINE
  5
34F
  8
1
 10
131.53487414129381
 20
115.8315543745625
 30
0.0
 11
131.53487414129381
 21
34.831554374562501
 31
0.0
  0
LINE
  5
350
  8
3
 10
135.40033674336169
 20
67.831554374562529
 30
0.0
 11
135.40033674336169
 21
40.464554169610537
 31
0.0
  0
LINE
  5
351
  8
3
 10
127.66941153922591
 20
67.831554374562529
 30
0.0
 11
127.66941153922591
 21
40.464554169610608
 31
0.0
  0
LINE
  5
352
  8
0
 10
135.03487414129381
 20
39.831554374562472
 30
0.0
 11
136.53487414129381
 21
42.429630585915902
 31
0.0
  0
LINE
  5
353
  8
0
 10
128.0348741412939
 20
39.831554374562472
 30
0.0
 11
126.5348741412938
 21
42.429630585915902
 31
0.0
  0
LINE
  5
354
  8
0
 10
135.03487414129381
 20
39.831554374562472
 30
0.0
 11
131.53487414129381
 21
39.831554374562522
 31
0.0
  0
LINE
  5
355
  8
0
 10
128.03487414129381
 20
39.831554374562472
 30
0.0
 11
131.53487414129381
 21
39.831554374562522
 31
0.0
  0
LINE
  5
356
  8
1
 10
86.534874141293812
 20
157.3545227486334
 30
0.0
 11
176.53487414129381
 21
157.35452274863351
 31
0.0
  0
ARC
  5
357
  8
0
 10
131.53487414129381
 20
-100.8121439180357
 30
0.0
 40
268.16666666666907
 50
82.167496063321835
 51
97.832503936678151
  0
ARC
  5
358
  8
0
 10
131.5348741412939
 20
415.52118941529909
 30
0.0
 40
268.16666666666549
 50
262.16749606332161
 51
277.83250393667822
  0
ARC
  5
359
  8
0
 10
131.5348741412937
 20
-290.16844562543628
 30
0.0
 40
400.99999999999892
 50
84.797266014686272
 51
95.202733985313671
  0
ARC
  5
35A
  8
0
 10
132.0264894292269
 20
-292.82073831788648
 30
0.0
 40
390.35231928073711
 50
84.833960165190689
 51
87.376173422157464
  0
ARC
  5
35B
  8
0
 10
95.534874141293869
 20
105.195943261574
 30
0.0
 40
4.0
 50
95.202733985313373
 51
180.00000000000071
  0
LINE
  5
35C
  8
0
 10
131.53487414129381
 20
69.831554374562529
 30
0.0
 11
125.5348741412938
 21
69.831554374562529
 31
0.0
  0
LINE
  5
35D
  8
0
 10
140.53487414129381
 20
70.131554374562484
 30
0.0
 11
122.5348741412938
 21
70.13155437456254
 31
0.0
  0
LINE
  5
35E
  8
0
 10
121.5348741412938
 20
71.13155437456254
 30
0.0
 11
141.53487414129381
 21
71.131554374562484
 31
0.0
  0
LINE
  5
35F
  8
0
 10
121.5348741412938
 20
89.130506869344444
 30
0.0
 11
121.5348741412938
 21
71.13155437456254
 31
0.0
  0
LINE
  5
360
  8
0
 10
125.5348741412938
 20
69.831554374562529
 30
0.0
 11
125.5348741412938
 21
70.13155437456254
 31
0.0
  0
LINE
  5
361
  8
0
 10
122.5348741412938
 20
70.13155437456254
 30
0.0
 11
121.5348741412938
 21
71.13155437456254
 31
0.0
  0
ARC
  5
362
  8
0
 10
131.0432588533611
 20
-292.82073831788722
 30
0.0
 40
390.35231928073802
 50
92.623826577842635
 51
95.166039834809354
  0
ARC
  5
363
  8
0
 10
95.534874141293812
 20
99.929699412278694
 30
0.0
 40
4.0
 50
180.00000000000071
 51
275.16603983481087
  0
LINE
  5
364
  8
0
 10
91.534874141293812
 20
105.1959432615739
 30
0.0
 11
91.534874141293855
 21
99.929699412278637
 31
0.0
  0
ARC
  5
365
  8
0
 10
113.5348741412938
 20
89.130506869344444
 30
0.0
 40
8.0
 50
0.0
 51
92.588667097708694
  0
LINE
  5
366
  8
0
 10
141.53487414129381
 20
89.130506869344401
 30
0.0
 11
141.53487414129381
 21
71.131554374562484
 31
0.0
  0
LINE
  5
367
  8
0
 10
136.53487414129381
 20
69.831554374562529
 30
0.0
 11
136.53487414129381
 21
42.429630585915902
 31
0.0
  0
LINE
  5
368
  8
0
 10
126.5348741412938
 20
69.831554374562529
 30
0.0
 11
126.5348741412938
 21
42.429630585916009
 31
0.0
  0
LINE
  5
369
  8
0
 10
136.53487414129381
 20
42.429630585915902
 30
0.0
 11
131.53487414129381
 21
42.429630585915902
 31
0.0
  0
LINE
  5
36A
  8
0
 10
126.5348741412938
 20
42.429630585915902
 30
0.0
 11
131.53487414129381
 21
42.429630585915902
 31
0.0
  0
LINE
  5
36B
  8
0
 10
131.53487414129381
 20
67.831554374562529
 30
0.0
 11
136.53487414129381
 21
67.831554374562529
 31
0.0
  0
LINE
  5
36C
  8
0
 10
131.53487414129381
 20
69.831554374562529
 30
0.0
 11
137.53487414129381
 21
69.831554374562529
 31
0.0
  0
LINE
  5
36D
  8
0
 10
131.53487414129381
 20
67.831554374562529
 30
0.0
 11
126.5348741412938
 21
67.831554374562529
 31
0.0
  0
LINE
  5
36E
  8
3
 10
127.66941153922591
 20
67.831554374562529
 30
0.0
 11
126.5348741412938
 21
68.966091772494622
 31
0.0
  0
LINE
  5
36F
  8
3
 10
135.40033674336181
 20
67.831554374562529
 30
0.0
 11
136.5348741412939
 21
68.966091772494622
 31
0.0
  0
LINE
  5
370
  8
0
 10
137.53487414129381
 20
69.831554374562529
 30
0.0
 11
137.53487414129381
 21
70.131554374562484
 31
0.0
  0
LINE
  5
371
  8
0
 10
140.53487414129381
 20
70.131554374562484
 30
0.0
 11
141.53487414129381
 21
71.131554374562484
 31
0.0
  0
ARC
  5
372
  8
0
 10
149.53487414129381
 20
89.130506869344401
 30
0.0
 40
8.0
 50
87.411332902290354
 51
179.99999999999989
  0
ARC
  5
373
  8
0
 10
95.534874141293869
 20
153.81901560358401
 30
0.0
 40
4.0
 50
180.0
 51
262.16749606332093
  0
LINE
  5
374
  8
0
 10
91.534874141293855
 20
153.81901560358401
 30
0.0
 11
91.534874141293855
 21
160.89002989368311
 31
0.0
  0
ARC
  5
375
  8
0
 10
95.534874141293869
 20
160.89002989368311
 30
0.0
 40
4.0
 50
97.832503936677554
 51
180.0
  0
LINE
  5
376
  8
1
 10
131.53487414129381
 20
172.35452274863351
 30
0.0
 11
131.53487414129381
 21
142.35452274863351
 31
0.0
  0
ARC
  5
377
  8
0
 10
167.53487414129381
 20
105.195943261574
 30
0.0
 40
4.0
 50
0.0
 51
84.797266014684936
  0
ARC
  5
378
  8
0
 10
167.53487414129381
 20
99.929699412278481
 30
0.0
 40
4.0
 50
264.83396016518878
 51
0.0
  0
LINE
  5
379
  8
0
 10
171.53487414129381
 20
105.195943261574
 30
0.0
 11
171.53487414129381
 21
99.929699412278481
 31
0.0
  0
ARC
  5
37A
  8
0
 10
167.5348741412939
 20
153.81901560358401
 30
0.0
 40
4.0
 50
277.83250393667822
 51
0.0
  0
ARC
  5
37B
  8
0
 10
167.53487414129381
 20
160.89002989368311
 30
0.0
 40
4.0
 50
0.0000000000008142
 51
82.167496063322403
  0
LINE
  5
37C
  8
0
 10
171.53487414129381
 20
160.89002989368311
 30
0.0
 11
171.5348741412939
 21
153.81901560358401
 31
0.0
  0
ENDSEC
  0
EOF
