  0
SECTION
  2
HEADER
  9
$ACADVER
  1
AC1009
  9
$INSBASE
 10
0.0
 20
0.0
 30
0.0
  9
$EXTMIN
 10
81.499100699437577
 20
84.984741938515526
 30
-0.0015258207003583
  9
$EXTMAX
 10
298.5076912137535
 20
203.51348932077349
 30
0.0000000349246037
  9
$LIMMIN
 10
0.0
 20
0.0
  9
$LIMMAX
 10
375.0
 20
270.0
  9
$ORTHOMODE
 70
     1
  9
$REGENMODE
 70
     1
  9
$FILLMODE
 70
     1
  9
$QTEXTMODE
 70
     0
  9
$MIRRTEXT
 70
     0
  9
$DRAGMODE
 70
     2
  9
$LTSCALE
 40
10.0
  9
$OSMODE
 70
   231
  9
$ATTMODE
 70
     1
  9
$TEXTSIZE
 40
4.000000000000048
  9
$TRACEWID
 40
0.05
  9
$TEXTSTYLE
  7
STANDARD
  9
$CLAYER
  8
0
  9
$CELTYPE
  6
BYLAYER
  9
$CECOLOR
 62
   256
  9
$DIMSCALE
 40
1.0
  9
$DIMASZ
 40
3.0
  9
$DIMEXO
 40
2.0
  9
$DIMDLI
 40
0.38
  9
$DIMRND
 40
0.0
  9
$DIMDLE
 40
0.0
  9
$DIMEXE
 40
2.0
  9
$DIMTP
 40
0.0
  9
$DIMTM
 40
0.0
  9
$DIMTXT
 40
3.2000000000000002
  9
$DIMCEN
 40
0.0
  9
$DIMTSZ
 40
0.0
  9
$DIMTOL
 70
     0
  9
$DIMLIM
 70
     0
  9
$DIMTIH
 70
     0
  9
$DIMTOH
 70
     0
  9
$DIMSE1
 70
     0
  9
$DIMSE2
 70
     0
  9
$DIMTAD
 70
     1
  9
$DIMZIN
 70
     0
  9
$DIMBLK
  1

  9
$DIMASO
 70
     1
  9
$DIMSHO
 70
     0
  9
$DIMPOST
  1

  9
$DIMAPOST
  1

  9
$DIMALT
 70
     0
  9
$DIMALTD
 70
     2
  9
$DIMALTF
 40
25.399999999999999
  9
$DIMLFAC
 40
1.0
  9
$DIMTOFL
 70
     1
  9
$DIMTVP
 40
1.6000000000000001
  9
$DIMTIX
 70
     1
  9
$DIMSOXD
 70
     0
  9
$DIMSAH
 70
     0
  9
$DIMBLK1
  1

  9
$DIMBLK2
  1

  9
$DIMSTYLE
  2
STANDARD
  9
$DIMCLRD
 70
     0
  9
$DIMCLRE
 70
     0
  9
$DIMCLRT
 70
     0
  9
$DIMTFAC
 40
1.0
  9
$DIMGAP
 40
0.09
  9
$LUNITS
 70
     2
  9
$LUPREC
 70
     4
  9
$SKETCHINC
 40
0.1
  9
$FILLETRAD
 40
2.5
  9
$AUNITS
 70
     0
  9
$AUPREC
 70
     4
  9
$MENU
  1
E:\r13\win\SUPPORT\ACAD
  9
$ELEVATION
 40
0.0
  9
$PELEVATION
 40
0.0
  9
$THICKNESS
 40
0.0
  9
$LIMCHECK
 70
     0
  9
$BLIPMODE
 70
     1
  9
$CHAMFERA
 40
0.0
  9
$CHAMFERB
 40
0.0
  9
$SKPOLY
 70
     0
  9
$TDCREATE
 40
2449839.7852083328
  9
$TDUPDATE
 40
2453236.8318153122
  9
$TDINDWG
 40
0.000155162
  9
$TDUSRTIMER
 40
0.000155162
  9
$USRTIMER
 70
     1
  9
$ANGBASE
 50
0.0
  9
$ANGDIR
 70
     0
  9
$PDMODE
 70
     0
  9
$PDSIZE
 40
0.0
  9
$PLINEWID
 40
0.0
  9
$COORDS
 70
     0
  9
$SPLFRAME
 70
     0
  9
$SPLINETYPE
 70
     6
  9
$SPLINESEGS
 70
     8
  9
$ATTDIA
 70
     0
  9
$ATTREQ
 70
     1
  9
$HANDLING
 70
-16383
  9
$HANDSEED
  5
178
  9
$SURFTAB1
 70
     6
  9
$SURFTAB2
 70
     6
  9
$SURFTYPE
 70
     6
  9
$SURFU
 70
     6
  9
$SURFV
 70
     6
  9
$UCSNAME
  2

  9
$UCSORG
 10
0.0
 20
0.0
 30
0.0
  9
$UCSXDIR
 10
1.0
 20
0.0
 30
0.0
  9
$UCSYDIR
 10
0.0
 20
1.0
 30
0.0
  9
$PUCSNAME
  2

  9
$PUCSORG
 10
0.0
 20
0.0
 30
0.0
  9
$PUCSXDIR
 10
1.0
 20
0.0
 30
0.0
  9
$PUCSYDIR
 10
0.0
 20
1.0
 30
0.0
  9
$USERI1
 70
     0
  9
$USERI2
 70
     1
  9
$USERI3
 70
     1
  9
$USERI4
 70
     0
  9
$USERI5
 70
     0
  9
$USERR1
 40
0.0
  9
$USERR2
 40
0.0
  9
$USERR3
 40
0.0
  9
$USERR4
 40
0.0
  9
$USERR5
 40
0.0
  9
$WORLDVIEW
 70
     1
  9
$SHADEDGE
 70
     3
  9
$SHADEDIF
 70
    70
  9
$TILEMODE
 70
     1
  9
$MAXACTVP
 70
    16
  9
$PLIMCHECK
 70
     0
  9
$PEXTMIN
 10
1.0000000000000000E+020
 20
1.0000000000000000E+020
 30
1.0000000000000000E+020
  9
$PEXTMAX
 10
-1.0000000000000000E+020
 20
-1.0000000000000000E+020
 30
-1.0000000000000000E+020
  9
$PLIMMIN
 10
0.0
 20
0.0
  9
$PLIMMAX
 10
12.0
 20
9.0
  9
$UNITMODE
 70
     0
  9
$VISRETAIN
 70
     0
  9
$PLINEGEN
 70
     0
  9
$PSLTSCALE
 70
     0
  0
ENDSEC
  0
SECTION
  2
TABLES
  0
TABLE
  2
VPORT
 70
     3
  0
VPORT
  2
*ACTIVE
 70
     0
 10
0.0
 20
0.0
 11
1.0
 21
1.0
 12
190.00339595659551
 22
144.24911562964451
 13
0.0
 23
0.0
 14
10.0
 24
10.0
 15
10.0
 25
10.0
 16
0.0
 26
0.0
 36
1.0
 17
0.0
 27
0.0
 37
0.0
 40
258.46842921470551
 41
0.9407114624505929
 42
50.0
 43
0.0
 44
0.0
 50
0.0
 51
0.0
 71
     0
 72
   500
 73
     1
 74
     0
 75
     0
 76
     0
 77
     0
 78
     2
  0
ENDTAB
  0
TABLE
  2
LTYPE
 70
     3
  0
LTYPE
  2
CONTINUOUS
 70
     0
  3
Solid Line
 72
    65
 73
     0
 40
0.0
  0
LTYPE
  2
CENTER
 70
     0
  3
____ _ ____ _ ____ _ ____ _ ____ _ ____ _ ____
 72
    65
 73
     4
 40
2.0
 49
1.25
 49
-0.25
 49
0.25
 49
-0.25
  0
LTYPE
  2
HIDDEN
 70
     0
  3
_ _ _ _ _ _ _ _ _ _ _ _ _ _ _ _ _ _ _ _ _ _ _
 72
    65
 73
     2
 40
0.375
 49
0.25
 49
-0.125
  0
ENDTAB
  0
TABLE
  2
LAYER
 70
     3
  0
LAYER
  2
0
 70
     0
 62
     7
  6
CONTINUOUS
  0
LAYER
  2
1
 70
     0
 62
     1
  6
CENTER
  0
LAYER
  2
2
 70
     0
 62
     2
  6
HIDDEN
  0
ENDTAB
  0
TABLE
  2
STYLE
 70
     1
  0
STYLE
  2
STANDARD
 70
     0
 40
0.0
 41
1.0
 50
0.0
 71
     0
 42
4.000000000000048
  3
TXT
  4
BIGFONT
  0
ENDTAB
  0
TABLE
  2
VIEW
 70
     1
  0
VIEW
  2
ALL
 70
     0
 40
270.0
 10
220.99159663865541
 20
135.0
 41
0.0
 11
0.0
 21
0.0
 31
1.0
 12
0.0
 22
0.0
 32
0.0
 42
0.0
 43
0.0
 44
0.0
 50
0.0
 71
     0
  0
ENDTAB
  0
TABLE
  2
UCS
 70
     0
  0
ENDTAB
  0
TABLE
  2
APPID
 70
     1
  0
APPID
  2
ACAD
 70
     0
  0
ENDTAB
  0
TABLE
  2
DIMSTYLE
 70
     1
  0
DIMSTYLE
  2
STANDARD
 70
     0
  3

  4

  5

  6

  7

 40
1.0
 41
0.18
 42
0.0625
 43
0.38
 44
0.18
 45
0.0
 46
0.0
 47
0.0
 48
0.0
140
0.18
141
0.09
142
0.0
143
25.399999999999999
144
1.0
145
0.0
146
1.0
147
0.09
 71
     0
 72
     0
 73
     1
 74
     1
 75
     0
 76
     0
 77
     0
 78
     0
170
     0
171
     2
172
     0
173
     0
174
     0
175
     0
176
     0
177
     0
178
     0
  0
ENDTAB
  0
ENDSEC
  0
SECTION
  2
BLOCKS
  0
BLOCK
  8
0
  2
$MODEL_SPACE
 70
     0
 10
0.0
 20
0.0
 30
0.0
  3
$MODEL_SPACE
  1

  0
ENDBLK
  5
120
  8
0
  0
BLOCK
 67
     1
  8
0
  2
$PAPER_SPACE
 70
     0
 10
0.0
 20
0.0
 30
0.0
  3
$PAPER_SPACE
  1

  0
ENDBLK
  5
11E
 67
     1
  8
0
  0
ENDSEC
  0
SECTION
  2
ENTITIES
  0
ARC
  5
35
  8
2
 10
184.25
 20
184.25
 30
0.0
 40
2.5
 50
179.99999999999989
 51
269.99999999999977
  0
ARC
  5
36
  8
2
 10
195.74999999999989
 20
184.25
 30
0.0
 40
2.5
 50
270.0
 51
360.0
  0
ARC
  5
37
  8
2
 10
195.74999999999989
 20
195.74999999999989
 30
0.0
 40
2.5
 50
360.0
 51
89.999999999999986
  0
ARC
  5
38
  8
2
 10
184.25
 20
195.74999999999989
 30
0.0
 40
2.5
 50
89.999999999999986
 51
179.99999999999989
  0
LINE
  5
39
  8
2
 10
195.74999999999989
 20
181.75
 30
0.0
 11
184.25
 21
181.75
 31
0.0
  0
LINE
  5
3A
  8
2
 10
195.74999999999989
 20
198.25
 30
0.0
 11
184.25
 21
198.25
 31
0.0
  0
LINE
  5
3B
  8
2
 10
198.25
 20
195.74999999999989
 30
0.0
 11
198.25
 21
184.25
 31
0.0
  0
LINE
  5
3C
  8
2
 10
181.75
 20
195.74999999999989
 30
0.0
 11
181.75
 21
184.25
 31
0.0
  0
ARC
  5
3D
  8
0
 10
221.0
 20
193.83673902770099
 30
0.0
 40
2.5
 50
360.0
 51
82.016443854445058
  0
ARC
  5
3E
  8
0
 10
221.0
 20
186.1632609722989
 30
0.0
 40
2.5
 50
277.98355614555493
 51
360.0
  0
ARC
  5
3F
  8
0
 10
159.0
 20
186.1632609722989
 30
0.0
 40
2.5
 50
179.9999999999996
 51
262.01644385444399
  0
ARC
  5
40
  8
0
 10
159.0
 20
193.83673902770099
 30
0.0
 40
2.5
 50
97.983556145555326
 51
179.9999999999996
  0
ARC
  5
41
  8
0
 10
190.0
 20
407.2000000000005
 30
0.0
 40
225.7000000000005
 50
262.0164438544445
 51
277.98355614555533
  0
ARC
  5
42
  8
0
 10
189.99999999999989
 20
-27.200000000000141
 30
0.0
 40
225.7000000000001
 50
82.016443854444603
 51
97.983556145555383
  0
LINE
  5
43
  8
1
 10
190.0
 20
203.5
 30
0.0
 11
190.0
 21
176.5
 31
0.0
  0
LINE
  5
44
  8
0
 10
223.49999999999989
 20
193.83673902770121
 30
0.0
 11
223.49999999999989
 21
186.16326287964759
 31
0.0
  0
LINE
  5
45
  8
0
 10
156.49999999999989
 20
186.1632609722989
 30
0.0
 11
156.49999999999989
 21
193.83673902770099
 31
0.0
  0
ARC
  5
46
  8
0
 10
196.75
 20
91.799999999999969
 30
0.0
 40
1.5
 50
270.0
 51
360.0
  0
ARC
  5
47
  8
0
 10
183.24999999999989
 20
91.799999999999983
 30
0.0
 40
1.5
 50
179.99999999999989
 51
269.99999999999977
  0
ARC
  5
48
  8
0
 10
204.74999999999989
 20
109.60423698547839
 30
0.0
 40
6.5
 50
86.926086614965556
 51
179.99999999999989
  0
ARC
  5
49
  8
0
 10
175.24999999999989
 20
109.60423698547839
 30
0.0
 40
6.5
 50
360.0
 51
93.073913385034274
  0
ARC
  5
4A
  8
0
 10
189.99999999999989
 20
-165.0625000000021
 30
0.0
 40
281.5625000000021
 50
93.073913385034345
 51
96.265218953278833
  0
ARC
  5
4B
  8
0
 10
221.0
 20
117.3034042913113
 30
0.0
 40
2.5
 50
263.73478104672142
 51
360.0
  0
ARC
  5
4C
  8
0
 10
159.0
 20
117.3034042913113
 30
0.0
 40
2.5
 50
179.99999999999989
 51
276.2652189532796
  0
ARC
  5
4D
  8
0
 10
221.0
 20
123.2728185338102
 30
0.0
 40
2.5
 50
360.0
 51
83.622064473287395
  0
ARC
  5
4E
  8
0
 10
159.0
 20
123.2728185338102
 30
0.0
 40
2.5
 50
96.377935526711624
 51
179.99999999999989
  0
LINE
  5
4F
  8
0
 10
196.0
 20
90.299999999999983
 30
0.0
 11
196.0
 21
90.000000000000014
 31
0.0
  0
LINE
  5
50
  8
0
 10
184.0
 20
90.299999999999983
 30
0.0
 11
184.0
 21
90.000000000000014
 31
0.0
  0
LINE
  5
51
  8
0
 10
198.25
 20
109.60423698547839
 30
0.0
 11
198.25
 21
91.799999999999969
 31
0.0
  0
LINE
  5
52
  8
0
 10
181.75
 20
109.60423698547839
 30
0.0
 11
181.75
 21
91.799999999999983
 31
0.0
  0
LINE
  5
53
  8
0
 10
196.75
 20
90.299999999999983
 30
0.0
 11
183.24999999999989
 21
90.299999999999983
 31
0.0
  0
ARC
  5
54
  8
0
 10
189.99999999999989
 20
-165.0625000000021
 30
0.0
 40
281.5625000000021
 50
83.734779367771665
 51
86.926086614965627
  0
ARC
  5
55
  8
0
 10
189.99999999999989
 20
-154.0625000000021
 30
0.0
 40
281.5625000000021
 50
83.622064473287296
 51
96.37793552671269
  0
LINE
  5
56
  8
1
 10
190.0
 20
132.49999999999989
 30
0.0
 11
190.0
 21
85.000000000000014
 31
0.0
  0
LINE
  5
57
  8
0
 10
196.0
 20
90.000000000000014
 30
0.0
 11
184.0
 21
90.000000000000014
 31
0.0
  0
LINE
  5
58
  8
0
 10
223.49999999999989
 20
123.2728194874845
 30
0.0
 11
223.49999999999989
 21
117.3034056400104
 31
0.0
  0
LINE
  5
59
  8
0
 10
156.49999999999989
 20
117.3034042913113
 30
0.0
 11
156.49999999999989
 21
123.2728185338102
 31
0.0
  0
LINE
  5
5A
  8
2
 10
186.0
 20
90.523500000000055
 30
0.0
 11
186.0
 21
110.0
 31
0.0
  0
LINE
  5
5B
  8
2
 10
186.67649999999981
 20
91.200000000000003
 30
0.0
 11
186.67649999999981
 21
115.0
 31
0.0
  0
LINE
  5
5C
  8
2
 10
193.3235
 20
91.200000000000003
 30
0.0
 11
193.32350000000011
 21
115.0
 31
0.0
  0
LINE
  5
5D
  8
2
 10
194.0
 20
90.523500000000055
 30
0.0
 11
194.0
 21
110.0
 31
0.0
  0
LINE
  5
5E
  8
2
 10
193.32350000000011
 20
115.0
 30
0.0
 11
190.0
 21
116.9969602673382
 31
0.0
  0
LINE
  5
5F
  8
2
 10
186.67649999999981
 20
115.0
 30
0.0
 11
190.0
 21
116.9969602673382
 31
0.0
  0
LINE
  5
60
  8
2
 10
186.0
 20
110.0
 30
0.0
 11
194.0
 21
110.0
 31
0.0
  0
LINE
  5
61
  8
2
 10
186.67649999999981
 20
115.0
 30
0.0
 11
193.32350000000011
 21
115.0
 31
0.0
  0
LINE
  5
62
  8
2
 10
194.0
 20
110.0
 30
0.0
 11
193.3235
 21
111.1717323713202
 31
0.0
  0
LINE
  5
63
  8
2
 10
186.0
 20
110.0
 30
0.0
 11
186.67649999999989
 21
111.1717323713202
 31
0.0
  0
LINE
  5
64
  8
2
 10
193.3235
 20
91.200000000000017
 30
0.0
 11
186.67649999999989
 21
91.200000000000003
 31
0.0
  0
LINE
  5
65
  8
2
 10
193.3235
 20
91.200000000000017
 30
0.0
 11
194.52350000000001
 21
90.000000000000014
 31
0.0
  0
LINE
  5
66
  8
2
 10
186.67649999999989
 20
91.200000000000017
 30
0.0
 11
185.4764999999999
 21
90.000000000000014
 31
0.0
  0
ARC
  5
67
  8
0
 10
296.75
 20
91.799999999999969
 30
0.0
 40
1.5
 50
270.0
 51
360.0
  0
ARC
  5
68
  8
0
 10
283.24999999999989
 20
91.799999999999983
 30
0.0
 40
1.5
 50
179.99999999999989
 51
269.99999999999977
  0
LINE
  5
69
  8
0
 10
296.0
 20
90.299999999999983
 30
0.0
 11
296.0
 21
90.000000000000014
 31
0.0
  0
LINE
  5
6A
  8
0
 10
284.0
 20
90.299999999999983
 30
0.0
 11
284.0
 21
90.000000000000014
 31
0.0
  0
LINE
  5
6B
  8
0
 10
298.24999999999989
 20
117.5145122495924
 30
0.0
 11
298.24999999999989
 21
91.799999999999969
 31
0.0
  0
LINE
  5
6C
  8
0
 10
281.74999999999989
 20
117.51451224959369
 30
0.0
 11
281.74999999999989
 21
91.799999999999983
 31
0.0
  0
LINE
  5
6D
  8
0
 10
296.75
 20
90.299999999999983
 30
0.0
 11
283.24999999999989
 21
90.299999999999983
 31
0.0
  0
LINE
  5
6E
  8
1
 10
290.0
 20
132.49999999999989
 30
0.0
 11
290.0
 21
85.000000000000014
 31
0.0
  0
LINE
  5
6F
  8
0
 10
296.0
 20
90.000000000000014
 30
0.0
 11
284.0
 21
90.000000000000014
 31
0.0
  0
LINE
  5
70
  8
2
 10
286.0
 20
90.523500000000055
 30
0.0
 11
286.0
 21
110.0
 31
0.0
  0
LINE
  5
71
  8
2
 10
286.67649999999981
 20
91.200000000000003
 30
0.0
 11
286.67649999999992
 21
115.0
 31
0.0
  0
LINE
  5
72
  8
2
 10
293.32350000000002
 20
91.200000000000003
 30
0.0
 11
293.32350000000002
 21
115.0
 31
0.0
  0
LINE
  5
73
  8
2
 10
294.0
 20
90.523500000000055
 30
0.0
 11
294.0
 21
110.0
 31
0.0
  0
LINE
  5
74
  8
2
 10
293.32350000000002
 20
91.200000000000017
 30
0.0
 11
286.67649999999992
 21
91.200000000000003
 31
0.0
  0
LINE
  5
75
  8
2
 10
293.32350000000002
 20
91.200000000000017
 30
0.0
 11
294.52350000000001
 21
90.000000000000014
 31
0.0
  0
LINE
  5
76
  8
2
 10
286.67649999999998
 20
91.200000000000017
 30
0.0
 11
285.47649999999987
 21
90.000000000000014
 31
0.0
  0
LINE
  5
77
  8
2
 10
293.32350000000008
 20
115.0
 30
0.0
 11
290.0
 21
116.9969602673382
 31
0.0
  0
LINE
  5
78
  8
2
 10
286.67649999999981
 20
115.0
 30
0.0
 11
290.0
 21
116.9969602673382
 31
0.0
  0
LINE
  5
79
  8
2
 10
286.0
 20
110.0
 30
0.0
 11
294.0
 21
110.0
 31
0.0
  0
LINE
  5
7A
  8
2
 10
286.67649999999992
 20
115.0
 30
0.0
 11
293.32350000000002
 21
115.0
 31
0.0
  0
LINE
  5
7B
  8
2
 10
294.0
 20
110.0
 30
0.0
 11
293.32350000000002
 21
111.1717323713202
 31
0.0
  0
LINE
  5
7C
  8
2
 10
286.0
 20
110.0
 30
0.0
 11
286.67649999999998
 21
111.1717323713202
 31
0.0
  0
LINE
  5
7D
  8
0
 10
284.0
 20
127.5
 30
0.0
 11
296.0
 21
127.5
 31
0.0
  0
LINE
  5
7E
  8
0
 10
281.49999999999989
 20
125.0
 30
0.0
 11
281.49999999999989
 21
118.60423698547839
 31
0.0
  0
LINE
  5
7F
  8
0
 10
298.5
 20
125.0
 30
0.0
 11
298.49999999999989
 21
118.60423698547839
 31
0.0
  0
LINE
  5
80
  8
0
 10
286.49999999999989
 20
114.8034042913113
 30
0.0
 11
293.5
 21
114.8034042913113
 31
0.0
  0
ARC
  5
81
  8
0
 10
284.0
 20
125.0
 30
0.0
 40
2.5
 50
90.000000000000057
 51
180.0
  0
ARC
  5
82
  8
0
 10
296.0
 20
125.0
 30
0.0
 40
2.5
 50
359.99999999999977
 51
90.0
  0
ARC
  5
83
  8
0
 10
284.0
 20
118.60423698547839
 30
0.0
 40
2.5
 50
180.00000000000011
 51
242.51060326525419
  0
ARC
  5
84
  8
0
 10
296.0
 20
118.60423698547839
 30
0.0
 40
2.5
 50
297.48945157484638
 51
359.99999999999972
  0
LINE
  5
85
  8
0
 10
286.5
 20
125.5
 30
0.0
 11
293.5
 21
125.5
 31
0.0
  0
LINE
  5
86
  8
0
 10
284.0
 20
123.0
 30
0.0
 11
283.99999999999989
 21
117.3034042913113
 31
0.0
  0
LINE
  5
87
  8
0
 10
296.0
 20
123.0
 30
0.0
 11
296.0
 21
117.3034042913113
 31
0.0
  0
ARC
  5
88
  8
0
 10
286.5
 20
123.0
 30
0.0
 40
2.5
 50
90.0
 51
179.9999999999998
  0
ARC
  5
89
  8
0
 10
293.5
 20
123.0
 30
0.0
 40
2.5
 50
0.0
 51
90.0
  0
ARC
  5
8A
  8
0
 10
293.5
 20
117.3034042913113
 30
0.0
 40
2.5
 50
270.0
 51
359.99999999999972
  0
ARC
  5
8B
  8
0
 10
286.49999999999989
 20
117.3034042913113
 30
0.0
 40
2.5
 50
179.9999999999998
 51
269.99999999999989
  0
LINE
  5
8C
  8
0
 10
282.84603674374227
 20
116.3864974148328
 30
0.0
 11
285.34603674374227
 21
115.0856647206657
 31
0.0
  0
LINE
  5
8D
  8
0
 10
297.15396325625761
 20
116.3864974148328
 30
0.0
 11
294.6539632562575
 21
115.0856647206657
 31
0.0
  0
LINE
  5
8E
  8
0
 10
282.70456037144328
 20
126.3899050934386
 30
0.0
 11
284.26139045645442
 21
125.1444410254297
 31
0.0
  0
LINE
  5
8F
  8
0
 10
295.73860954354438
 20
125.1444410254288
 30
0.0
 11
297.29543962855303
 21
126.3899050934357
 31
0.0
  0
LINE
  5
99
  8
0
 10
84.261390456455544
 20
125.1444410254288
 30
0.0
 11
82.704560371447016
 21
126.3899050934357
 31
0.0
  0
LINE
  5
9A
  8
0
 10
97.295439628556721
 20
126.3899050934386
 30
0.0
 11
95.738609543545635
 21
125.1444410254297
 31
0.0
  0
LINE
  5
9B
  8
0
 10
82.846036743742445
 20
116.3864974148328
 30
0.0
 11
85.346036743742516
 21
115.0856647206657
 31
0.0
  0
LINE
  5
9C
  8
0
 10
97.153963256257683
 20
116.3864974148328
 30
0.0
 11
94.653963256257725
 21
115.0856647206657
 31
0.0
  0
ARC
  5
9D
  8
0
 10
93.500000000000114
 20
117.3034042913113
 30
0.0
 40
2.5
 50
270.00000000000011
 51
0.0000000000002036
  0
ARC
  5
9E
  8
0
 10
86.500000000000057
 20
117.3034042913113
 30
0.0
 40
2.5
 50
180.0000000000002
 51
270.0
  0
ARC
  5
9F
  8
0
 10
86.500000000000057
 20
123.0
 30
0.0
 40
2.5
 50
90.000000000000028
 51
180.0
  0
ARC
  5
A0
  8
0
 10
93.500000000000057
 20
123.0
 30
0.0
 40
2.5
 50
0.000000000000229
 51
90.000000000000028
  0
LINE
  5
A1
  8
0
 10
84.000000000000057
 20
123.0
 30
0.0
 11
84.000000000000057
 21
117.3034042913113
 31
0.0
  0
LINE
  5
A2
  8
0
 10
96.000000000000057
 20
123.0
 30
0.0
 11
96.000000000000114
 21
117.3034042913113
 31
0.0
  0
LINE
  5
A3
  8
0
 10
93.500000000000057
 20
125.5
 30
0.0
 11
86.500000000000057
 21
125.5
 31
0.0
  0
ARC
  5
A4
  8
0
 10
84.000000000000057
 20
118.60423698547839
 30
0.0
 40
2.5
 50
180.00000000000031
 51
242.51054842515359
  0
ARC
  5
A5
  8
0
 10
96.000000000000057
 20
118.60423698547839
 30
0.0
 40
2.5
 50
297.4893967347457
 51
359.99999999999989
  0
ARC
  5
A6
  8
0
 10
84.0
 20
125.0
 30
0.0
 40
2.5
 50
90.000000000000028
 51
180.0000000000002
  0
ARC
  5
A7
  8
0
 10
96.000000000000057
 20
125.0
 30
0.0
 40
2.5
 50
360.0
 51
89.999999999999986
  0
LINE
  5
A8
  8
0
 10
93.500000000000114
 20
114.8034042913113
 30
0.0
 11
86.500000000000057
 21
114.8034042913113
 31
0.0
  0
LINE
  5
A9
  8
0
 10
81.5
 20
125.0
 30
0.0
 11
81.500000000000057
 21
118.60423698547839
 31
0.0
  0
LINE
  5
AA
  8
0
 10
98.500000000000057
 20
125.0
 30
0.0
 11
98.500000000000057
 21
118.60423698547839
 31
0.0
  0
LINE
  5
AB
  8
0
 10
96.000000000000057
 20
127.5
 30
0.0
 11
84.0
 21
127.5
 31
0.0
  0
LINE
  5
AC
  8
2
 10
94.0
 20
110.0
 30
0.0
 11
93.323500000000081
 21
111.1717323713202
 31
0.0
  0
LINE
  5
AD
  8
2
 10
86.000000000000057
 20
110.0
 30
0.0
 11
86.676499999999976
 21
111.1717323713202
 31
0.0
  0
LINE
  5
AE
  8
2
 10
93.323500000000138
 20
115.0
 30
0.0
 11
86.676499999999976
 21
115.0
 31
0.0
  0
LINE
  5
AF
  8
2
 10
94.000000000000057
 20
110.0
 30
0.0
 11
86.000000000000057
 21
110.0
 31
0.0
  0
LINE
  5
B0
  8
2
 10
93.323500000000237
 20
115.0
 30
0.0
 11
90.000000000000057
 21
116.9969602673382
 31
0.0
  0
LINE
  5
B1
  8
2
 10
86.676499999999848
 20
115.0
 30
0.0
 11
90.000000000000057
 21
116.9969602673382
 31
0.0
  0
LINE
  5
B2
  8
2
 10
93.323500000000081
 20
91.200000000000017
 30
0.0
 11
94.523500000000126
 21
90.000000000000014
 31
0.0
  0
LINE
  5
B3
  8
2
 10
86.676500000000033
 20
91.200000000000017
 30
0.0
 11
85.476500000000044
 21
90.000000000000014
 31
0.0
  0
LINE
  5
B4
  8
2
 10
86.676500000000033
 20
91.200000000000017
 30
0.0
 11
93.323500000000138
 21
91.200000000000003
 31
0.0
  0
LINE
  5
B5
  8
2
 10
86.000000000000057
 20
90.523500000000055
 30
0.0
 11
86.000000000000057
 21
110.0
 31
0.0
  0
LINE
  5
B6
  8
2
 10
86.676499999999976
 20
91.200000000000003
 30
0.0
 11
86.676499999999976
 21
115.0
 31
0.0
  0
LINE
  5
B7
  8
2
 10
93.323500000000195
 20
91.200000000000003
 30
0.0
 11
93.323500000000138
 21
115.0
 31
0.0
  0
LINE
  5
B8
  8
2
 10
94.000000000000057
 20
90.523500000000055
 30
0.0
 11
94.000000000000057
 21
110.0
 31
0.0
  0
LINE
  5
B9
  8
0
 10
84.000000000000057
 20
90.000000000000014
 30
0.0
 11
96.000000000000057
 21
90.000000000000014
 31
0.0
  0
LINE
  5
BA
  8
1
 10
90.000000000000057
 20
132.49999999999989
 30
0.0
 11
90.000000000000057
 21
85.000000000000014
 31
0.0
  0
LINE
  5
BB
  8
0
 10
83.250000000000057
 20
90.299999999999983
 30
0.0
 11
96.750000000000057
 21
90.299999999999983
 31
0.0
  0
LINE
  5
BC
  8
0
 10
98.250000000000057
 20
117.51451224959369
 30
0.0
 11
98.250000000000057
 21
91.799999999999983
 31
0.0
  0
LINE
  5
BD
  8
0
 10
81.750000000000057
 20
117.5145122495924
 30
0.0
 11
81.750000000000057
 21
91.799999999999969
 31
0.0
  0
LINE
  5
BE
  8
0
 10
96.000000000000057
 20
90.299999999999983
 30
0.0
 11
96.000000000000057
 21
90.000000000000014
 31
0.0
  0
LINE
  5
BF
  8
0
 10
84.000000000000057
 20
90.299999999999983
 30
0.0
 11
84.000000000000057
 21
90.000000000000014
 31
0.0
  0
ARC
  5
C0
  8
0
 10
96.750000000000057
 20
91.799999999999983
 30
0.0
 40
1.5
 50
270.00000000000011
 51
0.0000000000000509
  0
ARC
  5
C1
  8
0
 10
83.250000000000057
 20
91.799999999999969
 30
0.0
 40
1.5
 50
180.0
 51
270.0
  0
ENDSEC
  0
EOF
