  0
SECTION
  2
HEADER
  9
$ACADVER
  1
AC1009
  9
$INSBASE
 10
0.0
 20
0.0
 30
0.0
  9
$EXTMIN
 10
66.793442723333555
 20
23.8458258517154
 30
-0.0015258207003583
  9
$EXTMAX
 10
116.80412349734
 20
120.5598454253746
 30
0.0000000349246037
  9
$LIMMIN
 10
0.0
 20
0.0
  9
$LIMMAX
 10
375.0
 20
270.0
  9
$ORTHOMODE
 70
     0
  9
$REGENMODE
 70
     1
  9
$FILLMODE
 70
     1
  9
$QTEXTMODE
 70
     0
  9
$MIRRTEXT
 70
     0
  9
$DRAGMODE
 70
     2
  9
$LTSCALE
 40
10.0
  9
$OSMODE
 70
   231
  9
$ATTMODE
 70
     1
  9
$TEXTSIZE
 40
4.000000000000048
  9
$TRACEWID
 40
0.05
  9
$TEXTSTYLE
  7
STANDARD
  9
$CLAYER
  8
0
  9
$CELTYPE
  6
BYLAYER
  9
$CECOLOR
 62
   256
  9
$DIMSCALE
 40
1.0
  9
$DIMASZ
 40
3.0
  9
$DIMEXO
 40
2.0
  9
$DIMDLI
 40
0.38
  9
$DIMRND
 40
0.0
  9
$DIMDLE
 40
0.0
  9
$DIMEXE
 40
2.0
  9
$DIMTP
 40
0.0
  9
$DIMTM
 40
0.0
  9
$DIMTXT
 40
3.2000000000000002
  9
$DIMCEN
 40
0.0
  9
$DIMTSZ
 40
0.0
  9
$DIMTOL
 70
     0
  9
$DIMLIM
 70
     0
  9
$DIMTIH
 70
     0
  9
$DIMTOH
 70
     0
  9
$DIMSE1
 70
     0
  9
$DIMSE2
 70
     0
  9
$DIMTAD
 70
     1
  9
$DIMZIN
 70
     0
  9
$DIMBLK
  1

  9
$DIMASO
 70
     1
  9
$DIMSHO
 70
     0
  9
$DIMPOST
  1

  9
$DIMAPOST
  1

  9
$DIMALT
 70
     0
  9
$DIMALTD
 70
     2
  9
$DIMALTF
 40
25.399999999999999
  9
$DIMLFAC
 40
1.0
  9
$DIMTOFL
 70
     1
  9
$DIMTVP
 40
1.6000000000000001
  9
$DIMTIX
 70
     1
  9
$DIMSOXD
 70
     0
  9
$DIMSAH
 70
     0
  9
$DIMBLK1
  1

  9
$DIMBLK2
  1

  9
$DIMSTYLE
  2
STANDARD
  9
$DIMCLRD
 70
     0
  9
$DIMCLRE
 70
     0
  9
$DIMCLRT
 70
     0
  9
$DIMTFAC
 40
1.0
  9
$DIMGAP
 40
0.09
  9
$LUNITS
 70
     2
  9
$LUPREC
 70
     4
  9
$SKETCHINC
 40
0.1
  9
$FILLETRAD
 40
3.0
  9
$AUNITS
 70
     0
  9
$AUPREC
 70
     4
  9
$MENU
  1
E:\r13\win\SUPPORT\ACAD
  9
$ELEVATION
 40
0.0
  9
$PELEVATION
 40
0.0
  9
$THICKNESS
 40
0.0
  9
$LIMCHECK
 70
     0
  9
$BLIPMODE
 70
     1
  9
$CHAMFERA
 40
0.0
  9
$CHAMFERB
 40
0.0
  9
$SKPOLY
 70
     0
  9
$TDCREATE
 40
2449839.7852314808
  9
$TDUPDATE
 40
2453236.8317212728
  9
$TDINDWG
 40
0.0047828241
  9
$TDUSRTIMER
 40
0.0047828241
  9
$USRTIMER
 70
     1
  9
$ANGBASE
 50
0.0
  9
$ANGDIR
 70
     0
  9
$PDMODE
 70
     0
  9
$PDSIZE
 40
0.0
  9
$PLINEWID
 40
0.0
  9
$COORDS
 70
     0
  9
$SPLFRAME
 70
     0
  9
$SPLINETYPE
 70
     6
  9
$SPLINESEGS
 70
     8
  9
$ATTDIA
 70
     0
  9
$ATTREQ
 70
     1
  9
$HANDLING
 70
-16383
  9
$HANDSEED
  5
2D9
  9
$SURFTAB1
 70
     6
  9
$SURFTAB2
 70
     6
  9
$SURFTYPE
 70
     6
  9
$SURFU
 70
     6
  9
$SURFV
 70
     6
  9
$UCSNAME
  2

  9
$UCSORG
 10
0.0
 20
0.0
 30
0.0
  9
$UCSXDIR
 10
1.0
 20
0.0
 30
0.0
  9
$UCSYDIR
 10
0.0
 20
1.0
 30
0.0
  9
$PUCSNAME
  2

  9
$PUCSORG
 10
0.0
 20
0.0
 30
0.0
  9
$PUCSXDIR
 10
1.0
 20
0.0
 30
0.0
  9
$PUCSYDIR
 10
0.0
 20
1.0
 30
0.0
  9
$USERI1
 70
     0
  9
$USERI2
 70
     1
  9
$USERI3
 70
     1
  9
$USERI4
 70
     0
  9
$USERI5
 70
     0
  9
$USERR1
 40
0.0
  9
$USERR2
 40
0.0
  9
$USERR3
 40
0.0
  9
$USERR4
 40
0.0
  9
$USERR5
 40
0.0
  9
$WORLDVIEW
 70
     1
  9
$SHADEDGE
 70
     3
  9
$SHADEDIF
 70
    70
  9
$TILEMODE
 70
     1
  9
$MAXACTVP
 70
    16
  9
$PLIMCHECK
 70
     0
  9
$PEXTMIN
 10
1.0000000000000000E+020
 20
1.0000000000000000E+020
 30
1.0000000000000000E+020
  9
$PEXTMAX
 10
-1.0000000000000000E+020
 20
-1.0000000000000000E+020
 30
-1.0000000000000000E+020
  9
$PLIMMIN
 10
0.0
 20
0.0
  9
$PLIMMAX
 10
12.0
 20
9.0
  9
$UNITMODE
 70
     0
  9
$VISRETAIN
 70
     0
  9
$PLINEGEN
 70
     0
  9
$PSLTSCALE
 70
     0
  0
ENDSEC
  0
SECTION
  2
TABLES
  0
TABLE
  2
VPORT
 70
     3
  0
VPORT
  2
*ACTIVE
 70
     0
 10
0.0
 20
0.0
 11
1.0
 21
1.0
 12
91.798783110336785
 22
72.202835638545025
 13
0.0
 23
0.0
 14
10.0
 24
10.0
 15
10.0
 25
10.0
 16
0.0
 26
0.0
 36
1.0
 17
0.0
 27
0.0
 37
0.0
 40
108.3083903412616
 41
0.9407114624505929
 42
50.0
 43
0.0
 44
0.0
 50
0.0
 51
0.0
 71
     0
 72
   500
 73
     1
 74
     0
 75
     0
 76
     0
 77
     0
 78
     2
  0
ENDTAB
  0
TABLE
  2
LTYPE
 70
     2
  0
LTYPE
  2
CONTINUOUS
 70
     0
  3
Solid Line
 72
    65
 73
     0
 40
0.0
  0
LTYPE
  2
CENTER
 70
     0
  3
____ _ ____ _ ____ _ ____ _ ____ _ ____ _ ____
 72
    65
 73
     4
 40
2.0
 49
1.25
 49
-0.25
 49
0.25
 49
-0.25
  0
ENDTAB
  0
TABLE
  2
LAYER
 70
     3
  0
LAYER
  2
0
 70
     0
 62
     7
  6
CONTINUOUS
  0
LAYER
  2
1
 70
     0
 62
     1
  6
CENTER
  0
LAYER
  2
3
 70
     0
 62
     3
  6
CONTINUOUS
  0
ENDTAB
  0
TABLE
  2
STYLE
 70
     1
  0
STYLE
  2
STANDARD
 70
     0
 40
0.0
 41
1.0
 50
0.0
 71
     0
 42
4.000000000000048
  3
TXT
  4
BIGFONT
  0
ENDTAB
  0
TABLE
  2
VIEW
 70
     1
  0
VIEW
  2
ALL
 70
     0
 40
270.0
 10
220.99159663865541
 20
135.0
 41
0.0
 11
0.0
 21
0.0
 31
1.0
 12
0.0
 22
0.0
 32
0.0
 42
0.0
 43
0.0
 44
0.0
 50
0.0
 71
     0
  0
ENDTAB
  0
TABLE
  2
UCS
 70
     0
  0
ENDTAB
  0
TABLE
  2
APPID
 70
     5
  0
APPID
  2
ACAD
 70
     0
  0
APPID
  2
GENIUS_GENODEF_13
 70
     0
  0
APPID
  2
GENIUS_GENOBJ-N-FIL_13
 70
     0
  0
APPID
  2
GENIUS_GENFIL_13
 70
     0
  0
APPID
  2
GENIUS_GENOBJ-N-CHA_13
 70
     0
  0
ENDTAB
  0
TABLE
  2
DIMSTYLE
 70
     1
  0
DIMSTYLE
  2
STANDARD
 70
     0
  3

  4

  5

  6

  7

 40
1.0
 41
0.18
 42
0.0625
 43
0.38
 44
0.18
 45
0.0
 46
0.0
 47
0.0
 48
0.0
140
0.18
141
0.09
142
0.0
143
25.399999999999999
144
1.0
145
0.0
146
1.0
147
0.09
 71
     0
 72
     0
 73
     1
 74
     1
 75
     0
 76
     0
 77
     0
 78
     0
170
     0
171
     2
172
     0
173
     0
174
     0
175
     0
176
     0
177
     0
178
     0
  0
ENDTAB
  0
ENDSEC
  0
SECTION
  2
BLOCKS
  0
BLOCK
  8
0
  2
$MODEL_SPACE
 70
     0
 10
0.0
 20
0.0
 30
0.0
  3
$MODEL_SPACE
  1

  0
ENDBLK
  5
281
  8
0
  0
BLOCK
 67
     1
  8
0
  2
$PAPER_SPACE
 70
     0
 10
0.0
 20
0.0
 30
0.0
  3
$PAPER_SPACE
  1

  0
ENDBLK
  5
27F
 67
     1
  8
0
  0
ENDSEC
  0
SECTION
  2
ENTITIES
  0
LINE
  5
1FB
  8
1
 10
91.801950646707965
 20
84.163781782391325
 30
0.0
 11
91.801950646708008
 21
23.8637817823913
 31
0.0
  0
LINE
  5
1FC
  8
3
 10
89.661102513799392
 20
46.8637817823913
 30
0.0
 11
89.661102513799335
 21
29.107737904740361
 31
0.0
  0
LINE
  5
1FD
  8
3
 10
93.942798779616567
 20
46.8637817823913
 30
0.0
 11
93.942798779616624
 21
29.10773790474024
 31
0.0
  0
LINE
  5
1FE
  8
0
 10
93.801950646707994
 20
28.8637817823913
 30
0.0
 11
94.801950646707994
 21
30.595832589960189
 31
0.0
  0
LINE
  5
1FF
  8
0
 10
89.801950646707994
 20
28.8637817823913
 30
0.0
 11
88.801950646707994
 21
30.595832589960189
 31
0.0
  0
LINE
  5
200
  8
0
 10
89.801950646707994
 20
28.8637817823913
 30
0.0
 11
91.801950646708008
 21
28.8637817823913
 31
0.0
  0
LINE
  5
201
  8
0
 10
93.801950646707994
 20
28.8637817823913
 30
0.0
 11
91.801950646708008
 21
28.8637817823913
 31
0.0
  0
ARC
  5
202
  8
0
 10
74.301950646708008
 20
75.888906956644917
 30
0.0
 40
2.5
 50
95.070637305889605
 51
180.0
  0
ARC
  5
203
  8
0
 10
74.301950646708008
 20
71.308064767102621
 30
0.0
 40
2.5
 50
180.0
 51
274.94542971788383
  0
LINE
  5
204
  8
0
 10
71.801950646708008
 20
71.308064767102621
 30
0.0
 11
71.801950646708008
 21
75.888906956644917
 31
0.0
  0
LINE
  5
205
  8
0
 10
98.201950646707985
 20
65.288372494157045
 30
0.0
 11
98.201950646707985
 21
50.163781782391311
 31
0.0
  0
LINE
  5
206
  8
0
 10
85.401950646707974
 20
65.288372494157045
 30
0.0
 11
85.401950646707974
 21
50.163781782391311
 31
0.0
  0
LINE
  5
207
  8
0
 10
85.401950646707974
 20
50.163781782391311
 30
0.0
 11
98.201950646707985
 21
50.163781782391311
 31
0.0
  0
LINE
  5
208
  8
0
 10
97.201950646707985
 20
49.163781782391311
 30
0.0
 11
86.401950646707974
 21
49.163781782391311
 31
0.0
  0
LINE
  5
209
  8
0
 10
88.801950646707994
 20
48.8637817823913
 30
0.0
 11
88.801950646707994
 21
30.595832589960189
 31
0.0
  0
LINE
  5
20A
  8
0
 10
94.801950646707994
 20
48.8637817823913
 30
0.0
 11
94.801950646707994
 21
30.595832589960189
 31
0.0
  0
LINE
  5
20B
  8
0
 10
88.801950646707994
 20
30.595832589960189
 30
0.0
 11
91.801950646708008
 21
30.595832589960189
 31
0.0
  0
LINE
  5
20C
  8
0
 10
94.801950646707994
 20
30.595832589960189
 30
0.0
 11
91.801950646708008
 21
30.595832589960189
 31
0.0
  0
LINE
  5
20D
  8
0
 10
87.801950646708008
 20
48.8637817823913
 30
0.0
 11
91.801950646708008
 21
48.8637817823913
 31
0.0
  0
LINE
  5
20E
  8
0
 10
88.801950646707994
 20
46.8637817823913
 30
0.0
 11
91.801950646708008
 21
46.8637817823913
 31
0.0
  0
LINE
  5
20F
  8
3
 10
89.661102513799392
 20
46.8637817823913
 30
0.0
 11
88.801950646707994
 21
47.722933649482741
 31
0.0
  0
LINE
  5
210
  8
0
 10
87.801950646708008
 20
48.8637817823913
 30
0.0
 11
87.801950646708008
 21
49.163781782391311
 31
0.0
  0
LINE
  5
211
  8
0
 10
86.401950646707974
 20
49.163781782391311
 30
0.0
 11
85.401950646707974
 21
50.163781782391311
 31
0.0
  0
LINE
  5
212
  8
3
 10
93.942798779616567
 20
46.8637817823913
 30
0.0
 11
94.801950646707994
 21
47.722933649482741
 31
0.0
  0
LINE
  5
213
  8
0
 10
95.801950646708008
 20
48.8637817823913
 30
0.0
 11
95.801950646708008
 21
49.163781782391311
 31
0.0
  0
LINE
  5
214
  8
0
 10
95.801950646708008
 20
48.8637817823913
 30
0.0
 11
91.801950646708008
 21
48.8637817823913
 31
0.0
  0
LINE
  5
215
  8
0
 10
94.801950646707994
 20
46.8637817823913
 30
0.0
 11
91.801950646708008
 21
46.8637817823913
 31
0.0
  0
LINE
  5
216
  8
0
 10
97.201950646707985
 20
49.163781782391311
 30
0.0
 11
98.201950646707985
 21
50.163781782391311
 31
0.0
  0
ARC
  5
217
  8
0
 10
91.801950646707965
 20
-121.3362182176086
 30
0.0
 40
200.49999999999989
 50
84.929362694109443
 51
95.070637305890514
  0
ARC
  5
218
  8
0
 10
81.401950646707974
 20
65.288372494157045
 30
0.0
 40
4.0
 50
0.0
 51
93.033865909682035
  0
ARC
  5
219
  8
0
 10
91.801950646707965
 20
-130.93621821760871
 30
0.0
 40
200.49999999999989
 50
93.033865909682433
 51
94.945429717883314
  0
LINE
  5
21A
  8
0
 10
111.80195064670799
 20
75.888906956644973
 30
0.0
 11
111.80195064670799
 21
71.308064767102621
 31
0.0
  0
ARC
  5
21B
  8
0
 10
91.801950646707965
 20
-130.93621821760871
 30
0.0
 40
200.49999999999989
 50
85.054570282116643
 51
86.966134090317524
  0
ARC
  5
21C
  8
0
 10
102.2019506467079
 20
65.288372494157045
 30
0.0
 40
4.0
 50
86.966134090317524
 51
179.99999999999989
  0
ARC
  5
21D
  8
0
 10
109.30195064670799
 20
71.308064767102621
 30
0.0
 40
2.5
 50
265.0545702821168
 51
0.0
  0
ARC
  5
21E
  8
0
 10
109.30195064670799
 20
75.888906956644917
 30
0.0
 40
2.5
 50
0.0000000000013028
 51
84.929362694109756
  0
LINE
  5
21F
  8
1
 10
66.801950646708065
 20
109.0483221672521
 30
0.0
 11
116.80195064670799
 21
109.0483221672521
 31
0.0
  0
ARC
  5
220
  8
0
 10
74.301950646708065
 20
106.3759968653344
 30
0.0
 40
2.5
 50
180.00000000000119
 51
261.32289028486912
  0
ARC
  5
221
  8
0
 10
74.301950646708065
 20
111.7206474691698
 30
0.0
 40
2.5
 50
98.677109715130825
 51
179.99999999999861
  0
LINE
  5
222
  8
0
 10
71.801950646708065
 20
109.0483221672521
 30
0.0
 11
71.801950646708065
 21
106.3759968653344
 31
0.0
  0
LINE
  5
223
  8
0
 10
71.801950646708065
 20
109.0483221672521
 30
0.0
 11
71.801950646708065
 21
111.7206474691698
 31
0.0
  0
ARC
  5
224
  8
0
 10
91.801950646708008
 20
221.04538099078241
 30
0.0
 40
118.4970588235303
 50
261.32289028486912
 51
278.67710971513088
  0
ARC
  5
225
  8
0
 10
91.801950646708008
 20
-2.9487366562781849
 30
0.0
 40
118.4970588235303
 50
81.322890284869075
 51
98.677109715130911
  0
LINE
  5
226
  8
1
 10
91.801950646708008
 20
120.5483221672521
 30
0.0
 11
91.801950646708008
 21
97.548322167252081
 31
0.0
  0
LINE
  5
227
  8
0
 10
111.80195064670799
 20
106.3759968653344
 30
0.0
 11
111.80195064670799
 21
109.0483221672521
 31
0.0
  0
ARC
  5
228
  8
0
 10
109.30195064670799
 20
106.3759968653344
 30
0.0
 40
2.5
 50
278.67710971513083
 51
0.0000000000013231
  0
ARC
  5
229
  8
0
 10
109.30195064670799
 20
111.7206474691698
 30
0.0
 40
2.5
 50
359.99999999999869
 51
81.32289028486916
  0
LINE
  5
22A
  8
0
 10
111.80195064670799
 20
111.7206474691698
 30
0.0
 11
111.80195064670799
 21
109.0483221672521
 31
0.0
  0
ENDSEC
  0
EOF
