  0
SECTION
  2
HEADER
  9
$ACADVER
  1
AC1009
  9
$INSBASE
 10
0.0
 20
0.0
 30
0.0
  9
$EXTMIN
 10
33.296585558327592
 20
32.491379136326032
 30
-0.0015258207003583
  9
$EXTMAX
 10
156.70681039826789
 20
109.2034152012823
 30
0.0000000349246037
  9
$LIMMIN
 10
0.0
 20
0.0
  9
$LIMMAX
 10
187.5
 20
135.0
  9
$ORTHOMODE
 70
     1
  9
$REGENMODE
 70
     1
  9
$FILLMODE
 70
     1
  9
$QTEXTMODE
 70
     0
  9
$MIRRTEXT
 70
     0
  9
$DRAGMODE
 70
     2
  9
$LTSCALE
 40
5.0
  9
$OSMODE
 70
   231
  9
$ATTMODE
 70
     1
  9
$TEXTSIZE
 40
4.000000000000048
  9
$TRACEWID
 40
0.05
  9
$TEXTSTYLE
  7
STANDARD
  9
$CLAYER
  8
0
  9
$CELTYPE
  6
BYLAYER
  9
$CECOLOR
 62
   256
  9
$DIMSCALE
 40
0.5
  9
$DIMASZ
 40
3.0
  9
$DIMEXO
 40
2.0
  9
$DIMDLI
 40
0.38
  9
$DIMRND
 40
0.0
  9
$DIMDLE
 40
0.0
  9
$DIMEXE
 40
2.0
  9
$DIMTP
 40
0.0
  9
$DIMTM
 40
0.0
  9
$DIMTXT
 40
3.2000000000000002
  9
$DIMCEN
 40
0.0
  9
$DIMTSZ
 40
0.0
  9
$DIMTOL
 70
     0
  9
$DIMLIM
 70
     0
  9
$DIMTIH
 70
     0
  9
$DIMTOH
 70
     0
  9
$DIMSE1
 70
     0
  9
$DIMSE2
 70
     0
  9
$DIMTAD
 70
     1
  9
$DIMZIN
 70
     0
  9
$DIMBLK
  1

  9
$DIMASO
 70
     1
  9
$DIMSHO
 70
     0
  9
$DIMPOST
  1

  9
$DIMAPOST
  1

  9
$DIMALT
 70
     0
  9
$DIMALTD
 70
     2
  9
$DIMALTF
 40
25.399999999999999
  9
$DIMLFAC
 40
1.0
  9
$DIMTOFL
 70
     1
  9
$DIMTVP
 40
1.6000000000000001
  9
$DIMTIX
 70
     1
  9
$DIMSOXD
 70
     0
  9
$DIMSAH
 70
     0
  9
$DIMBLK1
  1

  9
$DIMBLK2
  1

  9
$DIMSTYLE
  2
STANDARD
  9
$DIMCLRD
 70
     0
  9
$DIMCLRE
 70
     0
  9
$DIMCLRT
 70
     0
  9
$DIMTFAC
 40
1.0
  9
$DIMGAP
 40
0.09
  9
$LUNITS
 70
     2
  9
$LUPREC
 70
     4
  9
$SKETCHINC
 40
0.1
  9
$FILLETRAD
 40
1.5
  9
$AUNITS
 70
     0
  9
$AUPREC
 70
     4
  9
$MENU
  1
E:\r13\win\SUPPORT\ACAD
  9
$ELEVATION
 40
0.0
  9
$PELEVATION
 40
0.0
  9
$THICKNESS
 40
0.0
  9
$LIMCHECK
 70
     0
  9
$BLIPMODE
 70
     1
  9
$CHAMFERA
 40
0.0
  9
$CHAMFERB
 40
0.0
  9
$SKPOLY
 70
     0
  9
$TDCREATE
 40
2449839.7851736108
  9
$TDUPDATE
 40
2453236.8316896302
  9
$TDINDWG
 40
0.0001350926
  9
$TDUSRTIMER
 40
0.0001350926
  9
$USRTIMER
 70
     1
  9
$ANGBASE
 50
0.0
  9
$ANGDIR
 70
     0
  9
$PDMODE
 70
     0
  9
$PDSIZE
 40
0.0
  9
$PLINEWID
 40
0.0
  9
$COORDS
 70
     0
  9
$SPLFRAME
 70
     0
  9
$SPLINETYPE
 70
     6
  9
$SPLINESEGS
 70
     8
  9
$ATTDIA
 70
     0
  9
$ATTREQ
 70
     1
  9
$HANDLING
 70
-16383
  9
$HANDSEED
  5
178
  9
$SURFTAB1
 70
     6
  9
$SURFTAB2
 70
     6
  9
$SURFTYPE
 70
     6
  9
$SURFU
 70
     6
  9
$SURFV
 70
     6
  9
$UCSNAME
  2

  9
$UCSORG
 10
0.0
 20
0.0
 30
0.0
  9
$UCSXDIR
 10
1.0
 20
0.0
 30
0.0
  9
$UCSYDIR
 10
0.0
 20
1.0
 30
0.0
  9
$PUCSNAME
  2

  9
$PUCSORG
 10
0.0
 20
0.0
 30
0.0
  9
$PUCSXDIR
 10
1.0
 20
0.0
 30
0.0
  9
$PUCSYDIR
 10
0.0
 20
1.0
 30
0.0
  9
$USERI1
 70
     0
  9
$USERI2
 70
     1
  9
$USERI3
 70
     1
  9
$USERI4
 70
     0
  9
$USERI5
 70
     0
  9
$USERR1
 40
0.0
  9
$USERR2
 40
0.0
  9
$USERR3
 40
0.0
  9
$USERR4
 40
0.0
  9
$USERR5
 40
0.0
  9
$WORLDVIEW
 70
     1
  9
$SHADEDGE
 70
     3
  9
$SHADEDIF
 70
    70
  9
$TILEMODE
 70
     1
  9
$MAXACTVP
 70
    16
  9
$PLIMCHECK
 70
     0
  9
$PEXTMIN
 10
1.0000000000000000E+020
 20
1.0000000000000000E+020
 30
1.0000000000000000E+020
  9
$PEXTMAX
 10
-1.0000000000000000E+020
 20
-1.0000000000000000E+020
 30
-1.0000000000000000E+020
  9
$PLIMMIN
 10
0.0
 20
0.0
  9
$PLIMMAX
 10
12.0
 20
9.0
  9
$UNITMODE
 70
     0
  9
$VISRETAIN
 70
     0
  9
$PLINEGEN
 70
     0
  9
$PSLTSCALE
 70
     0
  0
ENDSEC
  0
SECTION
  2
TABLES
  0
TABLE
  2
VPORT
 70
     3
  0
VPORT
  2
*ACTIVE
 70
     0
 10
0.0
 20
0.0
 11
1.0
 21
1.0
 12
95.001697978297784
 22
70.847397168804207
 13
0.0
 23
0.0
 14
5.0
 24
5.0
 15
5.0
 25
5.0
 16
0.0
 26
0.0
 36
1.0
 17
0.0
 27
0.0
 37
0.0
 40
146.9879459048822
 41
0.9407114624505927
 42
50.0
 43
0.0
 44
0.0
 50
0.0
 51
0.0
 71
     0
 72
   500
 73
     1
 74
     0
 75
     0
 76
     0
 77
     0
 78
     2
  0
ENDTAB
  0
TABLE
  2
LTYPE
 70
     3
  0
LTYPE
  2
CONTINUOUS
 70
     0
  3
Solid Line
 72
    65
 73
     0
 40
0.0
  0
LTYPE
  2
CENTER
 70
     0
  3
____ _ ____ _ ____ _ ____ _ ____ _ ____ _ ____
 72
    65
 73
     4
 40
2.0
 49
1.25
 49
-0.25
 49
0.25
 49
-0.25
  0
LTYPE
  2
HIDDEN
 70
     0
  3
_ _ _ _ _ _ _ _ _ _ _ _ _ _ _ _ _ _ _ _ _ _ _
 72
    65
 73
     2
 40
0.375
 49
0.25
 49
-0.125
  0
ENDTAB
  0
TABLE
  2
LAYER
 70
     3
  0
LAYER
  2
0
 70
     0
 62
     7
  6
CONTINUOUS
  0
LAYER
  2
1
 70
     0
 62
     1
  6
CENTER
  0
LAYER
  2
2
 70
     0
 62
     2
  6
HIDDEN
  0
ENDTAB
  0
TABLE
  2
STYLE
 70
     1
  0
STYLE
  2
STANDARD
 70
     0
 40
0.0
 41
1.0
 50
0.0
 71
     0
 42
4.000000000000048
  3
TXT
  4
BIGFONT
  0
ENDTAB
  0
TABLE
  2
VIEW
 70
     1
  0
VIEW
  2
ALL
 70
     0
 40
135.0
 10
110.4957983193277
 20
67.5
 41
0.0
 11
0.0
 21
0.0
 31
1.0
 12
0.0
 22
0.0
 32
0.0
 42
0.0
 43
0.0
 44
0.0
 50
0.0
 71
     0
  0
ENDTAB
  0
TABLE
  2
UCS
 70
     0
  0
ENDTAB
  0
TABLE
  2
APPID
 70
     1
  0
APPID
  2
ACAD
 70
     0
  0
ENDTAB
  0
TABLE
  2
DIMSTYLE
 70
     1
  0
DIMSTYLE
  2
STANDARD
 70
     0
  3

  4

  5

  6

  7

 40
1.0
 41
0.18
 42
0.0625
 43
0.38
 44
0.18
 45
0.0
 46
0.0
 47
0.0
 48
0.0
140
0.18
141
0.09
142
0.0
143
25.399999999999999
144
1.0
145
0.0
146
1.0
147
0.09
 71
     0
 72
     0
 73
     1
 74
     1
 75
     0
 76
     0
 77
     0
 78
     0
170
     0
171
     2
172
     0
173
     0
174
     0
175
     0
176
     0
177
     0
178
     0
  0
ENDTAB
  0
ENDSEC
  0
SECTION
  2
BLOCKS
  0
BLOCK
  8
0
  2
$MODEL_SPACE
 70
     0
 10
0.0
 20
0.0
 30
0.0
  3
$MODEL_SPACE
  1

  0
ENDBLK
  5
120
  8
0
  0
BLOCK
 67
     1
  8
0
  2
$PAPER_SPACE
 70
     0
 10
0.0
 20
0.0
 30
0.0
  3
$PAPER_SPACE
  1

  0
ENDBLK
  5
11E
 67
     1
  8
0
  0
ENDSEC
  0
SECTION
  2
ENTITIES
  0
ARC
  5
35
  8
2
 10
99.899999999999935
 20
104.89999999999991
 30
0.0
 40
1.5
 50
360.0
 51
89.999999999999986
  0
ARC
  5
36
  8
2
 10
99.900000000000006
 20
95.099999999999966
 30
0.0
 40
1.5
 50
270.0
 51
360.0
  0
ARC
  5
37
  8
2
 10
90.100000000000094
 20
95.09999999999998
 30
0.0
 40
1.5
 50
179.9999999999998
 51
269.99999999999977
  0
ARC
  5
38
  8
2
 10
90.100000000000037
 20
104.89999999999991
 30
0.0
 40
1.5
 50
89.999999999999986
 51
179.99999999999989
  0
LINE
  5
39
  8
2
 10
99.900000000000006
 20
93.599999999999952
 30
0.0
 11
90.100000000000094
 21
93.599999999999966
 31
0.0
  0
LINE
  5
3A
  8
2
 10
99.899999999999935
 20
106.39999999999991
 30
0.0
 11
90.100000000000037
 21
106.39999999999991
 31
0.0
  0
LINE
  5
3B
  8
2
 10
101.39999999999991
 20
104.89999999999991
 30
0.0
 11
101.40000000000001
 21
95.099999999999966
 31
0.0
  0
LINE
  5
3C
  8
2
 10
88.600000000000037
 20
104.89999999999991
 30
0.0
 11
88.600000000000094
 21
95.09999999999998
 31
0.0
  0
ARC
  5
3D
  8
0
 10
76.500000000000043
 20
96.27190237110824
 30
0.0
 40
1.5
 50
179.99999999999989
 51
260.9019980759474
  0
ARC
  5
3E
  8
0
 10
76.500000000000014
 20
103.7280976288917
 30
0.0
 40
1.5
 50
99.098001924052653
 51
180.0000000000006
  0
ARC
  5
3F
  8
0
 10
95.000000000000057
 20
211.79705882352931
 30
0.0
 40
118.4970588235293
 50
260.90199807594593
 51
279.09800192405407
  0
ARC
  5
40
  8
0
 10
94.999999999999986
 20
-11.79705882353035
 30
0.0
 40
118.4970588235303
 50
80.901998075945954
 51
99.098001924054074
  0
ARC
  5
41
  8
0
 10
100.39999999999991
 20
36.299999999999969
 30
0.0
 40
1.0
 50
269.99999999999977
 51
360.0
  0
ARC
  5
42
  8
0
 10
89.599999999999994
 20
36.29999999999999
 30
0.0
 40
1.0
 50
179.99999999999989
 51
269.99999999999977
  0
ARC
  5
43
  8
0
 10
84.599999999999952
 20
50.724590711765742
 30
0.0
 40
4.0
 50
360.0
 51
93.033865909682035
  0
ARC
  5
44
  8
0
 10
105.39999999999991
 20
50.724590711765742
 30
0.0
 40
4.0
 50
86.966134090317524
 51
179.99999999999989
  0
ARC
  5
45
  8
0
 10
76.499999999999986
 20
61.13820933883499
 30
0.0
 40
1.5
 50
95.33419438933069
 51
179.99999999999989
  0
ARC
  5
46
  8
0
 10
76.499999999999986
 20
55.651062637014128
 30
0.0
 40
1.5
 50
179.99999999999989
 51
275.25474912037657
  0
ARC
  5
47
  8
0
 10
94.999999999999957
 20
-145.5
 30
0.0
 40
200.49999999999989
 50
93.033865909682433
 51
95.254749120375692
  0
LINE
  5
48
  8
0
 10
99.499999999999986
 20
35.29999999999999
 30
0.0
 11
99.499999999999986
 21
34.999999999999979
 31
0.0
  0
LINE
  5
49
  8
0
 10
90.499999999999986
 20
35.29999999999999
 30
0.0
 11
90.499999999999986
 21
34.999999999999979
 31
0.0
  0
LINE
  5
4A
  8
0
 10
101.39999999999991
 20
50.724590711765742
 30
0.0
 11
101.39999999999991
 21
36.299999999999969
 31
0.0
  0
LINE
  5
4B
  8
0
 10
88.599999999999966
 20
50.724590711765742
 30
0.0
 11
88.600000000000009
 21
36.29999999999999
 31
0.0
  0
ARC
  5
4C
  8
0
 10
94.999999999999957
 20
-145.5
 30
0.0
 40
200.49999999999989
 50
84.74525087962428
 51
86.966134090317524
  0
ARC
  5
4D
  8
0
 10
94.999999999999957
 20
-137.0
 30
0.0
 40
200.49999999999989
 50
84.665805610669139
 51
95.334194389330833
  0
LINE
  5
4E
  8
0
 10
100.39999999999991
 20
35.299999999999969
 30
0.0
 11
89.599999999999994
 21
35.29999999999999
 31
0.0
  0
LINE
  5
4F
  8
1
 10
94.999999999999986
 20
66.0
 30
0.0
 11
94.999999999999986
 21
32.499999999999979
 31
0.0
  0
LINE
  5
50
  8
1
 10
95.000000000000014
 20
109.1999999999999
 30
0.0
 11
95.000000000000014
 21
90.799999999999955
 31
0.0
  0
LINE
  5
51
  8
0
 10
115.0
 20
103.7280976288917
 30
0.0
 11
115.0
 21
96.271902371108155
 31
0.0
  0
LINE
  5
52
  8
0
 10
75.000000000000014
 20
96.27190237110824
 30
0.0
 11
75.000000000000043
 21
103.7280976288917
 31
0.0
  0
LINE
  5
53
  8
0
 10
99.499999999999986
 20
34.999999999999979
 30
0.0
 11
90.499999999999986
 21
34.999999999999979
 31
0.0
  0
LINE
  5
54
  8
0
 10
115.0
 20
61.13820933883499
 30
0.0
 11
115.0
 21
55.651062637014192
 31
0.0
  0
LINE
  5
55
  8
0
 10
74.999999999999986
 20
55.651062637014128
 30
0.0
 11
74.999999999999986
 21
61.13820933883499
 31
0.0
  0
ARC
  5
56
  8
0
 10
113.5
 20
103.7280976288917
 30
0.0
 40
1.5
 50
360.0
 51
80.901998075946054
  0
ARC
  5
57
  8
0
 10
113.5
 20
96.271902371108155
 30
0.0
 40
1.5
 50
279.0980019240551
 51
360.0
  0
ARC
  5
58
  8
0
 10
113.5
 20
61.13820933883499
 30
0.0
 40
1.5
 50
360.0
 51
84.665805610669281
  0
ARC
  5
59
  8
0
 10
113.5
 20
55.651062637014192
 30
0.0
 40
1.5
 50
264.74525087962462
 51
360.0
  0
LINE
  5
5A
  8
2
 10
91.999999999999986
 20
35.458500000000079
 30
0.0
 11
91.999999999999986
 21
52.999999999999979
 31
0.0
  0
LINE
  5
5B
  8
2
 10
92.541499999999914
 20
35.999999999999979
 30
0.0
 11
92.541499999999914
 21
57.999999999999979
 31
0.0
  0
LINE
  5
5C
  8
2
 10
97.458500000000086
 20
35.999999999999979
 30
0.0
 11
97.458500000000086
 21
57.999999999999979
 31
0.0
  0
LINE
  5
5D
  8
2
 10
97.999999999999986
 20
35.458500000000079
 30
0.0
 11
97.999999999999986
 21
52.999999999999979
 31
0.0
  0
LINE
  5
5E
  8
2
 10
91.999999999999986
 20
52.999999999999979
 30
0.0
 11
97.999999999999986
 21
52.999999999999979
 31
0.0
  0
LINE
  5
5F
  8
2
 10
92.541499999999914
 20
57.999999999999979
 30
0.0
 11
97.458500000000086
 21
57.999999999999979
 31
0.0
  0
LINE
  5
60
  8
2
 10
92.541499999999928
 20
57.999999999999957
 30
0.0
 11
95.000000000000014
 21
59.477215831879292
 31
0.0
  0
LINE
  5
61
  8
2
 10
97.458500000000086
 20
58.000000000000007
 30
0.0
 11
95.000000000000014
 21
59.477215831879292
 31
0.0
  0
LINE
  5
62
  8
2
 10
97.999999999999986
 20
52.999999999999979
 30
0.0
 11
97.458500000000058
 21
53.937905512298371
 31
0.0
  0
LINE
  5
63
  8
2
 10
92.000000000000085
 20
52.999999999999979
 30
0.0
 11
92.541500000000013
 21
53.937905512298371
 31
0.0
  0
LINE
  5
64
  8
2
 10
91.541499999999886
 20
34.999999999999979
 30
0.0
 11
92.541499999999928
 21
36.000000000000007
 31
0.0
  0
LINE
  5
65
  8
2
 10
97.458500000000086
 20
35.999999999999979
 30
0.0
 11
98.458500000000114
 21
34.999999999999979
 31
0.0
  0
LINE
  5
66
  8
2
 10
92.541499999999914
 20
35.999999999999979
 30
0.0
 11
97.458500000000058
 21
35.999999999999979
 31
0.0
  0
LINE
  5
67
  8
0
 10
144.7999999999999
 20
63.5
 30
0.0
 11
155.19999999999999
 21
63.5
 31
0.0
  0
LINE
  5
68
  8
0
 10
146.49999999999989
 20
54.151062637014213
 30
0.0
 11
153.5
 21
54.151062637014213
 31
0.0
  0
LINE
  5
69
  8
0
 10
143.2999999999999
 20
62.0
 30
0.0
 11
143.2999999999999
 21
56.224590711765742
 31
0.0
  0
LINE
  5
6A
  8
0
 10
156.69999999999999
 20
62.0
 30
0.0
 11
156.69999999999999
 21
56.224590711765742
 31
0.0
  0
LINE
  5
6B
  8
2
 10
147.5414999999999
 20
35.999999999999979
 30
0.0
 11
152.45849999999999
 21
35.999999999999979
 31
0.0
  0
LINE
  5
6C
  8
2
 10
152.45849999999999
 20
35.999999999999979
 30
0.0
 11
153.4585000000001
 21
34.999999999999979
 31
0.0
  0
LINE
  5
6D
  8
2
 10
146.54149999999979
 20
34.999999999999979
 30
0.0
 11
147.5414999999999
 21
36.000000000000007
 31
0.0
  0
LINE
  5
6E
  8
2
 10
153.0
 20
35.458500000000079
 30
0.0
 11
153.0
 21
52.999999999999979
 31
0.0
  0
LINE
  5
6F
  8
2
 10
152.45849999999999
 20
35.999999999999979
 30
0.0
 11
152.45849999999999
 21
57.999999999999979
 31
0.0
  0
LINE
  5
70
  8
2
 10
147.5414999999999
 20
35.999999999999979
 30
0.0
 11
147.5414999999999
 21
57.999999999999979
 31
0.0
  0
LINE
  5
71
  8
2
 10
147.0
 20
35.458500000000079
 30
0.0
 11
147.0
 21
52.999999999999979
 31
0.0
  0
LINE
  5
72
  8
0
 10
154.49999999999989
 20
34.999999999999979
 30
0.0
 11
145.5
 21
34.999999999999979
 31
0.0
  0
LINE
  5
73
  8
1
 10
150.0
 20
66.0
 30
0.0
 11
150.0
 21
32.499999999999979
 31
0.0
  0
LINE
  5
74
  8
0
 10
155.39999999999989
 20
35.299999999999969
 30
0.0
 11
144.59999999999999
 21
35.29999999999999
 31
0.0
  0
LINE
  5
75
  8
0
 10
143.59999999999991
 20
55.324590711761978
 30
0.0
 11
143.59999999999999
 21
36.29999999999999
 31
0.0
  0
LINE
  5
76
  8
0
 10
156.39999999999989
 20
55.324590711766028
 30
0.0
 11
156.39999999999989
 21
36.299999999999969
 31
0.0
  0
LINE
  5
77
  8
0
 10
145.5
 20
35.29999999999999
 30
0.0
 11
145.5
 21
34.999999999999979
 31
0.0
  0
LINE
  5
78
  8
0
 10
154.49999999999989
 20
35.29999999999999
 30
0.0
 11
154.49999999999989
 21
34.999999999999979
 31
0.0
  0
ARC
  5
79
  8
0
 10
144.59999999999999
 20
36.29999999999999
 30
0.0
 40
1.0
 50
179.99999999999989
 51
269.99999999999977
  0
ARC
  5
7A
  8
0
 10
155.39999999999989
 20
36.299999999999969
 30
0.0
 40
1.0
 50
269.99999999999977
 51
360.0
  0
LINE
  5
7B
  8
2
 10
147.00000000000011
 20
52.999999999999979
 30
0.0
 11
147.54150000000001
 21
53.937905512298371
 31
0.0
  0
LINE
  5
7C
  8
2
 10
153.0
 20
52.999999999999979
 30
0.0
 11
152.45849999999999
 21
53.937905512298371
 31
0.0
  0
LINE
  5
7D
  8
2
 10
152.45849999999999
 20
58.000000000000007
 30
0.0
 11
150.0
 21
59.477215831879292
 31
0.0
  0
LINE
  5
7E
  8
2
 10
147.5414999999999
 20
57.999999999999957
 30
0.0
 11
150.0
 21
59.477215831879292
 31
0.0
  0
LINE
  5
7F
  8
2
 10
147.5414999999999
 20
57.999999999999979
 30
0.0
 11
152.45849999999999
 21
57.999999999999979
 31
0.0
  0
LINE
  5
80
  8
2
 10
147.0
 20
52.999999999999979
 30
0.0
 11
153.0
 21
52.999999999999979
 31
0.0
  0
LINE
  5
81
  8
0
 10
144.99999999999989
 20
61.0
 30
0.0
 11
144.99999999999989
 21
55.651062637014199
 31
0.0
  0
LINE
  5
82
  8
0
 10
155.0
 20
61.0
 30
0.0
 11
155.0
 21
55.651062637014199
 31
0.0
  0
LINE
  5
83
  8
0
 10
146.49999999999989
 20
62.5
 30
0.0
 11
153.5
 21
62.5
 31
0.0
  0
ARC
  5
84
  8
0
 10
146.49999999999989
 20
61.0
 30
0.0
 40
1.5
 50
90.0
 51
179.99999999999989
  0
ARC
  5
85
  8
0
 10
153.5
 20
61.0
 30
0.0
 40
1.5
 50
0.0
 51
90.0
  0
ARC
  5
86
  8
0
 10
153.5
 20
55.651062637014199
 30
0.0
 40
1.5
 50
270.0
 51
359.99999999999972
  0
ARC
  5
87
  8
0
 10
146.49999999999989
 20
55.651062637014199
 30
0.0
 40
1.5
 50
180.0000000000002
 51
269.99999999999989
  0
ARC
  5
88
  8
0
 10
144.7999999999999
 20
62.0
 30
0.0
 40
1.5
 50
90.0
 51
179.99999999999989
  0
ARC
  5
89
  8
0
 10
155.19999999999999
 20
62.0
 30
0.0
 40
1.5
 50
0.0
 51
90.0
  0
ARC
  5
8A
  8
0
 10
144.7999999999999
 20
56.224590711765742
 30
0.0
 40
1.5
 50
180.0000000000002
 51
251.3572453240842
  0
ARC
  5
8B
  8
0
 10
155.19999999999999
 20
56.224590711765742
 30
0.0
 40
1.5
 50
288.64282370852669
 51
0.0
  0
LINE
  5
8C
  8
0
 10
144.09998513462469
 20
62.848515873894769
 30
0.0
 11
145.08565431099711
 21
62.26871047602863
 31
0.0
  0
LINE
  5
8D
  8
0
 10
154.9143456890078
 20
62.268710476031558
 30
0.0
 11
155.9000148653752
 21
62.848515873894748
 31
0.0
  0
LINE
  5
8E
  8
0
 10
144.3204986057072
 20
54.80329608612638
 30
0.0
 11
146.02049860570719
 21
54.229768011374837
 31
0.0
  0
LINE
  5
8F
  8
0
 10
155.67950139429271
 20
54.80329608612638
 30
0.0
 11
153.9795013942927
 21
54.229768011374837
 31
0.0
  0
LINE
  5
99
  8
0
 10
34.320498605707201
 20
54.80329608612638
 30
0.0
 11
36.020498605707211
 21
54.229768011374837
 31
0.0
  0
LINE
  5
9A
  8
0
 10
45.679501394292707
 20
54.80329608612638
 30
0.0
 11
43.979501394292718
 21
54.229768011374837
 31
0.0
  0
LINE
  5
9B
  8
0
 10
35.08565431099214
 20
62.268710476031558
 30
0.0
 11
34.09998513462471
 21
62.848515873894748
 31
0.0
  0
LINE
  5
9C
  8
0
 10
45.900014865375248
 20
62.848515873894769
 30
0.0
 11
44.914345689002801
 21
62.26871047602863
 31
0.0
  0
ARC
  5
9D
  8
0
 10
34.799999999999919
 20
56.224590711765742
 30
0.0
 40
1.5
 50
180.0
 51
251.35717629147331
  0
ARC
  5
9E
  8
0
 10
45.199999999999982
 20
56.224590711765742
 30
0.0
 40
1.5
 50
288.64275467591568
 51
359.99999999999972
  0
ARC
  5
9F
  8
0
 10
34.799999999999947
 20
62.0
 30
0.0
 40
1.5
 50
90.000000000000028
 51
180.0
  0
ARC
  5
A0
  8
0
 10
45.199999999999982
 20
62.0
 30
0.0
 40
1.5
 50
0.0000000000000763
 51
90.000000000000028
  0
ARC
  5
A1
  8
0
 10
43.5
 20
55.651062637014199
 30
0.0
 40
1.5
 50
270.00000000000011
 51
359.99999999999972
  0
ARC
  5
A2
  8
0
 10
36.499999999999943
 20
55.651062637014199
 30
0.0
 40
1.5
 50
180.00000000000031
 51
270.0
  0
ARC
  5
A3
  8
0
 10
36.499999999999943
 20
61.0
 30
0.0
 40
1.5
 50
90.000000000000028
 51
180.0
  0
ARC
  5
A4
  8
0
 10
43.5
 20
61.0
 30
0.0
 40
1.5
 50
0.0000000000000763
 51
90.000000000000028
  0
LINE
  5
A5
  8
0
 10
43.5
 20
62.5
 30
0.0
 11
36.499999999999943
 21
62.5
 31
0.0
  0
LINE
  5
A6
  8
0
 10
34.999999999999943
 20
61.0
 30
0.0
 11
34.999999999999943
 21
55.651062637014199
 31
0.0
  0
LINE
  5
A7
  8
0
 10
45.0
 20
61.0
 30
0.0
 11
45.0
 21
55.651062637014199
 31
0.0
  0
LINE
  5
A8
  8
2
 10
42.999999999999972
 20
52.999999999999979
 30
0.0
 11
36.999999999999972
 21
52.999999999999979
 31
0.0
  0
LINE
  5
A9
  8
2
 10
42.458500000000043
 20
57.999999999999979
 30
0.0
 11
37.5414999999999
 21
57.999999999999979
 31
0.0
  0
LINE
  5
AA
  8
2
 10
42.458500000000043
 20
57.999999999999957
 30
0.0
 11
39.999999999999972
 21
59.477215831879292
 31
0.0
  0
LINE
  5
AB
  8
2
 10
37.5414999999999
 20
58.000000000000007
 30
0.0
 11
39.999999999999972
 21
59.477215831879292
 31
0.0
  0
LINE
  5
AC
  8
2
 10
36.999999999999972
 20
52.999999999999979
 30
0.0
 11
37.5414999999999
 21
53.937905512298371
 31
0.0
  0
LINE
  5
AD
  8
2
 10
42.999999999999851
 20
52.999999999999979
 30
0.0
 11
42.458499999999923
 21
53.937905512298371
 31
0.0
  0
ARC
  5
AE
  8
0
 10
34.599999999999987
 20
36.299999999999969
 30
0.0
 40
1.0
 50
180.0
 51
270.00000000000011
  0
ARC
  5
AF
  8
0
 10
45.399999999999942
 20
36.29999999999999
 30
0.0
 40
1.0
 50
270.00000000000011
 51
0.0000000000000509
  0
LINE
  5
B0
  8
0
 10
35.499999999999972
 20
35.29999999999999
 30
0.0
 11
35.499999999999972
 21
34.999999999999979
 31
0.0
  0
LINE
  5
B1
  8
0
 10
44.499999999999972
 20
35.29999999999999
 30
0.0
 11
44.499999999999972
 21
34.999999999999979
 31
0.0
  0
LINE
  5
B2
  8
0
 10
33.599999999999987
 20
55.324590711766028
 30
0.0
 11
33.599999999999987
 21
36.299999999999969
 31
0.0
  0
LINE
  5
B3
  8
0
 10
46.400000000000027
 20
55.324590711761978
 30
0.0
 11
46.399999999999949
 21
36.29999999999999
 31
0.0
  0
LINE
  5
B4
  8
0
 10
34.599999999999987
 20
35.299999999999969
 30
0.0
 11
45.399999999999942
 21
35.29999999999999
 31
0.0
  0
LINE
  5
B5
  8
1
 10
39.999999999999972
 20
66.0
 30
0.0
 11
39.999999999999972
 21
32.499999999999979
 31
0.0
  0
LINE
  5
B6
  8
0
 10
35.499999999999972
 20
34.999999999999979
 30
0.0
 11
44.499999999999972
 21
34.999999999999979
 31
0.0
  0
LINE
  5
B7
  8
2
 10
42.999999999999972
 20
35.458500000000079
 30
0.0
 11
42.999999999999972
 21
52.999999999999979
 31
0.0
  0
LINE
  5
B8
  8
2
 10
42.458500000000043
 20
35.999999999999979
 30
0.0
 11
42.458500000000043
 21
57.999999999999979
 31
0.0
  0
LINE
  5
B9
  8
2
 10
37.5414999999999
 20
35.999999999999979
 30
0.0
 11
37.5414999999999
 21
57.999999999999979
 31
0.0
  0
LINE
  5
BA
  8
2
 10
36.999999999999972
 20
35.458500000000079
 30
0.0
 11
36.999999999999972
 21
52.999999999999979
 31
0.0
  0
LINE
  5
BB
  8
2
 10
43.4585000000001
 20
34.999999999999979
 30
0.0
 11
42.458500000000043
 21
36.000000000000007
 31
0.0
  0
LINE
  5
BC
  8
2
 10
37.5414999999999
 20
35.999999999999979
 30
0.0
 11
36.541499999999843
 21
34.999999999999979
 31
0.0
  0
LINE
  5
BD
  8
2
 10
42.458500000000043
 20
35.999999999999979
 30
0.0
 11
37.5414999999999
 21
35.999999999999979
 31
0.0
  0
LINE
  5
BE
  8
0
 10
33.299999999999947
 20
62.0
 30
0.0
 11
33.299999999999919
 21
56.224590711765742
 31
0.0
  0
LINE
  5
BF
  8
0
 10
46.699999999999989
 20
62.0
 30
0.0
 11
46.699999999999989
 21
56.224590711765742
 31
0.0
  0
LINE
  5
C0
  8
0
 10
43.5
 20
54.151062637014213
 30
0.0
 11
36.499999999999943
 21
54.151062637014213
 31
0.0
  0
LINE
  5
C1
  8
0
 10
45.199999999999982
 20
63.5
 30
0.0
 11
34.799999999999947
 21
63.5
 31
0.0
  0
ENDSEC
  0
EOF
