  0
SECTION
  2
HEADER
  9
$ACADVER
  1
AC1009
  9
$INSBASE
 10
0.0
 20
0.0
 30
0.0
  9
$EXTMIN
 10
76.016156681959501
 20
93.515583648515872
 30
-0.0015258207003583
  9
$EXTMAX
 10
277.03647000775311
 20
188.53280114197389
 30
0.0000000349246037
  9
$LIMMIN
 10
0.0
 20
0.0
  9
$LIMMAX
 10
187.5
 20
135.0
  9
$ORTHOMODE
 70
     1
  9
$REGENMODE
 70
     1
  9
$FILLMODE
 70
     1
  9
$QTEXTMODE
 70
     0
  9
$MIRRTEXT
 70
     0
  9
$DRAGMODE
 70
     2
  9
$LTSCALE
 40
5.0
  9
$OSMODE
 70
   231
  9
$ATTMODE
 70
     1
  9
$TEXTSIZE
 40
4.000000000000048
  9
$TRACEWID
 40
0.05
  9
$TEXTSTYLE
  7
STANDARD
  9
$CLAYER
  8
0
  9
$CELTYPE
  6
BYLAYER
  9
$CECOLOR
 62
   256
  9
$DIMSCALE
 40
0.5
  9
$DIMASZ
 40
3.0
  9
$DIMEXO
 40
2.0
  9
$DIMDLI
 40
0.38
  9
$DIMRND
 40
0.0
  9
$DIMDLE
 40
0.0
  9
$DIMEXE
 40
2.0
  9
$DIMTP
 40
0.0
  9
$DIMTM
 40
0.0
  9
$DIMTXT
 40
3.2000000000000002
  9
$DIMCEN
 40
0.09
  9
$DIMTSZ
 40
0.0
  9
$DIMTOL
 70
     0
  9
$DIMLIM
 70
     0
  9
$DIMTIH
 70
     0
  9
$DIMTOH
 70
     0
  9
$DIMSE1
 70
     0
  9
$DIMSE2
 70
     0
  9
$DIMTAD
 70
     1
  9
$DIMZIN
 70
     0
  9
$DIMBLK
  1

  9
$DIMASO
 70
     1
  9
$DIMSHO
 70
     0
  9
$DIMPOST
  1

  9
$DIMAPOST
  1

  9
$DIMALT
 70
     0
  9
$DIMALTD
 70
     2
  9
$DIMALTF
 40
25.399999999999999
  9
$DIMLFAC
 40
1.0
  9
$DIMTOFL
 70
     0
  9
$DIMTVP
 40
1.6000000000000001
  9
$DIMTIX
 70
     1
  9
$DIMSOXD
 70
     0
  9
$DIMSAH
 70
     0
  9
$DIMBLK1
  1

  9
$DIMBLK2
  1

  9
$DIMSTYLE
  2
STANDARD
  9
$DIMCLRD
 70
     0
  9
$DIMCLRE
 70
     0
  9
$DIMCLRT
 70
     0
  9
$DIMTFAC
 40
1.0
  9
$DIMGAP
 40
0.09
  9
$LUNITS
 70
     2
  9
$LUPREC
 70
     4
  9
$SKETCHINC
 40
0.1
  9
$FILLETRAD
 40
1.8999999999999999
  9
$AUNITS
 70
     0
  9
$AUPREC
 70
     0
  9
$MENU
  1
E:\r13\win\SUPPORT\ACAD
  9
$ELEVATION
 40
0.0
  9
$PELEVATION
 40
0.0
  9
$THICKNESS
 40
0.0
  9
$LIMCHECK
 70
     0
  9
$BLIPMODE
 70
     1
  9
$CHAMFERA
 40
0.0
  9
$CHAMFERB
 40
0.0
  9
$SKPOLY
 70
     0
  9
$TDCREATE
 40
2451582.7077606479
  9
$TDUPDATE
 40
2453236.8347706818
  9
$TDINDWG
 40
0.0001349074
  9
$TDUSRTIMER
 40
0.0001349074
  9
$USRTIMER
 70
     1
  9
$ANGBASE
 50
0.0
  9
$ANGDIR
 70
     0
  9
$PDMODE
 70
     0
  9
$PDSIZE
 40
0.0
  9
$PLINEWID
 40
0.0
  9
$COORDS
 70
     0
  9
$SPLFRAME
 70
     0
  9
$SPLINETYPE
 70
     6
  9
$SPLINESEGS
 70
     8
  9
$ATTDIA
 70
     0
  9
$ATTREQ
 70
     1
  9
$HANDLING
 70
-16383
  9
$HANDSEED
  5
7D9
  9
$SURFTAB1
 70
     6
  9
$SURFTAB2
 70
     6
  9
$SURFTYPE
 70
     6
  9
$SURFU
 70
     6
  9
$SURFV
 70
     6
  9
$UCSNAME
  2

  9
$UCSORG
 10
0.0
 20
0.0
 30
0.0
  9
$UCSXDIR
 10
1.0
 20
0.0
 30
0.0
  9
$UCSYDIR
 10
0.0
 20
1.0
 30
0.0
  9
$PUCSNAME
  2

  9
$PUCSORG
 10
0.0
 20
0.0
 30
0.0
  9
$PUCSXDIR
 10
1.0
 20
0.0
 30
0.0
  9
$PUCSYDIR
 10
0.0
 20
1.0
 30
0.0
  9
$USERI1
 70
     0
  9
$USERI2
 70
     1
  9
$USERI3
 70
     1
  9
$USERI4
 70
     0
  9
$USERI5
 70
     0
  9
$USERR1
 40
0.0
  9
$USERR2
 40
0.0
  9
$USERR3
 40
0.0
  9
$USERR4
 40
0.0
  9
$USERR5
 40
0.0
  9
$WORLDVIEW
 70
     1
  9
$SHADEDGE
 70
     3
  9
$SHADEDIF
 70
    70
  9
$TILEMODE
 70
     1
  9
$MAXACTVP
 70
    16
  9
$PLIMCHECK
 70
     0
  9
$PEXTMIN
 10
1.0000000000000000E+020
 20
1.0000000000000000E+020
 30
1.0000000000000000E+020
  9
$PEXTMAX
 10
-1.0000000000000000E+020
 20
-1.0000000000000000E+020
 30
-1.0000000000000000E+020
  9
$PLIMMIN
 10
0.0
 20
0.0
  9
$PLIMMAX
 10
12.0
 20
9.0
  9
$UNITMODE
 70
     0
  9
$VISRETAIN
 70
     0
  9
$PLINEGEN
 70
     0
  9
$PSLTSCALE
 70
     0
  0
ENDSEC
  0
SECTION
  2
TABLES
  0
TABLE
  2
VPORT
 70
     3
  0
VPORT
  2
*ACTIVE
 70
     0
 10
0.0
 20
0.0
 11
1.0
 21
1.0
 12
176.52631334485631
 22
141.0241923952448
 13
0.0
 23
0.0
 14
5.0
 24
5.0
 15
5.0
 25
5.0
 16
0.0
 26
0.0
 36
1.0
 17
0.0
 27
0.0
 37
0.0
 40
239.4255660682621
 41
0.9407114624505929
 42
50.0
 43
0.0
 44
0.0
 50
0.0
 51
0.0
 71
     0
 72
   500
 73
     1
 74
     0
 75
     0
 76
     0
 77
     0
 78
     2
  0
ENDTAB
  0
TABLE
  2
LTYPE
 70
     3
  0
LTYPE
  2
CONTINUOUS
 70
     0
  3
Solid Line
 72
    65
 73
     0
 40
0.0
  0
LTYPE
  2
CENTER
 70
     0
  3
____ _ ____ _ ____ _ ____ _ ____ _ ____ _ ____
 72
    65
 73
     4
 40
2.0
 49
1.25
 49
-0.25
 49
0.25
 49
-0.25
  0
LTYPE
  2
HIDDEN
 70
     0
  3
_ _ _ _ _ _ _ _ _ _ _ _ _ _ _ _ _ _ _ _ _ _ _
 72
    65
 73
     2
 40
0.375
 49
0.25
 49
-0.125
  0
ENDTAB
  0
TABLE
  2
LAYER
 70
     4
  0
LAYER
  2
0
 70
     0
 62
     7
  6
CONTINUOUS
  0
LAYER
  2
1
 70
     0
 62
     1
  6
CENTER
  0
LAYER
  2
3
 70
     0
 62
     3
  6
CONTINUOUS
  0
LAYER
  2
2
 70
     0
 62
     2
  6
HIDDEN
  0
ENDTAB
  0
TABLE
  2
STYLE
 70
     1
  0
STYLE
  2
STANDARD
 70
     0
 40
0.0
 41
1.0
 50
0.0
 71
     0
 42
4.000000000000048
  3
TXT
  4
BIGFONT
  0
ENDTAB
  0
TABLE
  2
VIEW
 70
     1
  0
VIEW
  2
ALL
 70
     0
 40
135.0
 10
110.4957983193277
 20
67.5
 41
0.0
 11
0.0
 21
0.0
 31
1.0
 12
0.0
 22
0.0
 32
0.0
 42
0.0
 43
0.0
 44
0.0
 50
0.0
 71
     0
  0
ENDTAB
  0
TABLE
  2
UCS
 70
     0
  0
ENDTAB
  0
TABLE
  2
APPID
 70
     1
  0
APPID
  2
ACAD
 70
     0
  0
ENDTAB
  0
TABLE
  2
DIMSTYLE
 70
     1
  0
DIMSTYLE
  2
STANDARD
 70
     0
  3

  4

  5

  6

  7

 40
1.0
 41
0.18
 42
0.0625
 43
0.38
 44
0.18
 45
0.0
 46
0.0
 47
0.0
 48
0.0
140
0.18
141
0.09
142
0.0
143
25.399999999999999
144
1.0
145
0.0
146
1.0
147
0.09
 71
     0
 72
     0
 73
     1
 74
     1
 75
     0
 76
     0
 77
     0
 78
     0
170
     0
171
     2
172
     0
173
     0
174
     0
175
     0
176
     0
177
     0
178
     0
  0
ENDTAB
  0
ENDSEC
  0
SECTION
  2
BLOCKS
  0
BLOCK
  8
0
  2
$MODEL_SPACE
 70
     0
 10
0.0
 20
0.0
 30
0.0
  3
$MODEL_SPACE
  1

  0
ENDBLK
  5
781
  8
0
  0
BLOCK
 67
     1
  8
0
  2
$PAPER_SPACE
 70
     0
 10
0.0
 20
0.0
 30
0.0
  3
$PAPER_SPACE
  1

  0
ENDBLK
  5
77F
 67
     1
  8
0
  0
BLOCK
  8
0
  2
STDGX5
 70
     0
 10
0.0
 20
0.0
 30
0.0
  3
STDGX5
  1

  0
ENDBLK
  5
3DA
  8
0
  0
ENDSEC
  0
SECTION
  2
ENTITIES
  0
INSERT
  5
404
  8
0
  2
STDGX5
 10
0.0
 20
0.0
 30
0.0
 41
0.125
 42
0.125
 43
0.125
  0
INSERT
  5
405
  8
0
  2
STDGX5
 10
0.0
 20
0.0
 30
0.0
 41
0.125
 42
0.125
 43
0.125
  0
INSERT
  5
406
  8
0
  2
STDGX5
 10
34.375
 20
0.0
 30
0.0
 41
0.125
 42
0.125
 43
0.125
  0
INSERT
  5
407
  8
0
  2
STDGX5
 10
34.375
 20
0.0
 30
0.0
 41
0.125
 42
0.125
 43
0.125
  0
INSERT
  5
408
  8
0
  2
STDGX5
 10
0.0
 20
0.0
 30
0.0
 41
0.25
 42
0.25
 43
0.25
  0
INSERT
  5
409
  8
0
  2
STDGX5
 10
0.0
 20
0.0
 30
0.0
 41
0.25
 42
0.25
 43
0.25
  0
INSERT
  5
40A
  8
0
  2
STDGX5
 10
68.75
 20
0.0
 30
0.0
 41
0.25
 42
0.25
 43
0.25
  0
INSERT
  5
40B
  8
0
  2
STDGX5
 10
68.75
 20
0.0
 30
0.0
 41
0.25
 42
0.25
 43
0.25
  0
INSERT
  5
40D
  8
0
  2
STDGX5
 10
-17.5
 20
-50.0
 30
0.0
 41
0.1666666666666666
 42
0.1666666666666666
 43
0.1666666666666666
  0
INSERT
  5
40E
  8
0
  2
STDGX5
 10
-17.5
 20
-50.0
 30
0.0
 41
0.1666666666666666
 42
0.1666666666666666
 43
0.1666666666666666
  0
INSERT
  5
40F
  8
0
  2
STDGX5
 10
28.333333333333321
 20
-50.0
 30
0.0
 41
0.1666666666666666
 42
0.1666666666666666
 43
0.1666666666666666
  0
INSERT
  5
410
  8
0
  2
STDGX5
 10
28.333333333333321
 20
-50.0
 30
0.0
 41
0.1666666666666666
 42
0.1666666666666666
 43
0.1666666666666666
  0
INSERT
  5
412
  8
0
  2
STDGX5
 10
-17.5
 20
-50.0
 30
0.0
 41
0.1666666666666666
 42
0.1666666666666666
 43
0.1666666666666666
  0
INSERT
  5
413
  8
0
  2
STDGX5
 10
-17.5
 20
-50.0
 30
0.0
 41
0.1666666666666666
 42
0.1666666666666666
 43
0.1666666666666666
  0
INSERT
  5
414
  8
0
  2
STDGX5
 10
28.333333333333329
 20
-50.0
 30
0.0
 41
0.1666666666666666
 42
0.1666666666666666
 43
0.1666666666666666
  0
INSERT
  5
415
  8
0
  2
STDGX5
 10
28.333333333333329
 20
-50.0
 30
0.0
 41
0.1666666666666666
 42
0.1666666666666666
 43
0.1666666666666666
  0
INSERT
  5
416
  8
0
  2
STDGX5
 10
0.0
 20
0.0
 30
0.0
 41
0.5
 42
0.5
 43
0.5
  0
INSERT
  5
417
  8
0
  2
STDGX5
 10
0.0
 20
0.0
 30
0.0
 41
0.5
 42
0.5
 43
0.5
  0
INSERT
  5
418
  8
0
  2
STDGX5
 10
137.5
 20
0.0
 30
0.0
 41
0.5
 42
0.5
 43
0.5
  0
INSERT
  5
419
  8
0
  2
STDGX5
 10
137.5
 20
0.0
 30
0.0
 41
0.5
 42
0.5
 43
0.5
  0
CIRCLE
  5
6FE
  8
3
 10
123.5336647988636
 20
141.02704731412331
 30
0.0
 40
8.0
  0
CIRCLE
  5
6FF
  8
0
 10
123.5336647988636
 20
141.02704731412331
 30
0.0
 40
6.7731299999999983
  0
CIRCLE
  5
700
  8
0
 10
123.5336647988636
 20
141.02704731412331
 30
0.0
 40
8.9999999999999982
  0
ARC
  5
701
  8
0
 10
182.87921099307459
 20
121.7445104719244
 30
0.0
 40
29.135999999999989
 50
140.13385079145129
 51
183.8661492085493
  0
ARC
  5
702
  8
0
 10
64.18811860465263
 20
121.7445104719244
 30
0.0
 40
29.135999999999989
 50
356.1338507914499
 51
39.866149208550333
  0
LINE
  5
703
  8
1
 10
123.5336647988636
 20
188.52704731412331
 30
0.0
 11
123.5336647988636
 21
93.527047314123365
 31
0.0
  0
ARC
  5
704
  8
0
 10
123.5336647988636
 20
78.627447314123401
 30
0.0
 40
29.135999999999989
 50
68.133850791450371
 51
111.8661492085496
  0
ARC
  5
705
  8
0
 10
106.40795368807019
 20
117.455528166015
 30
0.0
 40
13.354000000000021
 50
169.9757526753036
 51
298.02424732469638
  0
ARC
  5
706
  8
0
 10
140.6593759096572
 20
117.4555281660148
 30
0.0
 40
13.35399999999991
 50
241.97575267530189
 51
10.024247324698409
  0
ARC
  5
707
  8
0
 10
123.5336647988636
 20
170.1630473141233
 30
0.0
 40
13.35399999999999
 50
25.975752675297549
 51
154.02424732470189
  0
LINE
  5
708
  8
1
 10
76.033664798863697
 20
141.02704731412331
 30
0.0
 11
171.0336647988637
 21
141.02704731412331
 31
0.0
  0
ARC
  5
709
  8
0
 10
86.856100169914214
 20
191.50938415632231
 30
0.0
 40
29.135999999999989
 50
284.13385079144831
 51
327.86614920855038
  0
ARC
  5
70A
  8
0
 10
95.823682140088181
 20
150.0305664622318
 30
0.0
 40
13.35399999999999
 50
97.975752675307874
 51
226.0242473246951
  0
ARC
  5
70B
  8
0
 10
151.24364745763921
 20
150.0305664622318
 30
0.0
 40
13.35399999999998
 50
313.97575267529942
 51
82.024247324693121
  0
ARC
  5
70C
  8
0
 10
160.21122942781301
 20
191.5093841563224
 30
0.0
 40
29.135999999999989
 50
212.13385079144939
 51
255.866149208552
  0
LINE
  5
70E
  8
2
 10
271.02801513864227
 20
134.02704731412331
 30
0.0
 11
271.02801513864227
 21
141.02704731412331
 31
0.0
  0
LINE
  5
70F
  8
2
 10
237.0280151386423
 20
130.02704731412331
 30
0.0
 11
237.0280151386423
 21
141.02704731412331
 31
0.0
  0
LINE
  5
710
  8
0
 10
272.02801513864227
 20
141.02704731412331
 30
0.0
 11
272.02801513864227
 21
129.02704731412331
 31
0.0
  0
LINE
  5
711
  8
0
 10
270.02801513864227
 20
157.27704731412331
 30
0.0
 11
270.02801513864227
 21
129.77704731412331
 31
0.0
  0
ARC
  5
712
  8
0
 10
406.26056056770187
 20
142.64887023825659
 30
0.0
 40
190.23260812698251
 50
168.14465559900111
 51
190.199661048048
  0
LINE
  5
713
  8
0
 10
270.02801513864227
 20
124.77704731412329
 30
0.0
 11
270.02801513864227
 21
152.27704731412331
 31
0.0
  0
LINE
  5
714
  8
0
 10
268.77801513864227
 20
141.02704731412331
 30
0.0
 11
268.77801513864227
 21
123.52704731412329
 31
0.0
  0
LINE
  5
715
  8
0
 10
240.0280151386423
 20
124.35785091486289
 30
0.0
 11
240.0280151386423
 21
157.10496421146451
 31
0.0
  0
ARC
  5
716
  8
0
 10
185.6471791510148
 20
149.0061023128664
 30
0.0
 40
35.880835987627499
 50
339.89172104958772
 51
21.79154595481921
  0
ARC
  5
717
  8
0
 10
272.40885112626978
 20
149.0061023128664
 30
0.0
 40
35.880835987627499
 50
163.1005005853757
 51
200.10827895041211
  0
LINE
  5
722
  8
2
 10
271.02801513864227
 20
134.02704731412331
 30
0.0
 11
237.0280151386423
 21
134.02704731412331
 31
0.0
  0
LINE
  5
723
  8
2
 10
272.02801513864227
 20
133.02704731412331
 30
0.0
 11
237.0280151386423
 21
133.02704731412331
 31
0.0
  0
LINE
  5
724
  8
2
 10
270.02801513864227
 20
129.02704731412331
 30
0.0
 11
238.0280151386423
 21
129.02704731412331
 31
0.0
  0
LINE
  5
725
  8
0
 10
240.6724694162173
 20
123.52704731412329
 30
0.0
 11
268.77801513864227
 21
123.52704731412329
 31
0.0
  0
LINE
  5
726
  8
2
 10
237.0280151386423
 20
132.02704731412331
 30
0.0
 11
216.45798122417969
 21
129.86504963015469
 31
0.0
  0
LINE
  5
727
  8
0
 10
239.48483733879149
 20
122.4988904072909
 30
0.0
 11
237.4262529839047
 21
108.27172090699101
 31
0.0
  0
ARC
  5
728
  8
0
 10
204.43259292958689
 20
118.8539026163006
 30
0.0
 40
17.09696061924371
 50
327.67363251275748
 51
23.298753023135809
  0
ARC
  5
729
  8
0
 10
272.7264810517695
 20
115.0430074314541
 30
0.0
 40
36.199005459134803
 50
160.96841544396139
 51
191.40371098793781
  0
LINE
  5
72A
  8
0
 10
220.69827356992371
 20
107.61063944912451
 30
0.0
 11
236.63840678149501
 21
107.61063944912451
 31
0.0
  0
ARC
  5
72B
  8
0
 10
220.69827356992371
 20
109.31063944912439
 30
0.0
 40
1.6999999999999991
 50
191.81068536897689
 51
270.0
  0
ARC
  5
72C
  8
0
 10
236.63840678149501
 20
108.4106394491245
 30
0.0
 40
0.7999999999999999
 50
270.0
 51
349.99999999999972
  0
LINE
  5
72D
  8
0
 10
222.05411413152831
 20
123.5253536622141
 30
0.0
 11
236.35133728634031
 21
123.5253536622141
 31
0.0
  0
ARC
  5
72E
  8
0
 10
232.0252522735228
 20
132.0264190029292
 30
0.0
 40
13.50777921765917
 50
159.8912453491082
 51
208.33061182336411
  0
ARC
  5
72F
  8
0
 10
226.0307780037617
 20
132.0264190029292
 30
0.0
 40
13.50777921765917
 50
337.45362621636701
 51
20.108754650891768
  0
ARC
  5
730
  8
0
 10
240.6724694162173
 20
122.32704731412331
 30
0.0
 40
1.1999999999999991
 50
90.0
 51
171.76679173555411
  0
LINE
  5
731
  8
2
 10
237.0280151386423
 20
130.02704731412331
 30
0.0
 11
238.0280151386423
 21
129.02704731412331
 31
0.0
  0
LINE
  5
732
  8
0
 10
270.02801513864227
 20
124.77704731412329
 30
0.0
 11
268.77801513864227
 21
123.52704731412329
 31
0.0
  0
LINE
  5
733
  8
2
 10
272.02801513864227
 20
133.02704731412331
 30
0.0
 11
271.02801513864227
 21
134.02704731412331
 31
0.0
  0
LINE
  5
734
  8
0
 10
270.02801513864227
 20
129.02704731412331
 30
0.0
 11
272.02801513864227
 21
129.02704731412331
 31
0.0
  0
LINE
  5
736
  8
2
 10
270.02801513864227
 20
153.02704731412331
 30
0.0
 11
238.0280151386423
 21
153.02704731412331
 31
0.0
  0
LINE
  5
737
  8
2
 10
272.02801513864227
 20
149.02704731412331
 30
0.0
 11
237.0280151386423
 21
149.02704731412331
 31
0.0
  0
LINE
  5
738
  8
2
 10
271.02801513864227
 20
148.02704731412331
 30
0.0
 11
237.0280151386423
 21
148.02704731412331
 31
0.0
  0
LINE
  5
739
  8
0
 10
240.6724694162173
 20
158.52704731412331
 30
0.0
 11
268.77801513864227
 21
158.52704731412331
 31
0.0
  0
LINE
  5
73A
  8
1
 10
211.0280151386423
 20
141.02704731412331
 30
0.0
 11
277.02801513864222
 21
141.02704731412331
 31
0.0
  0
ARC
  5
73B
  8
0
 10
235.83019581953121
 20
182.22704731412321
 30
0.0
 40
0.7999999999999999
 50
10.00000000000019
 51
90.0
  0
ARC
  5
73C
  8
0
 10
221.73714970738899
 20
181.32704731412329
 30
0.0
 40
1.6999999999999991
 50
90.0
 51
166.2698983554582
  0
ARC
  5
73D
  8
0
 10
204.38066892684461
 20
183.01413431268219
 30
0.0
 40
17.14734621179765
 50
330.5700020901229
 51
0.0000001895875085
  0
LINE
  5
73E
  8
2
 10
237.0280151386423
 20
150.02704731412331
 30
0.0
 11
216.45798122417969
 21
152.1890449980919
 31
0.0
  0
LINE
  5
73F
  8
0
 10
239.56446469484521
 20
159.26625936135429
 30
0.0
 11
236.61804202194091
 21
182.36596585625671
 31
0.0
  0
ARC
  5
740
  8
0
 10
226.32614877437561
 20
163.00664870815999
 30
0.0
 40
12.28170916335104
 50
343.10054208560717
 51
9.9999912371501498
  0
LINE
  5
741
  8
0
 10
221.0515230348617
 20
159.3370508317872
 30
0.0
 11
237.00450724242279
 21
159.3370508317872
 31
0.0
  0
LINE
  5
742
  8
0
 10
221.54020215658321
 20
140.5274843436444
 30
0.0
 11
236.51582812070129
 21
140.5274843436444
 31
0.0
  0
LINE
  5
743
  8
0
 10
237.0280151386423
 20
152.02704731412331
 30
0.0
 11
237.0280151386423
 21
141.02704731412331
 31
0.0
  0
LINE
  5
744
  8
2
 10
237.0280151386423
 20
152.02704731412331
 30
0.0
 11
238.0280151386423
 21
153.02704731412331
 31
0.0
  0
ARC
  5
745
  8
0
 10
240.6724694162173
 20
159.7270473141233
 30
0.0
 40
1.1999999999999991
 50
188.23320826444569
 51
270.0
  0
LINE
  5
746
  8
0
 10
221.4472234591604
 20
176.8449454740794
 30
0.0
 11
236.5761202644745
 21
176.8449454740794
 31
0.0
  0
ARC
  5
747
  8
0
 10
250.2109220236614
 20
167.56732270833729
 30
0.0
 40
31.683437788196731
 50
167.19651988726409
 51
189.5217687564643
  0
LINE
  5
748
  8
0
 10
221.73714970738899
 20
183.02704731412319
 30
0.0
 11
235.83019581953121
 21
183.02704731412319
 31
0.0
  0
LINE
  5
749
  8
0
 10
272.02801513864227
 20
141.02704731412331
 30
0.0
 11
272.02801513864227
 21
153.02704731412331
 31
0.0
  0
LINE
  5
74A
  8
0
 10
268.77801513864227
 20
141.02704731412331
 30
0.0
 11
268.77801513864227
 21
158.52704731412331
 31
0.0
  0
LINE
  5
74B
  8
2
 10
271.02801513864227
 20
148.02704731412331
 30
0.0
 11
271.02801513864227
 21
141.02704731412331
 31
0.0
  0
LINE
  5
74C
  8
2
 10
272.02801513864227
 20
149.02704731412331
 30
0.0
 11
271.02801513864227
 21
148.02704731412331
 31
0.0
  0
LINE
  5
74D
  8
0
 10
270.02801513864227
 20
153.02704731412331
 30
0.0
 11
272.02801513864227
 21
153.02704731412331
 31
0.0
  0
LINE
  5
74E
  8
0
 10
270.02801513864227
 20
157.27704731412331
 30
0.0
 11
268.77801513864227
 21
158.52704731412331
 31
0.0
  0
ENDSEC
  0
EOF
