  0
SECTION
  2
HEADER
  9
$ACADVER
  1
AC1009
  9
$INSBASE
 10
0.0
 20
0.0
 30
0.0
  9
$EXTMIN
 10
44.992447824907003
 20
54.806671835024183
 30
-0.0015258207003583
  9
$EXTMAX
 10
335.01434408828408
 20
220.0135808927165
 30
0.0000000349246037
  9
$LIMMIN
 10
0.0
 20
0.0
  9
$LIMMAX
 10
375.0
 20
270.0
  9
$ORTHOMODE
 70
     1
  9
$REGENMODE
 70
     1
  9
$FILLMODE
 70
     1
  9
$QTEXTMODE
 70
     0
  9
$MIRRTEXT
 70
     0
  9
$DRAGMODE
 70
     2
  9
$LTSCALE
 40
10.0
  9
$OSMODE
 70
   231
  9
$ATTMODE
 70
     1
  9
$TEXTSIZE
 40
5.0
  9
$TRACEWID
 40
0.05
  9
$TEXTSTYLE
  7
STANDARD
  9
$CLAYER
  8
0
  9
$CELTYPE
  6
BYLAYER
  9
$CECOLOR
 62
   256
  9
$DIMSCALE
 40
1.0
  9
$DIMASZ
 40
3.0
  9
$DIMEXO
 40
2.0
  9
$DIMDLI
 40
0.38
  9
$DIMRND
 40
0.0
  9
$DIMDLE
 40
0.0
  9
$DIMEXE
 40
2.0
  9
$DIMTP
 40
0.0
  9
$DIMTM
 40
0.0
  9
$DIMTXT
 40
3.2000000000000002
  9
$DIMCEN
 40
0.0
  9
$DIMTSZ
 40
0.0
  9
$DIMTOL
 70
     0
  9
$DIMLIM
 70
     0
  9
$DIMTIH
 70
     0
  9
$DIMTOH
 70
     0
  9
$DIMSE1
 70
     0
  9
$DIMSE2
 70
     0
  9
$DIMTAD
 70
     1
  9
$DIMZIN
 70
     0
  9
$DIMBLK
  1

  9
$DIMASO
 70
     1
  9
$DIMSHO
 70
     0
  9
$DIMPOST
  1

  9
$DIMAPOST
  1

  9
$DIMALT
 70
     0
  9
$DIMALTD
 70
     2
  9
$DIMALTF
 40
25.399999999999999
  9
$DIMLFAC
 40
1.0
  9
$DIMTOFL
 70
     1
  9
$DIMTVP
 40
1.6000000000000001
  9
$DIMTIX
 70
     1
  9
$DIMSOXD
 70
     0
  9
$DIMSAH
 70
     0
  9
$DIMBLK1
  1

  9
$DIMBLK2
  1

  9
$DIMSTYLE
  2
STANDARD
  9
$DIMCLRD
 70
     0
  9
$DIMCLRE
 70
     0
  9
$DIMCLRT
 70
     0
  9
$DIMTFAC
 40
1.0
  9
$DIMGAP
 40
0.09
  9
$LUNITS
 70
     2
  9
$LUPREC
 70
     4
  9
$SKETCHINC
 40
0.1
  9
$FILLETRAD
 40
1.7
  9
$AUNITS
 70
     0
  9
$AUPREC
 70
     4
  9
$MENU
  1
E:\r13\win\SUPPORT\ACAD
  9
$ELEVATION
 40
0.0
  9
$PELEVATION
 40
0.0
  9
$THICKNESS
 40
0.0
  9
$LIMCHECK
 70
     0
  9
$BLIPMODE
 70
     1
  9
$CHAMFERA
 40
0.0
  9
$CHAMFERB
 40
0.0
  9
$SKPOLY
 70
     0
  9
$TDCREATE
 40
2449839.7885069442
  9
$TDUPDATE
 40
2453236.8347388539
  9
$TDINDWG
 40
0.0001497338
  9
$TDUSRTIMER
 40
0.0001497338
  9
$USRTIMER
 70
     1
  9
$ANGBASE
 50
0.0
  9
$ANGDIR
 70
     0
  9
$PDMODE
 70
     0
  9
$PDSIZE
 40
0.0
  9
$PLINEWID
 40
0.0
  9
$COORDS
 70
     0
  9
$SPLFRAME
 70
     0
  9
$SPLINETYPE
 70
     6
  9
$SPLINESEGS
 70
     8
  9
$ATTDIA
 70
     0
  9
$ATTREQ
 70
     1
  9
$HANDLING
 70
-16383
  9
$HANDSEED
  5
1A4
  9
$SURFTAB1
 70
     6
  9
$SURFTAB2
 70
     6
  9
$SURFTYPE
 70
     6
  9
$SURFU
 70
     6
  9
$SURFV
 70
     6
  9
$UCSNAME
  2

  9
$UCSORG
 10
0.0
 20
0.0
 30
0.0
  9
$UCSXDIR
 10
1.0
 20
0.0
 30
0.0
  9
$UCSYDIR
 10
0.0
 20
1.0
 30
0.0
  9
$PUCSNAME
  2

  9
$PUCSORG
 10
0.0
 20
0.0
 30
0.0
  9
$PUCSXDIR
 10
1.0
 20
0.0
 30
0.0
  9
$PUCSYDIR
 10
0.0
 20
1.0
 30
0.0
  9
$USERI1
 70
     0
  9
$USERI2
 70
     1
  9
$USERI3
 70
     1
  9
$USERI4
 70
     0
  9
$USERI5
 70
     0
  9
$USERR1
 40
0.0
  9
$USERR2
 40
0.0
  9
$USERR3
 40
0.0
  9
$USERR4
 40
0.0
  9
$USERR5
 40
0.0
  9
$WORLDVIEW
 70
     1
  9
$SHADEDGE
 70
     3
  9
$SHADEDIF
 70
    70
  9
$TILEMODE
 70
     1
  9
$MAXACTVP
 70
    16
  9
$PLIMCHECK
 70
     0
  9
$PEXTMIN
 10
1.0000000000000000E+020
 20
1.0000000000000000E+020
 30
1.0000000000000000E+020
  9
$PEXTMAX
 10
-1.0000000000000000E+020
 20
-1.0000000000000000E+020
 30
-1.0000000000000000E+020
  9
$PLIMMIN
 10
0.0
 20
0.0
  9
$PLIMMAX
 10
12.0
 20
9.0
  9
$UNITMODE
 70
     0
  9
$VISRETAIN
 70
     0
  9
$PLINEGEN
 70
     0
  9
$PSLTSCALE
 70
     0
  0
ENDSEC
  0
SECTION
  2
TABLES
  0
TABLE
  2
VPORT
 70
     3
  0
VPORT
  2
*ACTIVE
 70
     0
 10
0.0
 20
0.0
 11
1.0
 21
1.0
 12
190.00339595659551
 22
137.41012636387029
 13
0.0
 23
0.0
 14
10.0
 24
10.0
 15
10.0
 25
10.0
 16
0.0
 26
0.0
 36
1.0
 17
0.0
 27
0.0
 37
0.0
 40
345.43104393888109
 41
0.9407114624505929
 42
50.0
 43
0.0
 44
0.0
 50
0.0
 51
0.0
 71
     0
 72
   500
 73
     1
 74
     0
 75
     0
 76
     0
 77
     0
 78
     2
  0
ENDTAB
  0
TABLE
  2
LTYPE
 70
     3
  0
LTYPE
  2
CONTINUOUS
 70
     0
  3
Solid Line
 72
    65
 73
     0
 40
0.0
  0
LTYPE
  2
CENTER
 70
     0
  3
____ _ ____ _ ____ _ ____ _ ____ _ ____ _ ____
 72
    65
 73
     4
 40
2.0
 49
1.25
 49
-0.25
 49
0.25
 49
-0.25
  0
LTYPE
  2
HIDDEN
 70
     0
  3
_ _ _ _ _ _ _ _ _ _ _ _ _ _ _ _ _ _ _ _ _ _ _
 72
    65
 73
     2
 40
0.375
 49
0.25
 49
-0.125
  0
ENDTAB
  0
TABLE
  2
LAYER
 70
     4
  0
LAYER
  2
0
 70
     0
 62
     7
  6
CONTINUOUS
  0
LAYER
  2
1
 70
     0
 62
     1
  6
CENTER
  0
LAYER
  2
3
 70
     0
 62
     3
  6
CONTINUOUS
  0
LAYER
  2
2
 70
     0
 62
     2
  6
HIDDEN
  0
ENDTAB
  0
TABLE
  2
STYLE
 70
     1
  0
STYLE
  2
STANDARD
 70
     0
 40
0.0
 41
1.0
 50
0.0
 71
     0
 42
5.0
  3
TXT
  4
BIGFONT
  0
ENDTAB
  0
TABLE
  2
VIEW
 70
     1
  0
VIEW
  2
ALL
 70
     0
 40
270.0
 10
220.99159663865541
 20
135.0
 41
0.0
 11
0.0
 21
0.0
 31
1.0
 12
0.0
 22
0.0
 32
0.0
 42
0.0
 43
0.0
 44
0.0
 50
0.0
 71
     0
  0
ENDTAB
  0
TABLE
  2
UCS
 70
     0
  0
ENDTAB
  0
TABLE
  2
APPID
 70
     1
  0
APPID
  2
ACAD
 70
     0
  0
ENDTAB
  0
TABLE
  2
DIMSTYLE
 70
     1
  0
DIMSTYLE
  2
STANDARD
 70
     0
  3

  4

  5

  6

  7

 40
1.0
 41
0.18
 42
0.0625
 43
0.38
 44
0.18
 45
0.0
 46
0.0
 47
0.0
 48
0.0
140
0.18
141
0.09
142
0.0
143
25.399999999999999
144
1.0
145
0.0
146
1.0
147
0.09
 71
     0
 72
     0
 73
     1
 74
     1
 75
     0
 76
     0
 77
     0
 78
     0
170
     0
171
     2
172
     0
173
     0
174
     0
175
     0
176
     0
177
     0
178
     0
  0
ENDTAB
  0
ENDSEC
  0
SECTION
  2
BLOCKS
  0
BLOCK
  8
0
  2
$MODEL_SPACE
 70
     0
 10
0.0
 20
0.0
 30
0.0
  3
$MODEL_SPACE
  1

  0
ENDBLK
  5
14C
  8
0
  0
BLOCK
 67
     1
  8
0
  2
$PAPER_SPACE
 70
     0
 10
0.0
 20
0.0
 30
0.0
  3
$PAPER_SPACE
  1

  0
ENDBLK
  5
14A
 67
     1
  8
0
  0
ENDSEC
  0
SECTION
  2
ENTITIES
  0
LINE
  5
36
  8
0
 10
174.99999999999989
 20
79.145800737640485
 30
0.0
 11
175.0
 21
62.574000000000012
 31
0.0
  0
LINE
  5
37
  8
0
 10
205.0
 20
62.574000000000012
 30
0.0
 11
205.0
 21
79.145801691285328
 31
0.0
  0
LINE
  5
38
  8
0
 10
181.49999999999989
 20
61.324000000000012
 30
0.0
 11
181.49999999999989
 21
59.824000000000012
 31
0.0
  0
LINE
  5
39
  8
0
 10
181.49999999999989
 20
59.824000000000012
 30
0.0
 11
198.5
 21
59.824000000000012
 31
0.0
  0
LINE
  5
3A
  8
0
 10
198.5
 20
59.824000000000012
 30
0.0
 11
198.5
 21
61.324000000000012
 31
0.0
  0
LINE
  5
3B
  8
0
 10
176.25
 20
61.324000000000012
 30
0.0
 11
175.0
 21
62.574000000000012
 31
0.0
  0
LINE
  5
3C
  8
0
 10
175.0
 20
62.574000000000026
 30
0.0
 11
205.0
 21
62.574000000000012
 31
0.0
  0
LINE
  5
3D
  8
0
 10
205.0
 20
62.574000000000012
 30
0.0
 11
203.75
 21
61.324000000000012
 31
0.0
  0
LINE
  5
3E
  8
0
 10
206.6527036446661
 20
81.115416243635423
 30
0.0
 11
223.59520190203369
 21
84.102835807015495
 31
0.0
  0
LINE
  5
3F
  8
0
 10
225.0
 20
85.777008987136242
 30
0.0
 11
225.0
 21
99.350539614133055
 31
0.0
  0
LINE
  5
40
  8
0
 10
173.34729635533381
 20
81.115416243664896
 30
0.0
 11
156.40479809796611
 21
84.102835807045011
 31
0.0
  0
LINE
  5
41
  8
0
 10
154.99999999999989
 20
85.777008987165743
 30
0.0
 11
155.0
 21
99.350539614133083
 31
0.0
  0
ARC
  5
42
  8
0
 10
207.0
 20
79.145800737611012
 30
0.0
 40
2.0
 50
100.0
 51
180.00000000000011
  0
ARC
  5
43
  8
0
 10
172.99999999999989
 20
79.145800737640485
 30
0.0
 40
2.0
 50
360.0
 51
79.999999999999943
  0
ARC
  5
44
  8
0
 10
156.6999999999999
 20
85.777008987165743
 30
0.0
 40
1.7
 50
180.0
 51
260.0
  0
ARC
  5
45
  8
0
 10
223.30000000000001
 20
85.777008987136242
 30
0.0
 40
1.7
 50
280.00000000000011
 51
360.0
  0
LINE
  5
46
  8
0
 10
174.99999999999989
 20
80.824000000000012
 30
0.0
 11
205.0
 21
80.824000000000012
 31
0.0
  0
LINE
  5
47
  8
0
 10
180.50425219362191
 20
104.824
 30
0.0
 11
199.4957478063786
 21
104.824
 31
0.0
  0
ARC
  5
48
  8
0
 10
189.99999999999989
 20
-36.858146982595038
 30
0.0
 40
142.0
 50
93.834313962694239
 51
103.85329159836991
  0
ARC
  5
49
  8
0
 10
222.49521663333579
 20
98.973841293038817
 30
0.0
 40
2.5329511126416491
 50
8.5527063746865686
 51
53.552706374686721
  0
ARC
  5
4A
  8
0
 10
157.5047833666641
 20
98.973841293038817
 30
0.0
 40
2.5329511126416491
 50
126.44729362531319
 51
171.44729362531331
  0
ARC
  5
4B
  8
0
 10
189.99999999999989
 20
-36.858146982595038
 30
0.0
 40
142.0
 50
76.146708401629908
 51
86.165686037305733
  0
ARC
  5
4C
  8
0
 10
220.2121619683715
 20
221.5834735105085
 30
0.0
 40
24.0
 50
212.1338507842236
 51
255.8661492024336
  0
ARC
  5
4D
  8
0
 10
190.0
 20
204.0
 30
0.0
 40
11.0
 50
25.97575268804043
 51
89.999999999999986
  0
ARC
  5
4E
  8
0
 10
212.82535639108701
 20
187.41640786498741
 30
0.0
 40
11.0
 50
17.999999999999979
 51
82.024247334949195
  0
ARC
  5
4F
  8
0
 10
189.99999999896099
 20
203.99999999923631
 30
0.0
 40
11.0
 50
89.999999999999986
 51
154.02424733494919
  0
ARC
  5
50
  8
0
 10
167.17464360786559
 20
187.41640786423531
 30
0.0
 40
11.0
 50
97.975752688040444
 51
162.0
  0
ARC
  5
51
  8
0
 10
159.78783803162841
 20
221.58347351050861
 30
0.0
 40
24.0
 50
284.13385078422368
 51
327.86614920243358
  0
ARC
  5
52
  8
0
 10
167.1746436082708
 20
187.4164078630113
 30
0.0
 40
11.0
 50
162.0
 51
226.02424733494919
  0
ARC
  5
53
  8
0
 10
175.8931539443312
 20
160.5835921330027
 30
0.0
 40
11.0
 50
169.97575268804039
 51
234.0
  0
ARC
  5
54
  8
0
 10
141.11569506155789
 20
164.11652648773989
 30
0.0
 40
24.0
 50
356.13385078422368
 51
39.866149202433668
  0
ARC
  5
55
  8
0
 10
175.8931539456207
 20
160.58359213300989
 30
0.0
 40
11.0
 50
234.0
 51
298.02424733494928
  0
ARC
  5
56
  8
0
 10
204.10684605566871
 20
160.5835921330027
 30
0.0
 40
11.0
 50
241.9757526880405
 51
306.0
  0
ARC
  5
57
  8
0
 10
190.0
 20
128.5999999979793
 30
0.0
 40
24.0
 50
68.133850784223696
 51
111.8661492024337
  0
ARC
  5
58
  8
0
 10
204.10684605606039
 20
160.5835921342312
 30
0.0
 40
11.0
 50
306.0
 51
10.024247334949189
  0
ARC
  5
59
  8
0
 10
212.8253563921343
 20
187.41640786423531
 30
0.0
 40
11.0
 50
313.97575268804042
 51
17.999999999999979
  0
ARC
  5
5A
  8
0
 10
238.884304938442
 20
164.1165264877398
 30
0.0
 40
24.0
 50
140.13385078422371
 51
183.86614920243369
  0
CIRCLE
  5
5B
  8
0
 10
190.0
 20
179.99999999999989
 30
0.0
 40
8.5
  0
CIRCLE
  5
5C
  8
3
 10
190.0
 20
179.99999999999989
 30
0.0
 40
6.0
  0
CIRCLE
  5
5D
  8
0
 10
190.0
 20
179.99999999999989
 30
0.0
 40
5.052999999999999
  0
ARC
  5
5E
  8
0
 10
190.0
 20
153.56377430063461
 30
0.0
 40
71.120000000000005
 50
256.78434721115428
 51
281.98466686330858
  0
ARC
  5
5F
  8
0
 10
209.0
 20
68.563774300629518
 30
0.0
 40
16.0
 50
76.299272625502837
 51
104.13691866274711
  0
LINE
  5
60
  8
0
 10
204.76806214382279
 20
83.993962309252993
 30
0.0
 11
205.09216159430269
 21
84.079211741931616
 31
0.0
  0
LINE
  5
61
  8
0
 10
212.78960767904331
 20
84.10851211247234
 30
0.0
 11
213.56856560839131
 21
83.897667811477604
 31
0.0
  0
LINE
  5
62
  8
0
 10
204.76806214382279
 20
101.4400083074366
 30
0.0
 11
205.09216159430269
 21
101.3547588747581
 31
0.0
  0
ARC
  5
63
  8
0
 10
209.0
 20
116.8701963160601
 30
0.0
 40
16.0
 50
255.86308133725271
 51
286.41921307102871
  0
ARC
  5
64
  8
0
 10
189.99999999999989
 20
31.870196316055079
 30
0.0
 40
71.120000000000005
 50
78.015333136691353
 51
101.9846668633086
  0
LINE
  5
65
  8
1
 10
190.0
 20
109.824
 30
0.0
 11
189.99999999999989
 21
54.824000000000012
 31
0.0
  0
LINE
  5
66
  8
1
 10
149.99999999999989
 20
180.0
 30
0.0
 11
230.0
 21
180.0
 31
0.0
  0
LINE
  5
67
  8
1
 10
190.0
 20
220.0
 30
0.0
 11
190.0
 21
140.0
 31
0.0
  0
ARC
  5
68
  8
0
 10
217.72022710430261
 20
97.790605111536564
 30
0.0
 40
14.5
 50
253.36214385638459
 51
280.00000742226018
  0
ARC
  5
69
  8
0
 10
217.8269608688918
 20
87.672255648175636
 30
0.0
 40
14.5
 50
84.56392485361819
 51
106.63785614361529
  0
LINE
  5
6A
  8
0
 10
213.52261006418681
 20
101.5238637963394
 30
0.0
 11
213.67529937298039
 21
101.5651929482345
 31
0.0
  0
LINE
  5
6B
  8
0
 10
176.25
 20
61.324000000000026
 30
0.0
 11
203.75
 21
61.324000000000012
 31
0.0
  0
LINE
  5
6C
  8
2
 10
182.0
 20
85.824000000000012
 30
0.0
 11
198.0
 21
85.824000000000012
 31
0.0
  0
LINE
  5
6D
  8
2
 10
181.0
 20
84.824000000000012
 30
0.0
 11
181.0
 21
61.324000000000012
 31
0.0
  0
LINE
  5
6E
  8
2
 10
181.0
 20
84.824000000000012
 30
0.0
 11
182.0
 21
85.824000000000012
 31
0.0
  0
LINE
  5
6F
  8
2
 10
184.94699999999989
 20
61.824000000000041
 30
0.0
 11
184.94699999999989
 21
85.824000000000012
 31
0.0
  0
LINE
  5
70
  8
2
 10
183.99999999999989
 20
60.877000000000088
 30
0.0
 11
184.0
 21
85.824000000000012
 31
0.0
  0
LINE
  5
71
  8
2
 10
181.49999999999989
 20
85.323999999999998
 30
0.0
 11
180.47814014783481
 21
104.8222475148643
 31
0.0
  0
CIRCLE
  5
72
  8
0
 10
190.0
 20
180.0
 30
0.0
 40
9.5218598521651501
  0
LINE
  5
73
  8
0
 10
215.10684605606031
 20
100.89537840359969
 30
0.0
 11
215.10684605606031
 21
84.545974520361568
 31
0.0
  0
LINE
  5
74
  8
0
 10
204.10684605566871
 20
100.55652169717921
 30
0.0
 11
204.10684605566871
 21
84.877448919510428
 31
0.0
  0
LINE
  5
75
  8
2
 10
182.94699999999989
 20
59.824000000000041
 30
0.0
 11
184.94699999999989
 21
61.824000000000041
 31
0.0
  0
LINE
  5
76
  8
2
 10
184.94699999999989
 20
61.824000000000041
 30
0.0
 11
195.053
 21
61.824000000000026
 31
0.0
  0
LINE
  5
77
  8
2
 10
196.0
 20
60.877000000000088
 30
0.0
 11
196.0
 21
85.824000000000012
 31
0.0
  0
LINE
  5
78
  8
2
 10
195.053
 20
61.824000000000041
 30
0.0
 11
195.053
 21
85.824000000000012
 31
0.0
  0
LINE
  5
79
  8
2
 10
199.0
 20
84.824000000000012
 30
0.0
 11
199.0
 21
61.324000000000012
 31
0.0
  0
LINE
  5
7A
  8
2
 10
198.5
 20
85.323999999999998
 30
0.0
 11
199.52185985216511
 21
104.8222475148643
 31
0.0
  0
LINE
  5
7B
  8
2
 10
197.053
 20
59.824000000000041
 30
0.0
 11
195.053
 21
61.824000000000041
 31
0.0
  0
LINE
  5
7C
  8
2
 10
199.0
 20
84.824000000000012
 30
0.0
 11
198.0
 21
85.824000000000012
 31
0.0
  0
LINE
  5
7D
  8
0
 10
175.8931539443312
 20
100.55652169717921
 30
0.0
 11
175.8931539443312
 21
84.877448919510428
 31
0.0
  0
LINE
  5
7E
  8
0
 10
164.89315394393961
 20
100.89537840359969
 30
0.0
 11
164.89315394393961
 21
84.545974520361568
 31
0.0
  0
LINE
  5
7F
  8
0
 10
166.47738993581311
 20
101.5238637963394
 30
0.0
 11
166.3247006270195
 21
101.5651929482345
 31
0.0
  0
ARC
  5
80
  8
0
 10
162.17303913110811
 20
87.672255648175636
 30
0.0
 40
14.5
 50
73.362143856384662
 51
95.436075146381825
  0
ARC
  5
81
  8
0
 10
162.27977289569731
 20
97.790605111536564
 30
0.0
 40
14.5
 50
259.99999257773982
 51
286.63785614361541
  0
ARC
  5
82
  8
0
 10
171.0
 20
116.8701963160601
 30
0.0
 40
16.0
 50
253.58078692897121
 51
284.13691866274718
  0
LINE
  5
83
  8
0
 10
175.2319378561771
 20
101.4400083074366
 30
0.0
 11
174.90783840569711
 21
101.3547588747581
 31
0.0
  0
LINE
  5
84
  8
0
 10
167.2103923209566
 20
84.10851211247234
 30
0.0
 11
166.43143439160869
 21
83.897667811477604
 31
0.0
  0
LINE
  5
85
  8
0
 10
175.2319378561771
 20
83.993962309252993
 30
0.0
 11
174.90783840569711
 21
84.079211741931616
 31
0.0
  0
ARC
  5
86
  8
0
 10
171.0
 20
68.563774300629518
 30
0.0
 40
16.0
 50
75.863081337252837
 51
103.70072737449711
  0
LINE
  5
87
  8
2
 10
307.053
 20
59.824000000000041
 30
0.0
 11
305.053
 21
61.824000000000041
 31
0.0
  0
LINE
  5
88
  8
2
 10
308.49999999999989
 20
85.323999999999998
 30
0.0
 11
309.52185985216499
 21
104.8222475148643
 31
0.0
  0
LINE
  5
89
  8
2
 10
309.0
 20
84.824000000000012
 30
0.0
 11
309.0
 21
61.324000000000012
 31
0.0
  0
LINE
  5
8A
  8
2
 10
305.053
 20
61.824000000000041
 30
0.0
 11
305.053
 21
85.824000000000012
 31
0.0
  0
LINE
  5
8B
  8
2
 10
306.0
 20
60.877000000000088
 30
0.0
 11
306.0
 21
85.824000000000012
 31
0.0
  0
LINE
  5
8C
  8
2
 10
294.94699999999989
 20
61.824000000000041
 30
0.0
 11
305.053
 21
61.824000000000026
 31
0.0
  0
LINE
  5
8D
  8
2
 10
292.94699999999978
 20
59.824000000000041
 30
0.0
 11
294.947
 21
61.824000000000041
 31
0.0
  0
LINE
  5
8E
  8
2
 10
291.5
 20
85.323999999999998
 30
0.0
 11
290.47814014783478
 21
104.8222475148643
 31
0.0
  0
LINE
  5
8F
  8
2
 10
294.0
 20
60.877000000000088
 30
0.0
 11
294.0
 21
85.824000000000012
 31
0.0
  0
LINE
  5
90
  8
2
 10
294.94699999999989
 20
61.824000000000041
 30
0.0
 11
294.94699999999989
 21
85.824000000000012
 31
0.0
  0
LINE
  5
91
  8
2
 10
291.0
 20
84.824000000000012
 30
0.0
 11
291.0
 21
61.324000000000012
 31
0.0
  0
LINE
  5
92
  8
0
 10
286.25
 20
61.324000000000026
 30
0.0
 11
313.75
 21
61.324000000000012
 31
0.0
  0
LINE
  5
93
  8
1
 10
300.0
 20
109.824
 30
0.0
 11
300.0
 21
54.824000000000012
 31
0.0
  0
ARC
  5
94
  8
0
 10
299.99999999999989
 20
-36.858146982595038
 30
0.0
 40
142.0
 50
76.146708401629908
 51
86.165686037305733
  0
ARC
  5
95
  8
0
 10
332.49521663333582
 20
98.973841293038817
 30
0.0
 40
2.5329511126416491
 50
8.5527063746865686
 51
53.552706374686721
  0
ARC
  5
96
  8
0
 10
299.99999999999989
 20
-36.858146982595038
 30
0.0
 40
142.0
 50
93.834313962694239
 51
101.8106853698105
  0
LINE
  5
97
  8
0
 10
290.50425219362188
 20
104.824
 30
0.0
 11
309.49574780637857
 21
104.824
 31
0.0
  0
LINE
  5
98
  8
0
 10
285.0
 20
80.824000000000012
 30
0.0
 11
315.0
 21
80.824000000000012
 31
0.0
  0
ARC
  5
99
  8
0
 10
333.30000000000001
 20
85.777008987136242
 30
0.0
 40
1.7
 50
280.00000000000011
 51
360.0
  0
ARC
  5
9A
  8
0
 10
283.0
 20
79.145800737640485
 30
0.0
 40
2.0
 50
360.0
 51
79.999999999999943
  0
ARC
  5
9B
  8
0
 10
317.0
 20
79.145800737611012
 30
0.0
 40
2.0
 50
100.0
 51
180.00000000000011
  0
LINE
  5
9C
  8
0
 10
283.3472963553337
 20
81.115416243664896
 30
0.0
 11
270.988390230969
 21
83.294624845433546
 31
0.0
  0
LINE
  5
9D
  8
0
 10
335.0
 20
85.777008987136242
 30
0.0
 11
335.0
 21
99.350539614133055
 31
0.0
  0
LINE
  5
9E
  8
0
 10
316.65270364466608
 20
81.115416243635423
 30
0.0
 11
333.59520190203369
 21
84.102835807015495
 31
0.0
  0
LINE
  5
9F
  8
0
 10
315.0
 20
62.574000000000012
 30
0.0
 11
313.75
 21
61.324000000000012
 31
0.0
  0
LINE
  5
A0
  8
0
 10
285.0
 20
62.574000000000026
 30
0.0
 11
315.0
 21
62.574000000000012
 31
0.0
  0
LINE
  5
A1
  8
0
 10
286.25
 20
61.324000000000012
 30
0.0
 11
285.0
 21
62.574000000000012
 31
0.0
  0
LINE
  5
A2
  8
0
 10
308.49999999999989
 20
59.824000000000012
 30
0.0
 11
308.49999999999989
 21
61.324000000000012
 31
0.0
  0
LINE
  5
A3
  8
0
 10
291.5
 20
59.824000000000012
 30
0.0
 11
308.49999999999989
 21
59.824000000000012
 31
0.0
  0
LINE
  5
A4
  8
0
 10
291.5
 20
61.324000000000012
 30
0.0
 11
291.5
 21
59.824000000000012
 31
0.0
  0
LINE
  5
A5
  8
0
 10
315.0
 20
62.574000000000012
 30
0.0
 11
315.0
 21
79.145801691285328
 31
0.0
  0
LINE
  5
A6
  8
0
 10
285.0
 20
79.145800737640485
 30
0.0
 11
285.0
 21
62.574000000000012
 31
0.0
  0
LINE
  5
A7
  8
2
 10
292.0
 20
85.823999999999984
 30
0.0
 11
308.0
 21
85.823999999999984
 31
0.0
  0
LINE
  5
A8
  8
0
 10
269.5835921330027
 20
100.4715945857056
 30
0.0
 11
269.5835921330027
 21
84.968798025554278
 31
0.0
  0
ARC
  5
A9
  8
0
 10
271.28359213300268
 20
100.4715945857056
 30
0.0
 40
1.7
 50
101.8106853698103
 51
179.99999999999969
  0
ARC
  5
AA
  8
0
 10
271.28359213300268
 20
84.968798025554278
 30
0.0
 40
1.7
 50
179.9999999999998
 51
259.99999999999977
  0
ARC
  5
AB
  8
0
 10
290.99937168706953
 20
78.997459530954757
 30
0.0
 40
23.998668870529141
 50
73.427622095179458
 51
103.32483403840681
  0
ARC
  5
AC
  8
0
 10
308.14185785168308
 20
148.3940302227011
 30
0.0
 40
47.523833906640917
 50
257.48592967029248
 51
282.0565045062508
  0
ARC
  5
AD
  8
0
 10
323.06332565135642
 20
91.757384662083624
 30
0.0
 40
11.23281165397144
 50
90.0
 51
112.50418884396809
  0
ARC
  5
AE
  8
0
 10
317.23295213330698
 20
105.830241355925
 30
0.0
 40
4.0
 50
282.0565045062508
 51
292.50418884396811
  0
ARC
  5
AF
  8
0
 10
324.47703502956011
 20
101.290196316055
 30
0.0
 40
1.7
 50
79.952641824460954
 51
90.0
  0
ARC
  5
B0
  8
0
 10
277.49386785939743
 20
123.0960514762053
 30
0.0
 40
22.225855160145191
 50
251.7204112874507
 51
291.0261236968164
  0
ARC
  5
B1
  8
0
 10
290.99937168706953
 20
78.997459530954757
 30
0.0
 40
23.998668870529141
 50
110.7303172074453
 51
110.7463033126496
  0
LINE
  5
B2
  8
0
 10
280.58359213300281
 20
100.89537840359969
 30
0.0
 11
280.58359213300281
 21
84.545974520361568
 31
0.0
  0
LINE
  5
B3
  8
0
 10
318.31000351792591
 20
100.89537840359969
 30
0.0
 11
318.31000351792591
 21
84.545974520361568
 31
0.0
  0
LINE
  5
B4
  8
0
 10
299.50043703045719
 20
100.89537840359969
 30
0.0
 11
299.50043703045719
 21
84.545974520361568
 31
0.0
  0
LINE
  5
BE
  8
0
 10
80.499562969542808
 20
100.89537840359969
 30
0.0
 11
80.499562969542808
 21
84.545974520361568
 31
0.0
  0
LINE
  5
BF
  8
0
 10
61.689996482074093
 20
100.89537840359969
 30
0.0
 11
61.689996482074029
 21
84.545974520361568
 31
0.0
  0
LINE
  5
C0
  8
0
 10
99.416407866997204
 20
100.89537840359969
 30
0.0
 11
99.416407866997204
 21
84.545974520361568
 31
0.0
  0
ARC
  5
C1
  8
0
 10
89.000628312930417
 20
78.997459530954757
 30
0.0
 40
23.998668870529141
 50
69.253696687350342
 51
69.269682792554732
  0
ARC
  5
C2
  8
0
 10
102.5061321406025
 20
123.0960514762053
 30
0.0
 40
22.225855160145191
 50
248.9738763031836
 51
288.27958871254918
  0
ARC
  5
C3
  8
0
 10
55.522964970439887
 20
101.290196316055
 30
0.0
 40
1.7
 50
90.000000000000028
 51
100.047358175539
  0
ARC
  5
C4
  8
0
 10
62.767047866692963
 20
105.830241355925
 30
0.0
 40
4.0
 50
247.49581115603189
 51
257.9434954937492
  0
ARC
  5
C5
  8
0
 10
56.936674348643578
 20
91.757384662083624
 30
0.0
 40
11.23281165397144
 50
67.495811156031863
 51
90.000000000000028
  0
ARC
  5
C6
  8
0
 10
71.858142148316915
 20
148.3940302227011
 30
0.0
 40
47.523833906640917
 50
257.9434954937492
 51
282.51407032970741
  0
ARC
  5
C7
  8
0
 10
89.000628312930417
 20
78.997459530954757
 30
0.0
 40
23.998668870529141
 50
76.675165961593152
 51
106.5723779048205
  0
ARC
  5
C8
  8
0
 10
108.7164078669972
 20
84.968798025554278
 30
0.0
 40
1.7
 50
280.00000000000023
 51
0.0000000000001272
  0
ARC
  5
C9
  8
0
 10
108.7164078669972
 20
100.4715945857056
 30
0.0
 40
1.7
 50
0.0000000000002544
 51
78.189314630189656
  0
LINE
  5
CA
  8
0
 10
110.4164078669972
 20
100.4715945857056
 30
0.0
 11
110.4164078669972
 21
84.968798025554278
 31
0.0
  0
LINE
  5
CB
  8
2
 10
88.0
 20
85.823999999999984
 30
0.0
 11
72.0
 21
85.823999999999984
 31
0.0
  0
LINE
  5
CC
  8
0
 10
95.0
 20
79.145800737640485
 30
0.0
 11
95.0
 21
62.574000000000012
 31
0.0
  0
LINE
  5
CD
  8
0
 10
65.0
 20
62.574000000000012
 30
0.0
 11
65.0
 21
79.145801691285328
 31
0.0
  0
LINE
  5
CE
  8
0
 10
88.499999999999986
 20
61.324000000000012
 30
0.0
 11
88.499999999999986
 21
59.824000000000012
 31
0.0
  0
LINE
  5
CF
  8
0
 10
88.499999999999986
 20
59.824000000000012
 30
0.0
 11
71.5
 21
59.824000000000012
 31
0.0
  0
LINE
  5
D0
  8
0
 10
71.5
 20
59.824000000000012
 30
0.0
 11
71.5
 21
61.324000000000012
 31
0.0
  0
LINE
  5
D1
  8
0
 10
93.75
 20
61.324000000000012
 30
0.0
 11
95.0
 21
62.574000000000012
 31
0.0
  0
LINE
  5
D2
  8
0
 10
95.0
 20
62.574000000000026
 30
0.0
 11
65.0
 21
62.574000000000012
 31
0.0
  0
LINE
  5
D3
  8
0
 10
65.0
 20
62.574000000000012
 30
0.0
 11
66.25
 21
61.324000000000012
 31
0.0
  0
LINE
  5
D4
  8
0
 10
63.347296355333867
 20
81.115416243635423
 30
0.0
 11
46.404798097966193
 21
84.102835807015495
 31
0.0
  0
LINE
  5
D5
  8
0
 10
45.0
 20
85.777008987136242
 30
0.0
 11
45.0
 21
99.350539614133055
 31
0.0
  0
LINE
  5
D6
  8
0
 10
96.652703644666204
 20
81.115416243664896
 30
0.0
 11
109.0116097690309
 21
83.294624845433546
 31
0.0
  0
ARC
  5
D7
  8
0
 10
63.0
 20
79.145800737611012
 30
0.0
 40
2.0
 50
359.99999999999989
 51
80.0
  0
ARC
  5
D8
  8
0
 10
97.0
 20
79.145800737640485
 30
0.0
 40
2.0
 50
100.0
 51
180.0
  0
ARC
  5
D9
  8
0
 10
46.699999999999989
 20
85.777008987136242
 30
0.0
 40
1.7
 50
180.0
 51
259.99999999999989
  0
LINE
  5
DA
  8
0
 10
95.0
 20
80.824000000000012
 30
0.0
 11
65.0
 21
80.824000000000012
 31
0.0
  0
LINE
  5
DB
  8
0
 10
89.495747806378063
 20
104.824
 30
0.0
 11
70.504252193621369
 21
104.824
 31
0.0
  0
ARC
  5
DC
  8
0
 10
80.000000000000057
 20
-36.858146982595038
 30
0.0
 40
142.0
 50
78.189314630189443
 51
86.165686037305775
  0
ARC
  5
DD
  8
0
 10
47.504783366664128
 20
98.973841293038817
 30
0.0
 40
2.5329511126416491
 50
126.44729362531331
 51
171.44729362531339
  0
ARC
  5
DE
  8
0
 10
80.000000000000057
 20
-36.858146982595038
 30
0.0
 40
142.0
 50
93.834313962694296
 51
103.85329159837011
  0
LINE
  5
DF
  8
1
 10
80.0
 20
109.824
 30
0.0
 11
80.0
 21
54.824000000000012
 31
0.0
  0
LINE
  5
E0
  8
0
 10
93.75
 20
61.324000000000026
 30
0.0
 11
66.25
 21
61.324000000000012
 31
0.0
  0
LINE
  5
E1
  8
2
 10
89.0
 20
84.824000000000012
 30
0.0
 11
89.0
 21
61.324000000000012
 31
0.0
  0
LINE
  5
E2
  8
2
 10
85.053000000000054
 20
61.824000000000041
 30
0.0
 11
85.053000000000054
 21
85.824000000000012
 31
0.0
  0
LINE
  5
E3
  8
2
 10
86.0
 20
60.877000000000088
 30
0.0
 11
86.0
 21
85.824000000000012
 31
0.0
  0
LINE
  5
E4
  8
2
 10
88.499999999999986
 20
85.323999999999998
 30
0.0
 11
89.521859852165164
 21
104.8222475148643
 31
0.0
  0
LINE
  5
E5
  8
2
 10
87.053000000000111
 20
59.824000000000041
 30
0.0
 11
85.052999999999997
 21
61.824000000000041
 31
0.0
  0
LINE
  5
E6
  8
2
 10
85.053000000000054
 20
61.824000000000041
 30
0.0
 11
74.947000000000003
 21
61.824000000000026
 31
0.0
  0
LINE
  5
E7
  8
2
 10
74.0
 20
60.877000000000088
 30
0.0
 11
74.0
 21
85.824000000000012
 31
0.0
  0
LINE
  5
E8
  8
2
 10
74.947000000000003
 20
61.824000000000041
 30
0.0
 11
74.947000000000003
 21
85.824000000000012
 31
0.0
  0
LINE
  5
E9
  8
2
 10
71.0
 20
84.824000000000012
 30
0.0
 11
71.0
 21
61.324000000000012
 31
0.0
  0
LINE
  5
EA
  8
2
 10
71.5
 20
85.323999999999998
 30
0.0
 11
70.478140147834893
 21
104.8222475148643
 31
0.0
  0
LINE
  5
EB
  8
2
 10
72.946999999999946
 20
59.824000000000041
 30
0.0
 11
74.947000000000003
 21
61.824000000000041
 31
0.0
  0
ENDSEC
  0
EOF
