  0
SECTION
  2
HEADER
  9
$ACADVER
  1
AC1009
  9
$INSBASE
 10
0.0
 20
0.0
 30
0.0
  9
$EXTMIN
 10
59.984208096266002
 20
62.490235076390938
 30
-0.0015258207003583
  9
$EXTMAX
 10
320.02258381692508
 20
227.51174984675811
 30
0.0000000349246037
  9
$LIMMIN
 10
0.0
 20
0.0
  9
$LIMMAX
 10
375.0
 20
270.0
  9
$ORTHOMODE
 70
     1
  9
$REGENMODE
 70
     1
  9
$FILLMODE
 70
     1
  9
$QTEXTMODE
 70
     0
  9
$MIRRTEXT
 70
     0
  9
$DRAGMODE
 70
     2
  9
$LTSCALE
 40
10.0
  9
$OSMODE
 70
   231
  9
$ATTMODE
 70
     1
  9
$TEXTSIZE
 40
4.000000000000048
  9
$TRACEWID
 40
0.05
  9
$TEXTSTYLE
  7
STANDARD
  9
$CLAYER
  8
0
  9
$CELTYPE
  6
BYLAYER
  9
$CECOLOR
 62
   256
  9
$DIMSCALE
 40
1.0
  9
$DIMASZ
 40
3.0
  9
$DIMEXO
 40
2.0
  9
$DIMDLI
 40
0.38
  9
$DIMRND
 40
0.0
  9
$DIMDLE
 40
0.0
  9
$DIMEXE
 40
2.0
  9
$DIMTP
 40
0.0
  9
$DIMTM
 40
0.0
  9
$DIMTXT
 40
3.2000000000000002
  9
$DIMCEN
 40
0.0
  9
$DIMTSZ
 40
0.0
  9
$DIMTOL
 70
     0
  9
$DIMLIM
 70
     0
  9
$DIMTIH
 70
     0
  9
$DIMTOH
 70
     0
  9
$DIMSE1
 70
     0
  9
$DIMSE2
 70
     0
  9
$DIMTAD
 70
     1
  9
$DIMZIN
 70
     0
  9
$DIMBLK
  1

  9
$DIMASO
 70
     1
  9
$DIMSHO
 70
     0
  9
$DIMPOST
  1

  9
$DIMAPOST
  1

  9
$DIMALT
 70
     0
  9
$DIMALTD
 70
     2
  9
$DIMALTF
 40
25.399999999999999
  9
$DIMLFAC
 40
1.0
  9
$DIMTOFL
 70
     1
  9
$DIMTVP
 40
1.6000000000000001
  9
$DIMTIX
 70
     1
  9
$DIMSOXD
 70
     0
  9
$DIMSAH
 70
     0
  9
$DIMBLK1
  1

  9
$DIMBLK2
  1

  9
$DIMSTYLE
  2
STANDARD
  9
$DIMCLRD
 70
     0
  9
$DIMCLRE
 70
     0
  9
$DIMCLRT
 70
     0
  9
$DIMTFAC
 40
1.0
  9
$DIMGAP
 40
0.09
  9
$LUNITS
 70
     2
  9
$LUPREC
 70
     4
  9
$SKETCHINC
 40
0.1
  9
$FILLETRAD
 40
4.0
  9
$AUNITS
 70
     0
  9
$AUPREC
 70
     4
  9
$MENU
  1
E:\r13\win\SUPPORT\ACAD
  9
$ELEVATION
 40
0.0
  9
$PELEVATION
 40
0.0
  9
$THICKNESS
 40
0.0
  9
$LIMCHECK
 70
     0
  9
$BLIPMODE
 70
     1
  9
$CHAMFERA
 40
0.0
  9
$CHAMFERB
 40
0.0
  9
$SKPOLY
 70
     0
  9
$TDCREATE
 40
2449839.7884837962
  9
$TDUPDATE
 40
2453236.834674838
  9
$TDINDWG
 40
0.0001524537
  9
$TDUSRTIMER
 40
0.0001524537
  9
$USRTIMER
 70
     1
  9
$ANGBASE
 50
0.0
  9
$ANGDIR
 70
     0
  9
$PDMODE
 70
     0
  9
$PDSIZE
 40
0.0
  9
$PLINEWID
 40
0.0
  9
$COORDS
 70
     0
  9
$SPLFRAME
 70
     0
  9
$SPLINETYPE
 70
     6
  9
$SPLINESEGS
 70
     8
  9
$ATTDIA
 70
     0
  9
$ATTREQ
 70
     1
  9
$HANDLING
 70
-16383
  9
$HANDSEED
  5
1A7
  9
$SURFTAB1
 70
     6
  9
$SURFTAB2
 70
     6
  9
$SURFTYPE
 70
     6
  9
$SURFU
 70
     6
  9
$SURFV
 70
     6
  9
$UCSNAME
  2

  9
$UCSORG
 10
0.0
 20
0.0
 30
0.0
  9
$UCSXDIR
 10
1.0
 20
0.0
 30
0.0
  9
$UCSYDIR
 10
0.0
 20
1.0
 30
0.0
  9
$PUCSNAME
  2

  9
$PUCSORG
 10
0.0
 20
0.0
 30
0.0
  9
$PUCSXDIR
 10
1.0
 20
0.0
 30
0.0
  9
$PUCSYDIR
 10
0.0
 20
1.0
 30
0.0
  9
$USERI1
 70
     0
  9
$USERI2
 70
     1
  9
$USERI3
 70
     1
  9
$USERI4
 70
     0
  9
$USERI5
 70
     0
  9
$USERR1
 40
0.0
  9
$USERR2
 40
0.0
  9
$USERR3
 40
0.0
  9
$USERR4
 40
0.0
  9
$USERR5
 40
0.0
  9
$WORLDVIEW
 70
     1
  9
$SHADEDGE
 70
     3
  9
$SHADEDIF
 70
    70
  9
$TILEMODE
 70
     1
  9
$MAXACTVP
 70
    16
  9
$PLIMCHECK
 70
     0
  9
$PEXTMIN
 10
1.0000000000000000E+020
 20
1.0000000000000000E+020
 30
1.0000000000000000E+020
  9
$PEXTMAX
 10
-1.0000000000000000E+020
 20
-1.0000000000000000E+020
 30
-1.0000000000000000E+020
  9
$PLIMMIN
 10
0.0
 20
0.0
  9
$PLIMMAX
 10
12.0
 20
9.0
  9
$UNITMODE
 70
     0
  9
$VISRETAIN
 70
     0
  9
$PLINEGEN
 70
     0
  9
$PSLTSCALE
 70
     0
  0
ENDSEC
  0
SECTION
  2
TABLES
  0
TABLE
  2
VPORT
 70
     3
  0
VPORT
  2
*ACTIVE
 70
     0
 10
0.0
 20
0.0
 11
1.0
 21
1.0
 12
190.0033959565956
 22
145.0009924615745
 13
0.0
 23
0.0
 14
10.0
 24
10.0
 15
10.0
 25
10.0
 16
0.0
 26
0.0
 36
1.0
 17
0.0
 27
0.0
 37
0.0
 40
309.719123785693
 41
0.9407114624505929
 42
50.0
 43
0.0
 44
0.0
 50
0.0
 51
0.0
 71
     0
 72
   500
 73
     1
 74
     0
 75
     0
 76
     0
 77
     0
 78
     2
  0
ENDTAB
  0
TABLE
  2
LTYPE
 70
     3
  0
LTYPE
  2
CONTINUOUS
 70
     0
  3
Solid Line
 72
    65
 73
     0
 40
0.0
  0
LTYPE
  2
CENTER
 70
     0
  3
____ _ ____ _ ____ _ ____ _ ____ _ ____ _ ____
 72
    65
 73
     4
 40
2.0
 49
1.25
 49
-0.25
 49
0.25
 49
-0.25
  0
LTYPE
  2
HIDDEN
 70
     0
  3
_ _ _ _ _ _ _ _ _ _ _ _ _ _ _ _ _ _ _ _ _ _ _
 72
    65
 73
     2
 40
0.375
 49
0.25
 49
-0.125
  0
ENDTAB
  0
TABLE
  2
LAYER
 70
     4
  0
LAYER
  2
0
 70
     0
 62
     7
  6
CONTINUOUS
  0
LAYER
  2
1
 70
     0
 62
     1
  6
CENTER
  0
LAYER
  2
3
 70
     0
 62
     3
  6
CONTINUOUS
  0
LAYER
  2
2
 70
     0
 62
     2
  6
HIDDEN
  0
ENDTAB
  0
TABLE
  2
STYLE
 70
     1
  0
STYLE
  2
STANDARD
 70
     0
 40
0.0
 41
1.0
 50
0.0
 71
     0
 42
4.000000000000048
  3
TXT
  4
BIGFONT
  0
ENDTAB
  0
TABLE
  2
VIEW
 70
     1
  0
VIEW
  2
ALL
 70
     0
 40
270.0
 10
220.99159663865541
 20
135.0
 41
0.0
 11
0.0
 21
0.0
 31
1.0
 12
0.0
 22
0.0
 32
0.0
 42
0.0
 43
0.0
 44
0.0
 50
0.0
 71
     0
  0
ENDTAB
  0
TABLE
  2
UCS
 70
     0
  0
ENDTAB
  0
TABLE
  2
APPID
 70
     1
  0
APPID
  2
ACAD
 70
     0
  0
ENDTAB
  0
TABLE
  2
DIMSTYLE
 70
     1
  0
DIMSTYLE
  2
STANDARD
 70
     0
  3

  4

  5

  6

  7

 40
1.0
 41
0.18
 42
0.0625
 43
0.38
 44
0.18
 45
0.0
 46
0.0
 47
0.0
 48
0.0
140
0.18
141
0.09
142
0.0
143
25.399999999999999
144
1.0
145
0.0
146
1.0
147
0.09
 71
     0
 72
     0
 73
     1
 74
     1
 75
     0
 76
     0
 77
     0
 78
     0
170
     0
171
     2
172
     0
173
     0
174
     0
175
     0
176
     0
177
     0
178
     0
  0
ENDTAB
  0
ENDSEC
  0
SECTION
  2
BLOCKS
  0
BLOCK
  8
0
  2
$MODEL_SPACE
 70
     0
 10
0.0
 20
0.0
 30
0.0
  3
$MODEL_SPACE
  1

  0
ENDBLK
  5
14F
  8
0
  0
BLOCK
 67
     1
  8
0
  2
$PAPER_SPACE
 70
     0
 10
0.0
 20
0.0
 30
0.0
  3
$PAPER_SPACE
  1

  0
ENDBLK
  5
14D
 67
     1
  8
0
  0
ENDSEC
  0
SECTION
  2
ENTITIES
  0
LINE
  5
36
  8
0
 10
176.5
 20
87.19021596676123
 30
0.0
 11
176.5
 21
72.75
 31
0.0
  0
LINE
  5
37
  8
0
 10
203.5
 20
72.75
 30
0.0
 11
203.5
 21
87.190217874109848
 31
0.0
  0
LINE
  5
38
  8
0
 10
181.49999999999989
 20
71.5
 30
0.0
 11
181.49999999999989
 21
70.0
 31
0.0
  0
LINE
  5
39
  8
0
 10
181.49999999999989
 20
70.0
 30
0.0
 11
198.5
 21
70.0
 31
0.0
  0
LINE
  5
3A
  8
0
 10
198.5
 20
70.0
 30
0.0
 11
198.5
 21
71.5
 31
0.0
  0
LINE
  5
3B
  8
0
 10
177.75
 20
71.5
 30
0.0
 11
176.5
 21
72.75
 31
0.0
  0
LINE
  5
3C
  8
0
 10
176.5
 20
72.75
 30
0.0
 11
203.5
 21
72.75
 31
0.0
  0
LINE
  5
3D
  8
0
 10
203.5
 20
72.75
 30
0.0
 11
202.24999999999989
 21
71.5
 31
0.0
  0
LINE
  5
3E
  8
0
 10
204.29208830918219
 20
88.168363567495035
 30
0.0
 11
219.04949402898129
 21
91.305146986464976
 31
0.0
  0
LINE
  5
3F
  8
0
 10
220.0
 20
92.478924107345549
 30
0.0
 11
220.0
 21
103.46701726871051
 31
0.0
  0
LINE
  5
40
  8
0
 10
160.0
 20
92.478924107345634
 30
0.0
 11
160.0
 21
103.40512330877149
 31
0.0
  0
LINE
  5
41
  8
0
 10
175.7079116908177
 20
88.168363567495035
 30
0.0
 11
160.9505059710186
 21
91.305146986465047
 31
0.0
  0
ARC
  5
42
  8
0
 10
161.1999999999999
 20
92.478924107345634
 30
0.0
 40
1.1999999999999991
 50
180.0
 51
258.0
  0
ARC
  5
43
  8
0
 10
218.80000000000001
 20
92.478924107345549
 30
0.0
 40
1.1999999999999991
 50
281.99999999999989
 51
360.0
  0
ARC
  5
44
  8
0
 10
175.5
 20
87.190215966761258
 30
0.0
 40
1.0
 50
360.0
 51
78.000000000000014
  0
ARC
  5
45
  8
0
 10
204.49999999999989
 20
87.19021596676123
 30
0.0
 40
1.0
 50
101.9999999999999
 51
180.0
  0
LINE
  5
46
  8
0
 10
176.5
 20
88.0
 30
0.0
 11
203.5
 21
88.0
 31
0.0
  0
LINE
  5
47
  8
0
 10
182.2905392208626
 20
108.0
 30
0.0
 11
197.70946077913911
 21
108.0
 31
0.0
  0
ARC
  5
48
  8
0
 10
190.0000000000008
 20
-3.7343466195373969
 30
0.0
 40
112.0
 50
93.947045853779343
 51
105.1115693752501
  0
ARC
  5
49
  8
0
 10
190.0
 20
210.49999999999989
 30
0.0
 40
9.5
 50
27.642050395857339
 51
89.999999999999986
  0
ARC
  5
4A
  8
0
 10
215.56865847457891
 20
225.1922392550716
 30
0.0
 40
20.0
 50
210.9464997007544
 51
259.1815048853453
  0
ARC
  5
4B
  8
0
 10
209.49665858410751
 20
196.33484838451281
 30
0.0
 40
9.5
 50
18.000022668835861
 51
75.877055601809332
  0
ARC
  5
4C
  8
0
 10
190.00000000018261
 20
210.50000000000051
 30
0.0
 40
9.5
 50
90.000022668835868
 51
147.8770556018093
  0
ARC
  5
4D
  8
0
 10
164.43134152545991
 20
225.19223925509979
 30
0.0
 40
20.0
 50
282.94649970075483
 51
331.1815048853453
  0
ARC
  5
4E
  8
0
 10
170.50334141594931
 20
196.33484838468641
 30
0.0
 40
9.5
 50
99.642050395857353
 51
162.0
  0
ARC
  5
4F
  8
0
 10
170.50334141600521
 20
196.33484838486021
 30
0.0
 40
9.5
 50
162.00002266883581
 51
219.8770556018093
  0
ARC
  5
50
  8
0
 10
148.62904154141719
 20
176.55776074479829
 30
0.0
 40
20.0
 50
354.94649970075511
 51
43.181504885345241
  0
ARC
  5
51
  8
0
 10
177.9504023280042
 20
173.41515161531359
 30
0.0
 40
9.5
 50
171.6420503958573
 51
234.0
  0
ARC
  5
52
  8
0
 10
177.9504023278563
 20
173.41515161542051
 30
0.0
 40
9.5
 50
234.00002266883581
 51
291.87705560180927
  0
ARC
  5
53
  8
0
 10
189.9999999999759
 20
146.5000000002774
 30
0.0
 40
20.0
 50
66.946499700754501
 51
115.18150488534511
  0
ARC
  5
54
  8
0
 10
202.04959767199571
 20
173.4151516153135
 30
0.0
 40
9.5
 50
243.6420503958573
 51
306.0
  0
ARC
  5
55
  8
0
 10
202.0495976718482
 20
173.41515161520579
 30
0.0
 40
9.5
 50
306.00002266883581
 51
3.8770556018093232
  0
ARC
  5
56
  8
0
 10
231.3709584585678
 20
176.55776074475261
 30
0.0
 40
20.0
 50
136.8184951078706
 51
187.18150488534519
  0
CIRCLE
  5
57
  8
3
 10
190.0
 20
190.0
 30
0.0
 40
6.0
  0
CIRCLE
  5
58
  8
0
 10
190.0
 20
190.0
 30
0.0
 40
7.5
  0
CIRCLE
  5
59
  8
0
 10
190.0
 20
190.0
 30
0.0
 40
5.052999999999999
  0
ARC
  5
5A
  8
0
 10
190.0
 20
154.24305368741619
 30
0.0
 40
64.5
 50
257.60627757820441
 51
282.39372242179968
  0
ARC
  5
5B
  8
0
 10
216.05618511786841
 20
101.74305368741619
 30
0.0
 40
12.0
 50
248.14942897492961
 51
256.51257859360481
  0
ARC
  5
5C
  8
0
 10
206.74999999998531
 20
79.243053687416264
 30
0.0
 40
12.35
 50
66.927357879537979
 51
103.61178254452589
  0
ARC
  5
5D
  8
0
 10
206.74999999998539
 20
116.65522880448739
 30
0.0
 40
12.35
 50
256.38821745547392
 51
293.07264212046198
  0
ARC
  5
5E
  8
0
 10
216.05618511786841
 20
94.155228804487464
 30
0.0
 40
12.0
 50
103.4874214063951
 51
111.85057102507029
  0
ARC
  5
5F
  8
0
 10
189.99999999999989
 20
41.655228804487457
 30
0.0
 40
64.5
 50
77.606277578200221
 51
102.39372242179689
  0
LINE
  5
60
  8
1
 10
190.0
 20
115.4999999999999
 30
0.0
 11
190.0
 21
62.5
 31
0.0
  0
LINE
  5
61
  8
1
 10
190.0
 20
227.49999999999989
 30
0.0
 11
190.0
 21
152.5
 31
0.0
  0
ARC
  5
62
  8
0
 10
161.1908943359999
 20
103.2575744
 30
0.0
 40
1.1999999999999991
 50
108.9268714357858
 51
172.93718515437229
  0
ARC
  5
63
  8
0
 10
161.1908943359999
 20
103.2575744
 30
0.0
 40
1.1999999999999991
 50
101.2136884504869
 51
101.213688450487
  0
ARC
  5
64
  8
0
 10
218.81638348800001
 20
103.26940159999999
 30
0.0
 40
1.1999999999999991
 50
9.4786294913849662
 51
65.510220164648914
  0
ARC
  5
65
  8
0
 10
190.0000000000008
 20
-3.7343466195373969
 30
0.0
 40
112.0
 50
74.827228866192868
 51
86.052954146220642
  0
ARC
  5
66
  8
0
 10
209.49665858405061
 20
196.33484838468641
 30
0.0
 40
9.5
 50
320.12294441276839
 51
17.999999999999979
  0
LINE
  5
67
  8
0
 10
177.75
 20
71.5
 30
0.0
 11
202.24999999999989
 21
71.5
 31
0.0
  0
LINE
  5
68
  8
2
 10
181.99999999999989
 20
96.0
 30
0.0
 11
198.0
 21
96.0
 31
0.0
  0
LINE
  5
69
  8
2
 10
180.99999999999989
 20
95.0
 30
0.0
 11
180.99999999999989
 21
71.5
 31
0.0
  0
LINE
  5
6A
  8
2
 10
180.99999999999989
 20
95.0
 30
0.0
 11
181.99999999999989
 21
96.0
 31
0.0
  0
LINE
  5
6B
  8
2
 10
184.94699999999989
 20
72.0
 30
0.0
 11
184.94699999999989
 21
96.0
 31
0.0
  0
LINE
  5
6C
  8
2
 10
183.99999999999989
 20
71.053000000000054
 30
0.0
 11
184.0
 21
96.0
 31
0.0
  0
LINE
  5
6D
  8
2
 10
182.5
 20
96.0
 30
0.0
 11
182.29053922086129
 21
107.9999999999999
 31
0.0
  0
CIRCLE
  5
6E
  8
0
 10
190.0
 20
190.0
 30
0.0
 40
7.7094607791386229
  0
LINE
  5
6F
  8
0
 10
211.5495976718482
 20
104.1978469692763
 30
0.0
 11
211.5495976718482
 21
91.700435522627444
 31
0.0
  0
LINE
  5
70
  8
0
 10
202.04959767199571
 20
104.0014973050403
 30
0.0
 11
202.04959767199571
 21
91.896785186863326
 31
0.0
  0
LINE
  5
71
  8
2
 10
182.9469999999998
 20
70.000000000000028
 30
0.0
 11
184.94699999999989
 21
72.000000000000014
 31
0.0
  0
LINE
  5
72
  8
2
 10
184.94699999999989
 20
72.0
 30
0.0
 11
195.053
 21
72.0
 31
0.0
  0
LINE
  5
73
  8
1
 10
152.5
 20
190.0
 30
0.0
 11
227.49999999999989
 21
190.0
 31
0.0
  0
LINE
  5
74
  8
2
 10
197.5
 20
96.0
 30
0.0
 11
197.7094607791386
 21
107.9999999999999
 31
0.0
  0
LINE
  5
75
  8
2
 10
199.0
 20
95.0
 30
0.0
 11
198.0
 21
96.0
 31
0.0
  0
LINE
  5
76
  8
2
 10
199.0
 20
95.0
 30
0.0
 11
199.0
 21
71.5
 31
0.0
  0
LINE
  5
77
  8
2
 10
196.0
 20
71.053000000000054
 30
0.0
 11
196.0
 21
96.0
 31
0.0
  0
LINE
  5
78
  8
2
 10
195.053
 20
72.0
 30
0.0
 11
195.053
 21
96.0
 31
0.0
  0
LINE
  5
79
  8
2
 10
197.05300000000011
 20
70.000000000000028
 30
0.0
 11
195.053
 21
72.000000000000014
 31
0.0
  0
LINE
  5
7A
  8
0
 10
177.9504023280042
 20
104.0014973050403
 30
0.0
 11
177.9504023280042
 21
91.896785186863326
 31
0.0
  0
LINE
  5
7B
  8
0
 10
168.45040232815171
 20
104.1978469692763
 30
0.0
 11
168.45040232815171
 21
91.700435522627444
 31
0.0
  0
ARC
  5
7C
  8
0
 10
163.94381488213139
 20
94.155228804487464
 30
0.0
 40
12.0
 50
68.149428974929677
 51
76.512578593604857
  0
ARC
  5
7D
  8
0
 10
173.2500000000145
 20
116.65522880448739
 30
0.0
 40
12.35
 50
246.92735787953791
 51
283.61178254452602
  0
ARC
  5
7E
  8
0
 10
173.25000000001461
 20
79.243053687416264
 30
0.0
 40
12.35
 50
76.388217455474063
 51
113.07264212046201
  0
ARC
  5
7F
  8
0
 10
163.94381488213139
 20
101.74305368741619
 30
0.0
 40
12.0
 50
283.48742140639519
 51
291.85057102507039
  0
LINE
  5
80
  8
2
 10
297.05300000000011
 20
70.000000000000028
 30
0.0
 11
295.053
 21
72.000000000000014
 31
0.0
  0
LINE
  5
81
  8
2
 10
295.053
 20
72.0
 30
0.0
 11
295.053
 21
96.0
 31
0.0
  0
LINE
  5
82
  8
2
 10
296.0
 20
71.053000000000054
 30
0.0
 11
296.0
 21
96.0
 31
0.0
  0
LINE
  5
83
  8
2
 10
299.0
 20
95.0
 30
0.0
 11
299.0
 21
71.5
 31
0.0
  0
LINE
  5
84
  8
2
 10
299.0
 20
95.0
 30
0.0
 11
298.0
 21
96.0
 31
0.0
  0
LINE
  5
85
  8
2
 10
297.5
 20
96.0
 30
0.0
 11
297.70946077913862
 21
107.9999999999999
 31
0.0
  0
LINE
  5
86
  8
2
 10
284.94699999999989
 20
72.0
 30
0.0
 11
295.053
 21
72.0
 31
0.0
  0
LINE
  5
87
  8
2
 10
282.94699999999978
 20
70.000000000000028
 30
0.0
 11
284.94699999999989
 21
72.000000000000014
 31
0.0
  0
LINE
  5
88
  8
2
 10
282.5
 20
96.0
 30
0.0
 11
282.29053922086138
 21
107.9999999999999
 31
0.0
  0
LINE
  5
89
  8
2
 10
284.0
 20
71.053000000000054
 30
0.0
 11
284.0
 21
96.0
 31
0.0
  0
LINE
  5
8A
  8
2
 10
284.94699999999989
 20
72.0
 30
0.0
 11
284.94699999999989
 21
96.0
 31
0.0
  0
LINE
  5
8B
  8
2
 10
281.0
 20
95.0
 30
0.0
 11
282.0
 21
96.0
 31
0.0
  0
LINE
  5
8C
  8
2
 10
281.0
 20
95.0
 30
0.0
 11
281.0
 21
71.5
 31
0.0
  0
LINE
  5
8D
  8
2
 10
282.0
 20
96.0
 30
0.0
 11
298.0
 21
96.0
 31
0.0
  0
LINE
  5
8E
  8
0
 10
277.74999999999989
 20
71.5
 30
0.0
 11
302.24999999999989
 21
71.5
 31
0.0
  0
ARC
  5
8F
  8
0
 10
290.00000000000091
 20
-3.7343466195373969
 30
0.0
 40
112.0
 50
74.827228866192868
 51
86.052954146220642
  0
ARC
  5
90
  8
0
 10
318.81638348799999
 20
103.26940159999999
 30
0.0
 40
1.1999999999999991
 50
9.4786294913849662
 51
65.510220164648914
  0
LINE
  5
91
  8
1
 10
290.0
 20
115.4999999999999
 30
0.0
 11
290.0
 21
62.5
 31
0.0
  0
ARC
  5
92
  8
0
 10
290.00000000000091
 20
-3.7343466195373969
 30
0.0
 40
112.0
 50
93.947045853779343
 51
102.9789165355016
  0
LINE
  5
93
  8
0
 10
282.29053922086263
 20
108.0
 30
0.0
 11
297.70946077913908
 21
108.0
 31
0.0
  0
LINE
  5
94
  8
0
 10
276.5
 20
88.0
 30
0.0
 11
303.5
 21
88.0
 31
0.0
  0
ARC
  5
95
  8
0
 10
304.49999999999989
 20
87.19021596676123
 30
0.0
 40
1.0
 50
101.9999999999999
 51
180.0
  0
ARC
  5
96
  8
0
 10
275.49999999999989
 20
87.190215966761258
 30
0.0
 40
1.0
 50
360.0
 51
78.000000000000014
  0
ARC
  5
97
  8
0
 10
318.80000000000001
 20
92.478924107345549
 30
0.0
 40
1.1999999999999991
 50
281.99999999999989
 51
360.0
  0
LINE
  5
98
  8
0
 10
275.7079116908177
 20
88.168363567495035
 30
0.0
 11
264.86565758633219
 21
90.472955820697123
 31
0.0
  0
LINE
  5
99
  8
0
 10
320.0
 20
92.478924107345549
 30
0.0
 11
320.0
 21
103.46701726871051
 31
0.0
  0
LINE
  5
9A
  8
0
 10
304.29208830918219
 20
88.168363567495035
 30
0.0
 11
319.04949402898131
 21
91.305146986464976
 31
0.0
  0
LINE
  5
9B
  8
0
 10
303.5
 20
72.75
 30
0.0
 11
302.24999999999989
 21
71.5
 31
0.0
  0
LINE
  5
9C
  8
0
 10
276.5
 20
72.75
 30
0.0
 11
303.5
 21
72.75
 31
0.0
  0
LINE
  5
9D
  8
0
 10
277.74999999999989
 20
71.5
 30
0.0
 11
276.5
 21
72.75
 31
0.0
  0
LINE
  5
9E
  8
0
 10
298.49999999999989
 20
70.0
 30
0.0
 11
298.49999999999989
 21
71.5
 31
0.0
  0
LINE
  5
9F
  8
0
 10
281.49999999999989
 20
70.0
 30
0.0
 11
298.49999999999989
 21
70.0
 31
0.0
  0
LINE
  5
A0
  8
0
 10
281.49999999999989
 20
71.5
 30
0.0
 11
281.49999999999989
 21
70.0
 31
0.0
  0
LINE
  5
A1
  8
0
 10
303.5
 20
72.75
 30
0.0
 11
303.5
 21
87.190217874109848
 31
0.0
  0
LINE
  5
A2
  8
0
 10
276.5
 20
87.19021596676123
 30
0.0
 11
276.5
 21
72.75
 31
0.0
  0
LINE
  5
A3
  8
0
 10
263.9151516153135
 20
104.2350208921375
 30
0.0
 11
263.9151516153135
 21
91.646732941577696
 31
0.0
  0
ARC
  5
A4
  8
0
 10
265.11515161531349
 20
104.2350208921375
 30
0.0
 40
1.1999999999999991
 50
102.97891653549981
 51
180.0
  0
ARC
  5
A5
  8
0
 10
265.11515161531349
 20
91.646732941577696
 30
0.0
 40
1.1999999999999991
 50
180.0
 51
258.0
  0
ARC
  5
A6
  8
0
 10
282.15074861512102
 20
83.730205801606843
 30
0.0
 40
22.4327135913842
 50
72.083688996399374
 51
107.3451311192925
  0
ARC
  5
A7
  8
0
 10
298.91234617010269
 20
167.7567774313213
 30
0.0
 40
63.452559478333988
 50
261.0598671459046
 51
275.57710315824949
  0
ARC
  5
A8
  8
0
 10
269.51737510880298
 20
125.8261516584537
 30
0.0
 40
21.520922853966312
 50
255.62314811320309
 51
286.03769628970292
  0
ARC
  5
A9
  8
0
 10
310.89248988716491
 20
97.11629865091254
 30
0.0
 40
9.0389301535749151
 50
83.239461862697311
 51
118.40302497017809
  0
ARC
  5
AA
  8
0
 10
304.69025350492439
 20
108.58564751685159
 30
0.0
 40
4.0
 50
275.5771031582496
 51
298.40302497017791
  0
LINE
  5
AB
  8
0
 10
273.4151516153135
 20
104.1978469692763
 30
0.0
 11
273.4151516153135
 21
91.700435522627444
 31
0.0
  0
LINE
  5
AC
  8
0
 10
305.54770500021152
 20
104.1978469692763
 30
0.0
 11
305.54770500021152
 21
91.700435522627444
 31
0.0
  0
LINE
  5
AD
  8
0
 10
290.24399592095438
 20
104.1978469692763
 30
0.0
 11
290.24399592095438
 21
91.700435522627444
 31
0.0
  0
ARC
  5
AE
  8
0
 10
269.51737510880298
 20
70.05560217526147
 30
0.0
 40
21.520922853966312
 50
72.627745785268857
 51
104.3768518867968
  0
ARC
  5
AF
  8
0
 10
282.15074861512102
 20
112.15154803210839
 30
0.0
 40
22.4327135913842
 50
252.6548688807074
 51
287.91631100360058
  0
ARC
  5
B0
  8
0
 10
298.91234617010269
 20
28.124976402393909
 30
0.0
 40
63.452559478333988
 50
84.422896841750443
 51
98.940132854095395
  0
ARC
  5
B1
  8
0
 10
304.69025350492439
 20
87.296106316863643
 30
0.0
 40
4.0
 50
61.596975029822069
 51
84.422896841750344
  0
ARC
  5
B2
  8
0
 10
310.89248988716491
 20
98.765455182802697
 30
0.0
 40
9.0389301535749151
 50
241.59697502982181
 51
276.2353493899995
  0
ARC
  5
BC
  8
0
 10
69.107510112834973
 20
98.765455182802697
 30
0.0
 40
9.0389301535749151
 50
263.7646506100005
 51
298.40302497017819
  0
ARC
  5
BD
  8
0
 10
75.309746495075501
 20
87.296106316863643
 30
0.0
 40
4.0
 50
95.577103158249685
 51
118.4030249701779
  0
ARC
  5
BE
  8
0
 10
81.087653829897192
 20
28.124976402393909
 30
0.0
 40
63.452559478333988
 50
81.059867145904619
 51
95.577103158249585
  0
ARC
  5
BF
  8
0
 10
97.849251384878869
 20
112.15154803210839
 30
0.0
 40
22.4327135913842
 50
252.08368899639939
 51
287.3451311192926
  0
ARC
  5
C0
  8
0
 10
110.48262489119691
 20
70.05560217526147
 30
0.0
 40
21.520922853966312
 50
75.623148113203186
 51
107.3722542147311
  0
LINE
  5
C1
  8
0
 10
89.756004079045454
 20
104.1978469692763
 30
0.0
 11
89.75600407904551
 21
91.700435522627444
 31
0.0
  0
LINE
  5
C2
  8
0
 10
74.452294999788421
 20
104.1978469692763
 30
0.0
 11
74.452294999788421
 21
91.700435522627444
 31
0.0
  0
LINE
  5
C3
  8
0
 10
106.5848483846863
 20
104.1978469692763
 30
0.0
 11
106.5848483846863
 21
91.700435522627444
 31
0.0
  0
ARC
  5
C4
  8
0
 10
75.309746495075501
 20
108.58564751685159
 30
0.0
 40
4.0
 50
241.59697502982209
 51
264.42289684175029
  0
ARC
  5
C5
  8
0
 10
69.107510112834973
 20
97.11629865091254
 30
0.0
 40
9.0389301535749151
 50
61.596975029821877
 51
96.760538137302717
  0
ARC
  5
C6
  8
0
 10
110.48262489119691
 20
125.8261516584537
 30
0.0
 40
21.520922853966312
 50
253.96230371029711
 51
284.37685188679683
  0
ARC
  5
C7
  8
0
 10
81.087653829897192
 20
167.7567774313213
 30
0.0
 40
63.452559478333988
 50
264.4228968417504
 51
278.9401328540954
  0
ARC
  5
C8
  8
0
 10
97.849251384878869
 20
83.730205801606843
 30
0.0
 40
22.4327135913842
 50
72.654868880707497
 51
107.9163110036006
  0
ARC
  5
C9
  8
0
 10
114.88484838468629
 20
91.646732941577696
 30
0.0
 40
1.1999999999999991
 50
282.0
 51
0.0000000000000254
  0
ARC
  5
CA
  8
0
 10
114.88484838468629
 20
104.2350208921375
 30
0.0
 40
1.1999999999999991
 50
0.0000000000000254
 51
77.021083464500194
  0
LINE
  5
CB
  8
0
 10
116.0848483846863
 20
104.2350208921375
 30
0.0
 11
116.0848483846863
 21
91.646732941577696
 31
0.0
  0
LINE
  5
CC
  8
0
 10
103.4999999999999
 20
87.19021596676123
 30
0.0
 11
103.4999999999999
 21
72.75
 31
0.0
  0
LINE
  5
CD
  8
0
 10
76.499999999999943
 20
72.75
 30
0.0
 11
76.499999999999943
 21
87.190217874109848
 31
0.0
  0
LINE
  5
CE
  8
0
 10
98.499999999999943
 20
71.5
 30
0.0
 11
98.499999999999943
 21
70.0
 31
0.0
  0
LINE
  5
CF
  8
0
 10
98.499999999999943
 20
70.0
 30
0.0
 11
81.499999999999943
 21
70.0
 31
0.0
  0
LINE
  5
D0
  8
0
 10
81.499999999999943
 20
70.0
 30
0.0
 11
81.499999999999943
 21
71.5
 31
0.0
  0
LINE
  5
D1
  8
0
 10
102.2499999999999
 20
71.5
 30
0.0
 11
103.4999999999999
 21
72.75
 31
0.0
  0
LINE
  5
D2
  8
0
 10
103.4999999999999
 20
72.75
 30
0.0
 11
76.499999999999943
 21
72.75
 31
0.0
  0
LINE
  5
D3
  8
0
 10
76.499999999999943
 20
72.75
 30
0.0
 11
77.749999999999943
 21
71.5
 31
0.0
  0
LINE
  5
D4
  8
0
 10
75.707911690817696
 20
88.168363567495035
 30
0.0
 11
60.950505971018629
 21
91.305146986464976
 31
0.0
  0
LINE
  5
D5
  8
0
 10
59.999999999999943
 20
92.478924107345549
 30
0.0
 11
59.999999999999943
 21
103.46701726871051
 31
0.0
  0
LINE
  5
D6
  8
0
 10
104.29208830918211
 20
88.168363567495035
 30
0.0
 11
115.1343424136676
 21
90.472955820697123
 31
0.0
  0
ARC
  5
D7
  8
0
 10
61.199999999999932
 20
92.478924107345549
 30
0.0
 40
1.1999999999999991
 50
180.0
 51
258.0
  0
ARC
  5
D8
  8
0
 10
104.4999999999999
 20
87.190215966761258
 30
0.0
 40
1.0
 50
102.0
 51
180.0
  0
ARC
  5
D9
  8
0
 10
75.499999999999943
 20
87.19021596676123
 30
0.0
 40
1.0
 50
0.0000000000000254
 51
78.000000000000071
  0
LINE
  5
DA
  8
0
 10
103.4999999999999
 20
88.0
 30
0.0
 11
76.499999999999943
 21
88.0
 31
0.0
  0
LINE
  5
DB
  8
0
 10
97.709460779137316
 20
108.0
 30
0.0
 11
82.290539220860794
 21
108.0
 31
0.0
  0
ARC
  5
DC
  8
0
 10
89.999999999999034
 20
-3.7343466195373969
 30
0.0
 40
112.0
 50
77.021083464498361
 51
86.052954146220685
  0
LINE
  5
DD
  8
1
 10
89.999999999999943
 20
115.4999999999999
 30
0.0
 11
89.999999999999943
 21
62.5
 31
0.0
  0
ARC
  5
DE
  8
0
 10
61.183616511999958
 20
103.26940159999999
 30
0.0
 40
1.1999999999999991
 50
114.4897798353511
 51
170.52137050861501
  0
ARC
  5
DF
  8
0
 10
89.999999999999034
 20
-3.7343466195373969
 30
0.0
 40
112.0
 50
93.947045853779386
 51
105.1727711338071
  0
LINE
  5
E0
  8
0
 10
102.2499999999999
 20
71.5
 30
0.0
 11
77.749999999999943
 21
71.5
 31
0.0
  0
LINE
  5
E1
  8
2
 10
97.999999999999943
 20
96.0
 30
0.0
 11
81.999999999999929
 21
96.0
 31
0.0
  0
LINE
  5
E2
  8
2
 10
98.999999999999943
 20
95.0
 30
0.0
 11
98.999999999999943
 21
71.5
 31
0.0
  0
LINE
  5
E3
  8
2
 10
98.999999999999943
 20
95.0
 30
0.0
 11
97.999999999999943
 21
96.0
 31
0.0
  0
LINE
  5
E4
  8
2
 10
95.052999999999997
 20
72.0
 30
0.0
 11
95.052999999999997
 21
96.0
 31
0.0
  0
LINE
  5
E5
  8
2
 10
95.999999999999943
 20
71.053000000000054
 30
0.0
 11
95.999999999999943
 21
96.0
 31
0.0
  0
LINE
  5
E6
  8
2
 10
97.499999999999943
 20
96.0
 30
0.0
 11
97.709460779138567
 21
107.9999999999999
 31
0.0
  0
LINE
  5
E7
  8
2
 10
97.053000000000054
 20
70.000000000000028
 30
0.0
 11
95.052999999999997
 21
72.000000000000014
 31
0.0
  0
LINE
  5
E8
  8
2
 10
95.052999999999997
 20
72.0
 30
0.0
 11
84.946999999999889
 21
72.0
 31
0.0
  0
LINE
  5
E9
  8
2
 10
82.499999999999943
 20
96.0
 30
0.0
 11
82.290539220861319
 21
107.9999999999999
 31
0.0
  0
LINE
  5
EA
  8
2
 10
80.999999999999943
 20
95.0
 30
0.0
 11
81.999999999999929
 21
96.0
 31
0.0
  0
LINE
  5
EB
  8
2
 10
80.999999999999943
 20
95.0
 30
0.0
 11
80.999999999999943
 21
71.5
 31
0.0
  0
LINE
  5
EC
  8
2
 10
83.999999999999943
 20
71.053000000000054
 30
0.0
 11
83.999999999999943
 21
96.0
 31
0.0
  0
LINE
  5
ED
  8
2
 10
84.946999999999889
 20
72.0
 30
0.0
 11
84.946999999999889
 21
96.0
 31
0.0
  0
LINE
  5
EE
  8
2
 10
82.946999999999818
 20
70.000000000000028
 30
0.0
 11
84.946999999999889
 21
72.000000000000014
 31
0.0
  0
ENDSEC
  0
EOF
