  0
SECTION
  2
HEADER
  9
$ACADVER
  1
AC1009
  9
$INSBASE
 10
0.0
 20
0.0
 30
0.0
  9
$EXTMIN
 10
39.862633234428472
 20
48.043899906384638
 30
-0.0015258207003583
  9
$EXTMAX
 10
142.0726779959777
 20
92.054443623701161
 30
0.0000000349246037
  9
$LIMMIN
 10
0.0
 20
0.0
  9
$LIMMAX
 10
187.5
 20
135.0
  9
$ORTHOMODE
 70
     1
  9
$REGENMODE
 70
     1
  9
$FILLMODE
 70
     1
  9
$QTEXTMODE
 70
     0
  9
$MIRRTEXT
 70
     0
  9
$DRAGMODE
 70
     2
  9
$LTSCALE
 40
5.0
  9
$OSMODE
 70
   231
  9
$ATTMODE
 70
     1
  9
$TEXTSIZE
 40
4.000000000000048
  9
$TRACEWID
 40
0.05
  9
$TEXTSTYLE
  7
STANDARD
  9
$CLAYER
  8
0
  9
$CELTYPE
  6
BYLAYER
  9
$CECOLOR
 62
   256
  9
$DIMSCALE
 40
0.5
  9
$DIMASZ
 40
3.0
  9
$DIMEXO
 40
2.0
  9
$DIMDLI
 40
0.38
  9
$DIMRND
 40
0.0
  9
$DIMDLE
 40
0.0
  9
$DIMEXE
 40
2.0
  9
$DIMTP
 40
0.0
  9
$DIMTM
 40
0.0
  9
$DIMTXT
 40
3.2000000000000002
  9
$DIMCEN
 40
0.09
  9
$DIMTSZ
 40
0.0
  9
$DIMTOL
 70
     0
  9
$DIMLIM
 70
     0
  9
$DIMTIH
 70
     0
  9
$DIMTOH
 70
     0
  9
$DIMSE1
 70
     0
  9
$DIMSE2
 70
     0
  9
$DIMTAD
 70
     1
  9
$DIMZIN
 70
     0
  9
$DIMBLK
  1

  9
$DIMASO
 70
     1
  9
$DIMSHO
 70
     0
  9
$DIMPOST
  1

  9
$DIMAPOST
  1

  9
$DIMALT
 70
     0
  9
$DIMALTD
 70
     2
  9
$DIMALTF
 40
25.399999999999999
  9
$DIMLFAC
 40
1.0
  9
$DIMTOFL
 70
     0
  9
$DIMTVP
 40
1.6000000000000001
  9
$DIMTIX
 70
     1
  9
$DIMSOXD
 70
     0
  9
$DIMSAH
 70
     0
  9
$DIMBLK1
  1

  9
$DIMBLK2
  1

  9
$DIMSTYLE
  2
STANDARD
  9
$DIMCLRD
 70
     0
  9
$DIMCLRE
 70
     0
  9
$DIMCLRT
 70
     0
  9
$DIMTFAC
 40
1.0
  9
$DIMGAP
 40
0.09
  9
$LUNITS
 70
     2
  9
$LUPREC
 70
     4
  9
$SKETCHINC
 40
0.1
  9
$FILLETRAD
 40
1.8999999999999999
  9
$AUNITS
 70
     0
  9
$AUPREC
 70
     0
  9
$MENU
  1
E:\r13\win\SUPPORT\ACAD
  9
$ELEVATION
 40
0.0
  9
$PELEVATION
 40
0.0
  9
$THICKNESS
 40
0.0
  9
$LIMCHECK
 70
     0
  9
$BLIPMODE
 70
     1
  9
$CHAMFERA
 40
0.0
  9
$CHAMFERB
 40
0.0
  9
$SKPOLY
 70
     0
  9
$TDCREATE
 40
2451582.7071135421
  9
$TDUPDATE
 40
2453236.8345480668
  9
$TDINDWG
 40
0.0001446759
  9
$TDUSRTIMER
 40
0.0001446759
  9
$USRTIMER
 70
     1
  9
$ANGBASE
 50
0.0
  9
$ANGDIR
 70
     0
  9
$PDMODE
 70
     0
  9
$PDSIZE
 40
0.0
  9
$PLINEWID
 40
0.0
  9
$COORDS
 70
     0
  9
$SPLFRAME
 70
     0
  9
$SPLINETYPE
 70
     6
  9
$SPLINESEGS
 70
     8
  9
$ATTDIA
 70
     0
  9
$ATTREQ
 70
     1
  9
$HANDLING
 70
-16383
  9
$HANDSEED
  5
72D
  9
$SURFTAB1
 70
     6
  9
$SURFTAB2
 70
     6
  9
$SURFTYPE
 70
     6
  9
$SURFU
 70
     6
  9
$SURFV
 70
     6
  9
$UCSNAME
  2

  9
$UCSORG
 10
0.0
 20
0.0
 30
0.0
  9
$UCSXDIR
 10
1.0
 20
0.0
 30
0.0
  9
$UCSYDIR
 10
0.0
 20
1.0
 30
0.0
  9
$PUCSNAME
  2

  9
$PUCSORG
 10
0.0
 20
0.0
 30
0.0
  9
$PUCSXDIR
 10
1.0
 20
0.0
 30
0.0
  9
$PUCSYDIR
 10
0.0
 20
1.0
 30
0.0
  9
$USERI1
 70
     0
  9
$USERI2
 70
     1
  9
$USERI3
 70
     1
  9
$USERI4
 70
     0
  9
$USERI5
 70
     0
  9
$USERR1
 40
0.0
  9
$USERR2
 40
0.0
  9
$USERR3
 40
0.0
  9
$USERR4
 40
0.0
  9
$USERR5
 40
0.0
  9
$WORLDVIEW
 70
     1
  9
$SHADEDGE
 70
     3
  9
$SHADEDIF
 70
    70
  9
$TILEMODE
 70
     1
  9
$MAXACTVP
 70
    16
  9
$PLIMCHECK
 70
     0
  9
$PEXTMIN
 10
1.0000000000000000E+020
 20
1.0000000000000000E+020
 30
1.0000000000000000E+020
  9
$PEXTMAX
 10
-1.0000000000000000E+020
 20
-1.0000000000000000E+020
 30
-1.0000000000000000E+020
  9
$PLIMMIN
 10
0.0
 20
0.0
  9
$PLIMMAX
 10
12.0
 20
9.0
  9
$UNITMODE
 70
     0
  9
$VISRETAIN
 70
     0
  9
$PLINEGEN
 70
     0
  9
$PSLTSCALE
 70
     0
  0
ENDSEC
  0
SECTION
  2
TABLES
  0
TABLE
  2
VPORT
 70
     3
  0
VPORT
  2
*ACTIVE
 70
     0
 10
0.0
 20
0.0
 11
1.0
 21
1.0
 12
90.967655615203114
 22
70.0491717650429
 13
0.0
 23
0.0
 14
5.0
 24
5.0
 15
5.0
 25
5.0
 16
0.0
 26
0.0
 36
1.0
 17
0.0
 27
0.0
 37
0.0
 40
121.7374374759583
 41
0.9407114624505927
 42
50.0
 43
0.0
 44
0.0
 50
0.0
 51
0.0
 71
     0
 72
   500
 73
     1
 74
     0
 75
     0
 76
     0
 77
     0
 78
     2
  0
ENDTAB
  0
TABLE
  2
LTYPE
 70
     3
  0
LTYPE
  2
CONTINUOUS
 70
     0
  3
Solid Line
 72
    65
 73
     0
 40
0.0
  0
LTYPE
  2
CENTER
 70
     0
  3
____ _ ____ _ ____ _ ____ _ ____ _ ____ _ ____
 72
    65
 73
     4
 40
2.0
 49
1.25
 49
-0.25
 49
0.25
 49
-0.25
  0
LTYPE
  2
HIDDEN
 70
     0
  3
_ _ _ _ _ _ _ _ _ _ _ _ _ _ _ _ _ _ _ _ _ _ _
 72
    65
 73
     2
 40
0.375
 49
0.25
 49
-0.125
  0
ENDTAB
  0
TABLE
  2
LAYER
 70
     4
  0
LAYER
  2
0
 70
     0
 62
     7
  6
CONTINUOUS
  0
LAYER
  2
1
 70
     0
 62
     1
  6
CENTER
  0
LAYER
  2
3
 70
     0
 62
     3
  6
CONTINUOUS
  0
LAYER
  2
2
 70
     0
 62
     2
  6
HIDDEN
  0
ENDTAB
  0
TABLE
  2
STYLE
 70
     1
  0
STYLE
  2
STANDARD
 70
     0
 40
0.0
 41
1.0
 50
0.0
 71
     0
 42
4.000000000000048
  3
TXT
  4
BIGFONT
  0
ENDTAB
  0
TABLE
  2
VIEW
 70
     1
  0
VIEW
  2
ALL
 70
     0
 40
135.0
 10
110.4957983193277
 20
67.5
 41
0.0
 11
0.0
 21
0.0
 31
1.0
 12
0.0
 22
0.0
 32
0.0
 42
0.0
 43
0.0
 44
0.0
 50
0.0
 71
     0
  0
ENDTAB
  0
TABLE
  2
UCS
 70
     0
  0
ENDTAB
  0
TABLE
  2
APPID
 70
     1
  0
APPID
  2
ACAD
 70
     0
  0
ENDTAB
  0
TABLE
  2
DIMSTYLE
 70
     1
  0
DIMSTYLE
  2
STANDARD
 70
     0
  3

  4

  5

  6

  7

 40
1.0
 41
0.18
 42
0.0625
 43
0.38
 44
0.18
 45
0.0
 46
0.0
 47
0.0
 48
0.0
140
0.18
141
0.09
142
0.0
143
25.399999999999999
144
1.0
145
0.0
146
1.0
147
0.09
 71
     0
 72
     0
 73
     1
 74
     1
 75
     0
 76
     0
 77
     0
 78
     0
170
     0
171
     2
172
     0
173
     0
174
     0
175
     0
176
     0
177
     0
178
     0
  0
ENDTAB
  0
ENDSEC
  0
SECTION
  2
BLOCKS
  0
BLOCK
  8
0
  2
$MODEL_SPACE
 70
     0
 10
0.0
 20
0.0
 30
0.0
  3
$MODEL_SPACE
  1

  0
ENDBLK
  5
6D5
  8
0
  0
BLOCK
 67
     1
  8
0
  2
$PAPER_SPACE
 70
     0
 10
0.0
 20
0.0
 30
0.0
  3
$PAPER_SPACE
  1

  0
ENDBLK
  5
6D3
 67
     1
  8
0
  0
BLOCK
  8
0
  2
STDGX5
 70
     0
 10
0.0
 20
0.0
 30
0.0
  3
STDGX5
  1

  0
ENDBLK
  5
3DA
  8
0
  0
ENDSEC
  0
SECTION
  2
ENTITIES
  0
INSERT
  5
404
  8
0
  2
STDGX5
 10
0.0
 20
0.0
 30
0.0
 41
0.125
 42
0.125
 43
0.125
  0
INSERT
  5
405
  8
0
  2
STDGX5
 10
0.0
 20
0.0
 30
0.0
 41
0.125
 42
0.125
 43
0.125
  0
INSERT
  5
406
  8
0
  2
STDGX5
 10
34.375
 20
0.0
 30
0.0
 41
0.125
 42
0.125
 43
0.125
  0
INSERT
  5
407
  8
0
  2
STDGX5
 10
34.375
 20
0.0
 30
0.0
 41
0.125
 42
0.125
 43
0.125
  0
INSERT
  5
408
  8
0
  2
STDGX5
 10
0.0
 20
0.0
 30
0.0
 41
0.25
 42
0.25
 43
0.25
  0
INSERT
  5
409
  8
0
  2
STDGX5
 10
0.0
 20
0.0
 30
0.0
 41
0.25
 42
0.25
 43
0.25
  0
INSERT
  5
40A
  8
0
  2
STDGX5
 10
68.75
 20
0.0
 30
0.0
 41
0.25
 42
0.25
 43
0.25
  0
INSERT
  5
40B
  8
0
  2
STDGX5
 10
68.75
 20
0.0
 30
0.0
 41
0.25
 42
0.25
 43
0.25
  0
INSERT
  5
40D
  8
0
  2
STDGX5
 10
-17.5
 20
-50.0
 30
0.0
 41
0.1666666666666666
 42
0.1666666666666666
 43
0.1666666666666666
  0
INSERT
  5
40E
  8
0
  2
STDGX5
 10
-17.5
 20
-50.0
 30
0.0
 41
0.1666666666666666
 42
0.1666666666666666
 43
0.1666666666666666
  0
INSERT
  5
40F
  8
0
  2
STDGX5
 10
28.333333333333321
 20
-50.0
 30
0.0
 41
0.1666666666666666
 42
0.1666666666666666
 43
0.1666666666666666
  0
INSERT
  5
410
  8
0
  2
STDGX5
 10
28.333333333333321
 20
-50.0
 30
0.0
 41
0.1666666666666666
 42
0.1666666666666666
 43
0.1666666666666666
  0
INSERT
  5
412
  8
0
  2
STDGX5
 10
-17.5
 20
-50.0
 30
0.0
 41
0.1666666666666666
 42
0.1666666666666666
 43
0.1666666666666666
  0
INSERT
  5
413
  8
0
  2
STDGX5
 10
-17.5
 20
-50.0
 30
0.0
 41
0.1666666666666666
 42
0.1666666666666666
 43
0.1666666666666666
  0
INSERT
  5
414
  8
0
  2
STDGX5
 10
28.333333333333329
 20
-50.0
 30
0.0
 41
0.1666666666666666
 42
0.1666666666666666
 43
0.1666666666666666
  0
INSERT
  5
415
  8
0
  2
STDGX5
 10
28.333333333333329
 20
-50.0
 30
0.0
 41
0.1666666666666666
 42
0.1666666666666666
 43
0.1666666666666666
  0
INSERT
  5
416
  8
0
  2
STDGX5
 10
0.0
 20
0.0
 30
0.0
 41
0.5
 42
0.5
 43
0.5
  0
INSERT
  5
417
  8
0
  2
STDGX5
 10
0.0
 20
0.0
 30
0.0
 41
0.5
 42
0.5
 43
0.5
  0
INSERT
  5
418
  8
0
  2
STDGX5
 10
137.5
 20
0.0
 30
0.0
 41
0.5
 42
0.5
 43
0.5
  0
INSERT
  5
419
  8
0
  2
STDGX5
 10
137.5
 20
0.0
 30
0.0
 41
0.5
 42
0.5
 43
0.5
  0
LINE
  5
655
  8
1
 10
39.867201814479408
 20
70.050658951268332
 30
0.0
 11
83.867201814479415
 21
70.050658951268332
 31
0.0
  0
ARC
  5
656
  8
0
 10
70.09619534657395
 20
58.724421030019151
 30
0.0
 40
6.0000000000000462
 50
237.97041043010509
 51
14.02958956990163
  0
ARC
  5
657
  8
0
 10
77.913739202063823
 20
92.13682289770432
 30
0.0
 40
12.0
 50
209.1293650241528
 51
258.87063497584597
  0
LINE
  5
658
  8
1
 10
61.867201814479422
 20
92.050658951268346
 30
0.0
 11
61.867201814479422
 21
48.050658951268332
 31
0.0
  0
ARC
  5
659
  8
0
 10
53.638208282384653
 20
58.724421030018931
 30
0.0
 40
5.9999999999999583
 50
165.97041043010751
 51
302.02958956989733
  0
CIRCLE
  5
65A
  8
3
 10
61.867201814479422
 20
70.050658951268332
 30
0.0
 40
3.0
  0
CIRCLE
  5
65B
  8
0
 10
61.867201814479422
 20
70.050658951268332
 30
0.0
 40
2.386565
  0
CIRCLE
  5
65C
  8
0
 10
61.867201814479422
 20
70.050658951268332
 30
0.0
 40
6.5
  0
ARC
  5
65D
  8
0
 10
48.552410586347207
 20
74.376896872517605
 30
0.0
 40
6.000000000000032
 50
93.970410430117568
 51
230.0295895698915
  0
ARC
  5
65E
  8
0
 10
35.90335891962161
 20
61.614495004832321
 30
0.0
 40
12.0
 50
353.12936502414772
 51
42.87063497585045
  0
ARC
  5
65F
  8
0
 10
61.867201814479422
 20
42.750658951268314
 30
0.0
 40
12.0
 50
65.129365024150871
 51
114.8706349758497
  0
ARC
  5
660
  8
0
 10
45.82066442689478
 20
92.136822897704604
 30
0.0
 40
12.0
 50
281.12936502414487
 51
330.87063497585677
  0
ARC
  5
661
  8
0
 10
61.867201814479422
 20
84.050658951268332
 30
0.0
 40
6.0
 50
21.970410430099491
 51
158.02958956987931
  0
LINE
  5
66D
  8
2
 10
138.5672018144794
 20
77.55065895126836
 30
0.0
 11
123.5672018144793
 21
77.55065895126836
 31
0.0
  0
LINE
  5
66E
  8
2
 10
140.0672018144794
 20
73.05065895126836
 30
0.0
 11
122.0672018144794
 21
73.05065895126836
 31
0.0
  0
LINE
  5
66F
  8
2
 10
139.0672018144794
 20
72.05065895126836
 30
0.0
 11
122.0672018144794
 21
72.05065895126836
 31
0.0
  0
LINE
  5
670
  8
2
 10
139.0672018144794
 20
68.05065895126836
 30
0.0
 11
122.0672018144794
 21
68.05065895126836
 31
0.0
  0
LINE
  5
671
  8
2
 10
140.0672018144794
 20
67.05065895126836
 30
0.0
 11
122.0672018144794
 21
67.05065895126836
 31
0.0
  0
LINE
  5
672
  8
2
 10
138.5672018144794
 20
62.55065895126836
 30
0.0
 11
123.5672018144793
 21
62.55065895126836
 31
0.0
  0
LINE
  5
673
  8
0
 10
127.2720938310768
 20
80.550658951268346
 30
0.0
 11
137.5672018144794
 21
80.550658951268346
 31
0.0
  0
LINE
  5
674
  8
0
 10
127.2720938310769
 20
59.550658951268417
 30
0.0
 11
137.5672018144794
 21
59.55065895126836
 31
0.0
  0
LINE
  5
675
  8
1
 10
109.8672018144794
 20
70.05065895126836
 30
0.0
 11
142.0672018144794
 21
70.05065895126836
 31
0.0
  0
ARC
  5
676
  8
0
 10
75.181993042611282
 20
74.376896872517563
 30
0.0
 40
6.000000000000095
 50
309.97041043010341
 51
86.029589569899485
  0
ARC
  5
677
  8
0
 10
87.831044709336979
 20
61.614495004832321
 30
0.0
 40
12.0
 50
137.12936502415249
 51
186.8706349758462
  0
LINE
  5
678
  8
2
 10
122.0672018144794
 20
76.05065895126836
 30
0.0
 11
122.0672018144794
 21
70.05065895126836
 31
0.0
  0
LINE
  5
679
  8
0
 10
126.8672018144793
 20
59.55065895126836
 30
0.0
 11
126.8672018144794
 21
80.550658951268346
 31
0.0
  0
ARC
  5
67A
  8
0
 10
185.86720181447939
 20
70.050658951268304
 30
0.0
 40
74.000000000000014
 50
164.91368067445629
 51
192.9233352245368
  0
ARC
  5
67B
  8
0
 10
75.368477287517265
 20
75.164874524840116
 30
0.0
 40
38.248724526962171
 50
348.17174224212698
 51
10.013498639133809
  0
ARC
  5
67C
  8
0
 10
162.86592634144151
 20
75.164874524840116
 30
0.0
 40
38.248724526962171
 50
171.03547820135611
 51
191.82825775787299
  0
LINE
  5
67D
  8
2
 10
122.0672018144794
 20
64.05065895126836
 30
0.0
 11
112.2514841026088
 21
63.018985447578473
 31
0.0
  0
ARC
  5
67E
  8
0
 10
114.71627803032349
 20
53.724421030018902
 30
0.0
 40
1.0
 50
192.92333522453669
 51
270.0
  0
LINE
  5
67F
  8
0
 10
114.24585946140751
 20
69.778639077085813
 30
0.0
 11
123.9885441675513
 21
69.77863907708587
 31
0.0
  0
ARC
  5
680
  8
0
 10
91.062964075309054
 20
56.57430659648702
 30
0.0
 40
22.554237739170379
 50
354.7062825604807
 51
14.311883974219789
  0
ARC
  5
681
  8
0
 10
124.0065819257876
 20
64.978798928741696
 30
0.0
 40
11.444548245645329
 50
168.17169927112229
 51
194.31184572267711
  0
ARC
  5
682
  8
0
 10
147.17143955364969
 20
56.57430659648702
 30
0.0
 40
22.554237739170379
 50
165.68811602578009
 51
189.8282043761665
  0
LINE
  5
683
  8
0
 10
114.71627803032349
 20
52.724421030018902
 30
0.0
 11
125.0113481361995
 21
52.724421030018902
 31
0.0
  0
LINE
  5
684
  8
0
 10
114.3397464583272
 20
60.178958780397522
 30
0.0
 11
123.8946571706315
 21
60.178958780397522
 31
0.0
  0
LINE
  5
685
  8
0
 10
126.78302003071001
 20
59.154614796677258
 30
0.0
 11
125.5004219365664
 21
53.120465184609991
 31
0.0
  0
ARC
  5
686
  8
0
 10
125.0113481361995
 20
53.224421030018902
 30
0.0
 40
0.5
 50
270.0
 51
348.0
  0
ARC
  5
687
  8
0
 10
127.2720938310769
 20
59.050658951268417
 30
0.0
 40
0.5
 50
89.999999999999915
 51
168.0
  0
LINE
  5
688
  8
2
 10
122.0672018144794
 20
64.05065895126836
 30
0.0
 11
122.0672018144794
 21
70.05065895126836
 31
0.0
  0
ARC
  5
689
  8
0
 10
114.2278217031711
 20
64.978798928741696
 30
0.0
 40
11.444548245645329
 50
345.68815427732278
 51
11.828300728877659
  0
LINE
  5
68A
  8
2
 10
122.0672018144794
 20
64.05065895126836
 30
0.0
 11
123.5672018144793
 21
62.55065895126836
 31
0.0
  0
LINE
  5
68B
  8
2
 10
122.0672018144794
 20
76.05065895126836
 30
0.0
 11
112.2514841026088
 21
77.082332454958248
 31
0.0
  0
ARC
  5
68C
  8
0
 10
116.79269336999531
 20
82.479148994181173
 30
0.0
 40
3.816276234486601
 50
169.79998472646619
 51
190.01356226576169
  0
LINE
  5
68D
  8
0
 10
126.78302003071001
 20
80.946703105859527
 30
0.0
 11
124.9320962623836
 21
89.654614796677038
 31
0.0
  0
ARC
  5
68E
  8
0
 10
100.8449422650629
 20
84.948669078506327
 30
0.0
 40
24.539213022146409
 50
351.03547786899122
 51
12.000001436967541
  0
LINE
  5
68F
  8
0
 10
114.2715247587029
 20
80.362496524181722
 30
0.0
 11
123.96287887025591
 21
80.362496524181722
 31
0.0
  0
LINE
  5
690
  8
2
 10
122.0672018144794
 20
76.05065895126836
 30
0.0
 11
123.5672018144793
 21
77.55065895126836
 31
0.0
  0
ARC
  5
691
  8
0
 10
127.2720938310768
 20
81.05065895126836
 30
0.0
 40
0.5
 50
192.0
 51
269.99999999999989
  0
LINE
  5
692
  8
0
 10
115.3831610676549
 20
90.050658951268133
 30
0.0
 11
124.4430224620167
 21
90.050658951268133
 31
0.0
  0
LINE
  5
693
  8
0
 10
114.6976326954193
 20
86.295425228667739
 30
0.0
 11
124.3455975234592
 21
86.295425228667739
 31
0.0
  0
ARC
  5
694
  8
0
 10
115.3831610676549
 20
89.050658951268133
 30
0.0
 40
1.0
 50
90.0
 51
164.91368067445671
  0
ARC
  5
695
  8
0
 10
124.4430224620167
 20
89.550658951268119
 30
0.0
 40
0.5
 50
12.00000000000006
 51
90.0
  0
LINE
  5
696
  8
0
 10
140.0672018144794
 20
70.05065895126836
 30
0.0
 11
140.0672018144794
 21
77.05065895126836
 31
0.0
  0
LINE
  5
697
  8
2
 10
139.0672018144794
 20
72.05065895126836
 30
0.0
 11
139.0672018144794
 21
70.05065895126836
 31
0.0
  0
LINE
  5
698
  8
0
 10
138.5672018144794
 20
60.55065895126836
 30
0.0
 11
138.5672018144794
 21
79.55065895126836
 31
0.0
  0
LINE
  5
699
  8
0
 10
137.5672018144794
 20
80.550658951268346
 30
0.0
 11
137.5672018144794
 21
59.55065895126836
 31
0.0
  0
LINE
  5
69A
  8
0
 10
138.5672018144794
 20
60.55065895126836
 30
0.0
 11
137.5672018144794
 21
59.55065895126836
 31
0.0
  0
LINE
  5
69B
  8
0
 10
140.0672018144794
 20
70.05065895126836
 30
0.0
 11
140.0672018144794
 21
63.05065895126836
 31
0.0
  0
LINE
  5
69C
  8
0
 10
140.0672018144794
 20
63.05065895126836
 30
0.0
 11
138.5672018144794
 21
63.05065895126836
 31
0.0
  0
LINE
  5
69D
  8
2
 10
140.0672018144794
 20
67.05065895126836
 30
0.0
 11
139.0672018144794
 21
68.05065895126836
 31
0.0
  0
LINE
  5
69E
  8
2
 10
139.0672018144794
 20
68.05065895126836
 30
0.0
 11
139.0672018144794
 21
70.05065895126836
 31
0.0
  0
LINE
  5
69F
  8
2
 10
140.0672018144794
 20
73.05065895126836
 30
0.0
 11
139.0672018144794
 21
72.05065895126836
 31
0.0
  0
LINE
  5
6A0
  8
0
 10
140.0672018144794
 20
77.05065895126836
 30
0.0
 11
138.5672018144794
 21
77.05065895126836
 31
0.0
  0
LINE
  5
6A1
  8
0
 10
137.5672018144794
 20
80.550658951268346
 30
0.0
 11
138.5672018144794
 21
79.55065895126836
 31
0.0
  0
ENDSEC
  0
EOF
