  0
SECTION
  2
HEADER
  9
$ACADVER
  1
AC1015
  9
$ACADMAINTVER
 70
    13
  9
$DWGCODEPAGE
  3
ANSI_932
  9
$INSBASE
 10
0.0
 20
0.0
 30
0.0
  9
$EXTMIN
 10
235.0170245669165
 20
88.43237
 30
0.0
  9
$EXTMAX
 10
452.33769817758
 20
264.4104568826306
 30
0.0
  9
$LIMMIN
 10
0.0
 20
0.0
  9
$LIMMAX
 10
400.0
 20
277.0
  9
$ORTHOMODE
 70
     1
  9
$REGENMODE
 70
     1
  9
$FILLMODE
 70
     1
  9
$QTEXTMODE
 70
     0
  9
$MIRRTEXT
 70
     1
  9
$LTSCALE
 40
5.0
  9
$ATTMODE
 70
     1
  9
$TEXTSIZE
 40
2.5
  9
$TRACEWID
 40
1.0
  9
$TEXTSTYLE
  7
STANDARD
  9
$CLAYER
  8
0
  9
$CELTYPE
  6
ByLayer
  9
$CECOLOR
 62
   256
  9
$CELTSCALE
 40
1.0
  9
$DISPSILH
 70
     0
  9
$DIMSCALE
 40
1.0
  9
$DIMASZ
 40
2.5
  9
$DIMEXO
 40
1.0
  9
$DIMDLI
 40
6.0
  9
$DIMRND
 40
0.0
  9
$DIMDLE
 40
0.0
  9
$DIMEXE
 40
1.0
  9
$DIMTP
 40
495.0
  9
$DIMTM
 40
0.0
  9
$DIMTXT
 40
3.0
  9
$DIMCEN
 40
0.0
  9
$DIMTSZ
 40
0.0
  9
$DIMTOL
 70
     0
  9
$DIMLIM
 70
     0
  9
$DIMTIH
 70
     0
  9
$DIMTOH
 70
     0
  9
$DIMSE1
 70
     0
  9
$DIMSE2
 70
     0
  9
$DIMTAD
 70
     3
  9
$DIMZIN
 70
     8
  9
$DIMBLK
  1

  9
$DIMASO
 70
     0
  9
$DIMSHO
 70
     1
  9
$DIMPOST
  1

  9
$DIMAPOST
  1

  9
$DIMALT
 70
     0
  9
$DIMALTD
 70
     2
  9
$DIMALTF
 40
25.4
  9
$DIMLFAC
 40
1.0
  9
$DIMTOFL
 70
     1
  9
$DIMTVP
 40
0.0
  9
$DIMTIX
 70
     1
  9
$DIMSOXD
 70
     0
  9
$DIMSAH
 70
     0
  9
$DIMBLK1
  1

  9
$DIMBLK2
  1

  9
$DIMSTYLE
  2
ITM
  9
$DIMCLRD
 70
     0
  9
$DIMCLRE
 70
     0
  9
$DIMCLRT
 70
     0
  9
$DIMTFAC
 40
1.0
  9
$DIMGAP
 40
0.5
  9
$DIMJUST
 70
     0
  9
$DIMSD1
 70
     0
  9
$DIMSD2
 70
     0
  9
$DIMTOLJ
 70
     1
  9
$DIMTZIN
 70
     0
  9
$DIMALTZ
 70
     0
  9
$DIMALTTZ
 70
     0
  9
$DIMUPT
 70
     0
  9
$DIMDEC
 70
     4
  9
$DIMTDEC
 70
     4
  9
$DIMALTU
 70
     2
  9
$DIMALTTD
 70
     2
  9
$DIMTXSTY
  7
STANDARD
  9
$DIMAUNIT
 70
     0
  9
$DIMADEC
 70
     0
  9
$DIMALTRND
 40
0.0
  9
$DIMAZIN
 70
     0
  9
$DIMDSEP
 70
    46
  9
$DIMATFIT
 70
     3
  9
$DIMFRAC
 70
     0
  9
$DIMLDRBLK
  1

  9
$DIMLUNIT
 70
     2
  9
$DIMLWD
 70
    -2
  9
$DIMLWE
 70
    -2
  9
$DIMTMOVE
 70
     0
  9
$LUNITS
 70
     2
  9
$LUPREC
 70
     2
  9
$SKETCHINC
 40
1.0
  9
$FILLETRAD
 40
31.0
  9
$AUNITS
 70
     0
  9
$AUPREC
 70
     0
  9
$MENU
  1
.
  9
$ELEVATION
 40
0.0
  9
$PELEVATION
 40
0.0
  9
$THICKNESS
 40
0.0
  9
$LIMCHECK
 70
     0
  9
$CHAMFERA
 40
10.0
  9
$CHAMFERB
 40
10.0
  9
$CHAMFERC
 40
0.0
  9
$CHAMFERD
 40
0.0
  9
$SKPOLY
 70
     0
  9
$TDCREATE
 40
2451449.307680995
  9
$TDUCREATE
 40
2451448.932680995
  9
$TDUPDATE
 40
2454132.469019456
  9
$TDUUPDATE
 40
2454132.094019456
  9
$TDINDWG
 40
0.3549916435
  9
$TDUSRTIMER
 40
0.1127356481
  9
$USRTIMER
 70
     1
  9
$ANGBASE
 50
0.0
  9
$ANGDIR
 70
     0
  9
$PDMODE
 70
     0
  9
$PDSIZE
 40
0.0
  9
$PLINEWID
 40
0.0
  9
$SPLFRAME
 70
     0
  9
$SPLINETYPE
 70
     6
  9
$SPLINESEGS
 70
     8
  9
$HANDSEED
  5
56A
  9
$SURFTAB1
 70
     6
  9
$SURFTAB2
 70
     6
  9
$SURFTYPE
 70
     6
  9
$SURFU
 70
     6
  9
$SURFV
 70
     6
  9
$UCSBASE
  2

  9
$UCSNAME
  2

  9
$UCSORG
 10
0.0
 20
0.0
 30
0.0
  9
$UCSXDIR
 10
1.0
 20
0.0
 30
0.0
  9
$UCSYDIR
 10
0.0
 20
1.0
 30
0.0
  9
$UCSORTHOREF
  2

  9
$UCSORTHOVIEW
 70
     0
  9
$UCSORGTOP
 10
0.0
 20
0.0
 30
0.0
  9
$UCSORGBOTTOM
 10
0.0
 20
0.0
 30
0.0
  9
$UCSORGLEFT
 10
0.0
 20
0.0
 30
0.0
  9
$UCSORGRIGHT
 10
0.0
 20
0.0
 30
0.0
  9
$UCSORGFRONT
 10
0.0
 20
0.0
 30
0.0
  9
$UCSORGBACK
 10
0.0
 20
0.0
 30
0.0
  9
$PUCSBASE
  2

  9
$PUCSNAME
  2

  9
$PUCSORG
 10
0.0
 20
0.0
 30
0.0
  9
$PUCSXDIR
 10
1.0
 20
0.0
 30
0.0
  9
$PUCSYDIR
 10
0.0
 20
1.0
 30
0.0
  9
$PUCSORTHOREF
  2

  9
$PUCSORTHOVIEW
 70
     0
  9
$PUCSORGTOP
 10
0.0
 20
0.0
 30
0.0
  9
$PUCSORGBOTTOM
 10
0.0
 20
0.0
 30
0.0
  9
$PUCSORGLEFT
 10
0.0
 20
0.0
 30
0.0
  9
$PUCSORGRIGHT
 10
0.0
 20
0.0
 30
0.0
  9
$PUCSORGFRONT
 10
0.0
 20
0.0
 30
0.0
  9
$PUCSORGBACK
 10
0.0
 20
0.0
 30
0.0
  9
$USERI1
 70
     3
  9
$USERI2
 70
     1
  9
$USERI3
 70
     1
  9
$USERI4
 70
     0
  9
$USERI5
 70
     0
  9
$USERR1
 40
1.0
  9
$USERR2
 40
3.0
  9
$USERR3
 40
3.0
  9
$USERR4
 40
2.5
  9
$USERR5
 40
10.0
  9
$WORLDVIEW
 70
     1
  9
$SHADEDGE
 70
     3
  9
$SHADEDIF
 70
    70
  9
$TILEMODE
 70
     1
  9
$MAXACTVP
 70
    16
  9
$PINSBASE
 10
0.0
 20
0.0
 30
0.0
  9
$PLIMCHECK
 70
     0
  9
$PEXTMIN
 10
-1.000000000000000E+20
 20
-1.000000000000000E+20
 30
-1.000000000000000E+20
  9
$PEXTMAX
 10
1.000000000000000E+20
 20
1.000000000000000E+20
 30
1.000000000000000E+20
  9
$PLIMMIN
 10
0.0
 20
0.0
  9
$PLIMMAX
 10
420.0
 20
297.0
  9
$UNITMODE
 70
     0
  9
$VISRETAIN
 70
     0
  9
$PLINEGEN
 70
     0
  9
$PSLTSCALE
 70
     1
  9
$TREEDEPTH
 70
  3020
  9
$CMLSTYLE
  2
Standard
  9
$CMLJUST
 70
     0
  9
$CMLSCALE
 40
1.0
  9
$PROXYGRAPHICS
 70
     1
  9
$MEASUREMENT
 70
     0
  9
$CELWEIGHT
370
    -1
  9
$ENDCAPS
280
     0
  9
$JOINSTYLE
280
     0
  9
$LWDISPLAY
290
     0
  9
$INSUNITS
 70
     0
  9
$HYPERLINKBASE
  1

  9
$STYLESHEET
  1

  9
$XEDIT
290
     1
  9
$CEPSNTYPE
380
     0
  9
$PSTYLEMODE
290
     1
  9
$FINGERPRINTGUID
  2
{9CDD05D4-AE84-41B1-88E2-695BC45DB091}
  9
$VERSIONGUID
  2
{CEE955BD-F673-42D4-AFD7-2A2A51DA4BA3}
  9
$EXTNAMES
290
     1
  9
$PSVPSCALE
 40
0.0
  9
$OLESTARTUP
290
     0
  0
ENDSEC
  0
SECTION
  2
CLASSES
  0
CLASS
  1
ACDBDICTIONARYWDFLT
  2
AcDbDictionaryWithDefault
  3
AutoCAD 2000
 90
        0
280
     0
281
     0
  0
CLASS
  1
ACDBPLACEHOLDER
  2
AcDbPlaceHolder
  3
AutoCAD 2000
 90
        0
280
     0
281
     0
  0
CLASS
  1
LAYOUT
  2
AcDbLayout
  3
AutoCAD 2000
 90
        0
280
     0
281
     0
  0
CLASS
  1
AMGSETTINGSOBJ
  2
AmgSettingsObj
  3
"AcadM|Product Description: AutoCAD Mechanical 2000|Company: Autodesk"
 90
        0
280
     0
281
     0
  0
CLASS
  1
ACME_DOCUMENT
  2
AcMeDbDoc
  3
AcMeServices
 90
        0
280
     0
281
     0
  0
CLASS
  1
ACMESCOPE
  2
AcMeScope
  3
AcMeServices
 90
        0
280
     0
281
     0
  0
CLASS
  1
ACMECOMMANDHISTORY
  2
AcMeCommandHistory
  3
AcMeServices
 90
        0
280
     0
281
     0
  0
CLASS
  1
ACIMSYSVARMAN
  2
AcImSysVarManager
  3
AcMeServices
 90
        0
280
     0
281
     0
  0
CLASS
  1
ACIMREALSYSVAR
  2
AcImRealSysVar
  3
AcMeServices
 90
        0
280
     0
281
     0
  0
CLASS
  1
ACIMINTSYSVAR
  2
AcImIntSysVar
  3
AcMeServices
 90
        0
280
     0
281
     0
  0
CLASS
  1
ACMEDRAWINGMAN
  2
AcMeDrawingMan
  3
AcMeServices
 90
        0
280
     0
281
     0
  0
CLASS
  1
ACMEVIEW
  2
AcMeView
  3
AcMeServices
 90
        0
280
     0
281
     0
  0
CLASS
  1
ACDBENTITYCACHE
  2
AcMeEntityCache
  3
AcMeServices
 90
        0
280
     0
281
     0
  0
CLASS
  1
GSMANAGER
  2
AcMeGSManager
  3
AcMeServices
 90
        0
280
     0
281
     0
  0
CLASS
  1
AMDTINTERNALREACTOR
  2
AmdtInternalReactor
  3
AcMeServices
 90
        0
280
     0
281
     0
  0
CLASS
  1
ACMESTATEMGR
  2
AcMeStateMgr
  3
AcMeServices
 90
        0
280
     0
281
     0
  0
CLASS
  1
ACGREFMASTER
  2
AcGrefMaster
  3
AcAttribServices
 90
        0
280
     0
281
     0
  0
CLASS
  1
AM_DRAWING_MGR
  2
AcDmDwgMgr
  3
AcMechDwgViewMgmt
 90
        0
280
     0
281
     0
  0
CLASS
  1
AM_DWG_DOCUMENT
  2
AcDmDwgDocument
  3
AcMechDwgViewMgmt
 90
        0
280
     0
281
     0
  0
CLASS
  1
AM_DWG_SHEET
  2
AcDmSheet
  3
AcMechDwgViewMgmt
 90
        0
280
     0
281
     0
  0
CLASS
  1
AM_VIEWDIMPARMAP
  2
AcDmViewDimParMap
  3
AcMechDwgViewMgmt
 90
        0
280
     0
281
     0
  0
CLASS
  1
AM_DWGMGR_NAME
  2
AcDmDwgMgrName
  3
AcMechDwgViewMgmt
 90
        0
280
     0
281
     0
  0
CLASS
  1
ACME_DATABASE
  2
AcMeDbDatabase
  3
AcMeServices
 90
        0
280
     0
281
     0
  0
CLASS
  1
ACRFINSADJUSTERMGR
  2
AcRfInsAdjusterMgr
  3
AcMeServices
 90
        0
280
     0
281
     0
  0
CLASS
  1
ACGREFACADMASTER
  2
AcGrefacadMaster
  3
AcGrefServices
 90
        0
280
     0
281
     0
  0
CLASS
  1
AMDTMENUSTATEMGR
  2
AmdtMenuStateMgr
  3
McadcomServices
 90
        0
280
     0
281
     0
  0
CLASS
  1
AMDTMCOMMENUSTATE
  2
AmdtMcomMenuState
  3
McadcomServices
 90
        0
280
     0
281
     0
  0
CLASS
  1
AMIMASTER
  2
AmiMaster
  3
AmiServices
 90
        0
280
     0
281
     0
  0
CLASS
  1
ASAPP
  2
AcAsAppObject
  3
AutoSurfServices
 90
        0
280
     0
281
     0
  0
CLASS
  1
IM_STATIC_MAN
  2
AcImStaticVarManager
  3
AcMeServices
 90
        0
280
     0
281
     0
  0
CLASS
  1
ACIMSTRSYSVAR
  2
AcImStrSysVar
  3
AcMeServices
 90
        0
280
     0
281
     0
  0
CLASS
  1
ACIMDBLSTATICVAR
  2
AcImDblStaticVar
  3
AcMeServices
 90
        0
280
     0
281
     0
  0
CLASS
  1
ACIMSTRSTATICVAR
  2
AcImStrStaticVar
  3
AcMeServices
 90
        0
280
     0
281
     0
  0
CLASS
  1
ACIMINTSTATICVAR
  2
AcImIntStaticVar
  3
AcMeServices
 90
        0
280
     0
281
     0
  0
CLASS
  1
ACASGREFMASTER
  2
AcAsGrefMaster
  3
AutoSurfResolverServices
 90
        0
280
     0
281
     0
  0
CLASS
  1
ACADGREFMODULE
  2
AcAdGrefModule
  3
AdGrefServices
 90
        0
280
     0
281
     0
  0
CLASS
  1
AMDTMAPISURFMOUDULE
  2
AmdtMApiSurfModule
  3
MApiSurfServices
 90
        0
280
     0
281
     0
  0
CLASS
  1
MAPIAMMOUDLE
  2
MApiAmModule
  3
MApiAmServices
 90
        0
280
     0
281
     0
  0
CLASS
  1
AMDTADMENUSTATE
  2
AmdtAdMenuState
  3
DesignerServices
 90
        0
280
     0
281
     0
  0
CLASS
  1
ADAPPL
  2
AcAdAppl
  3
DesignerServices
 90
        0
280
     0
281
     0
  0
CLASS
  1
DEPMGR
  2
AcAdDepMgr
  3
DesignerServices
 90
        0
280
     0
281
     0
  0
CLASS
  1
PARAMMGR
  2
AcAdParamMgr
  3
DesignerServices
 90
        0
280
     0
281
     0
  0
CLASS
  1
PARAMSCOPE
  2
AcAdParamScope
  3
DesignerServices
 90
        0
280
     0
281
     0
  0
CLASS
  1
NAMEDAPPL
  2
AcAdNamedAppl
  3
DesignerServices
 90
        0
280
     0
281
     0
  0
CLASS
  1
AMDTDMMENUSTATE
  2
AmdtDmMenuState
  3
AcMechDwgViewMgmt
 90
        0
280
     0
281
     0
  0
CLASS
  1
MAPIADMODULE
  2
MApiAdModule
  3
MApiAdServices
 90
        0
280
     0
281
     0
  0
CLASS
  1
AMDTAMMENUSTATE
  2
AmdtAmMenuState
  3
DesignerAssemblies
 90
        0
280
     0
281
     0
  0
CLASS
  1
ACAMPROJECT
  2
AcAmProject
  3
DesignerAssemblies
 90
        0
280
     0
281
     0
  0
CLASS
  1
ACAMGRCOMPDEF
  2
AcAmGrCompDef
  3
DesignerAssemblies
 90
        0
280
     0
281
     0
  0
CLASS
  1
ACCMCONTEXT
  2
AcCmContext
  3
DesignerAssemblies
 90
        0
280
     0
281
     0
  0
CLASS
  1
ACAMCOMPDEF
  2
AcAmCompDef
  3
DesignerAssemblies
 90
        0
280
     0
281
     0
  0
CLASS
  1
ACAMCOMPDEFMGR
  2
AcAmCompDefMgr
  3
DesignerAssemblies
 90
        0
280
     0
281
     0
  0
CLASS
  1
AMCONTEXTMGR
  2
AcAmContextMgr
  3
DesignerAssemblies
 90
        0
280
     0
281
     0
  0
CLASS
  1
ACAMCONTEXTMODELER
  2
AcAmContextModeler
  3
DesignerAssemblies
 90
        0
280
     0
281
     0
  0
CLASS
  1
ACMDATADICTIONARY
  2
AcmDataDictionary
  3
"AcmSymBB|Product Description: AutoCAD Mechanical 2000|Company: Autodesk"
 90
        0
280
     0
281
     0
  0
CLASS
  1
ACMDATAENTRYBLOCK
  2
AcmDataEntryBlock
  3
"AcmSymBB|Product Description: AutoCAD Mechanical 2000|Company: Autodesk"
 90
        0
280
     0
281
     0
  0
CLASS
  1
CATALOGSTATE
  2
AcAmCatalogState
  3
DesignerAssemblies
 90
        0
280
     0
281
     0
  0
CLASS
  1
ACAMGRCOMPDEFSET
  2
AcAmGrCompDefSet
  3
DesignerAssemblies
 90
        0
280
     0
281
     0
  0
CLASS
  1
AMDTBROWSERDBTAB
  2
AmdtBrowserDbTab
  3
McadcomServices
 90
        0
280
     0
281
     0
  0
CLASS
  1
CBROWSERAPPOBJECT
  2
CBrowserAppObject
  3
McadcomServices
 90
        0
280
     0
281
     0
  0
CLASS
  1
DM_PLACEHOLDER
  2
AcDmSelsetPlaceholder
  3
AcMechDwgViewMgmt
 90
        0
280
     0
281
     0
  0
CLASS
  1
AMGOBJPROPCFG
  2
AmgObjPropCfg
  3
"AmgLay|Product Description: AutoCAD Mechanical 2000|Company: Autodesk"
 90
        1
280
     0
281
     0
  0
CLASS
  1
ACAMGFILTERDAT
  2
AcAmgFilterDat
  3
"AcadM|Product Description: AutoCAD Mechanical 2000|Company: Autodesk"
 90
        0
280
     0
281
     0
  0
CLASS
  1
AMDTFORMULAUPDATEDISPATCHER
  2
AmdtFormulaUpdateDispatcher
  3
AcMeServices
 90
        0
280
     0
281
     0
  0
CLASS
  1
LAYER_INDEX
  2
AcDbLayerIndex
  3
AutoCAD 2000
 90
        0
280
     0
281
     0
  0
CLASS
  1
IDBUFFER
  2
AcDbIdBuffer
  3
AutoCAD 2000
 90
        0
280
     0
281
     0
  0
CLASS
  1
DICTIONARYVAR
  2
AcDbDictionaryVar
  3
AutoCAD 2000
 90
        0
280
     0
281
     0
  0
ENDSEC
  0
SECTION
  2
TABLES
  0
TABLE
  2
VPORT
  5
8
330
0
100
AcDbSymbolTable
 70
    58
  0
VPORT
  5
569
330
8
100
AcDbSymbolTableRecord
100
AcDbViewportTableRecord
  2
*Active
 70
     0
 10
0.0
 20
0.0
 11
1.0
 21
1.0
 12
1.134663978267679
 22
9.52752656095015
 13
0.0
 23
0.0
 14
10.0
 24
10.0
 15
10.0
 25
10.0
 16
0.0
 26
0.0
 36
1.0
 17
349.246217
 27
181.2984132177058
 37
0.0
 40
184.1988471355273
 41
1.462378640776698
 42
50.0
 43
0.0
 44
0.0
 50
0.0
 51
0.0
 71
     0
 72
   100
 73
     1
 74
     0
 75
     0
 76
     0
 77
     0
 78
     0
281
     0
 65
     0
110
0.0
120
0.0
130
0.0
111
1.0
121
0.0
131
0.0
112
0.0
122
1.0
132
0.0
 79
     0
146
0.0
  0
ENDTAB
  0
TABLE
  2
LTYPE
  5
5
330
0
100
AcDbSymbolTable
 70
    16
  0
LTYPE
  5
13
330
5
100
AcDbSymbolTableRecord
100
AcDbLinetypeTableRecord
  2
ByBlock
 70
     0
  3

 72
    65
 73
     0
 40
0.0
  0
LTYPE
  5
14
330
5
100
AcDbSymbolTableRecord
100
AcDbLinetypeTableRecord
  2
ByLayer
 70
     0
  3

 72
    65
 73
     0
 40
0.0
  0
LTYPE
  5
15
330
5
100
AcDbSymbolTableRecord
100
AcDbLinetypeTableRecord
  2
CONTINUOUS
 70
     0
  3
Solid line
 72
    65
 73
     0
 40
0.0
  0
LTYPE
  5
23
330
5
100
AcDbSymbolTableRecord
100
AcDbLinetypeTableRecord
  2
CENTER
 70
     0
  3
____ _ ____ _ ____ _ ____ _ ____ _ ____ _ ____
 72
    65
 73
     4
 40
2.0
 49
1.25
 74
     0
 49
-0.25
 74
     0
 49
0.25
 74
     0
 49
-0.25
 74
     0
  0
LTYPE
  5
B4
330
5
100
AcDbSymbolTableRecord
100
AcDbLinetypeTableRecord
  2
HIDDEN
 70
     0
  3
Hidden __ __ __ __ __ __ __ __ __ __ __ __ __ _
 72
    65
 73
     2
 40
0.375
 49
0.25
 74
     0
 49
-0.125
 74
     0
  0
LTYPE
  5
B5
330
5
100
AcDbSymbolTableRecord
100
AcDbLinetypeTableRecord
  2
PHANTOM2
 70
     0
  3
Phantom (.5x) ___ _ _ ___ _ _ ___ _ _ ___ _ _
 72
    65
 73
     6
 40
1.25
 49
0.625
 74
     0
 49
-0.125
 74
     0
 49
0.125
 74
     0
 49
-0.125
 74
     0
 49
0.125
 74
     0
 49
-0.125
 74
     0
  0
LTYPE
  5
117
330
5
100
AcDbSymbolTableRecord
100
AcDbLinetypeTableRecord
  2
ASULTYPE
 70
     0
  3
実線
 72
    65
 73
     2
 40
3.0
 49
2.5
 74
     0
 49
0.5
 74
     0
  0
LTYPE
  5
118
330
5
100
AcDbSymbolTableRecord
100
AcDbLinetypeTableRecord
  2
ASVLTYPE
 70
     0
  3
__ __ __ __ __ __ __ __ __ __ __ __ __ __ __ __ __ __ __ __ __
 72
    65
 73
     2
 40
0.75
 49
0.5
 74
     0
 49
-0.25
 74
     0
  0
LTYPE
  5
159
330
5
100
AcDbSymbolTableRecord
100
AcDbLinetypeTableRecord
  2
AM_ISO02W050
 70
     0
  3
__ __ __ __ __ __ __ __ __ __ __ __ __ __ __
 72
    65
 73
     2
 40
7.5
 49
6.0
 74
     0
 49
-1.5
 74
     0
  0
LTYPE
  5
15A
330
5
100
AcDbSymbolTableRecord
100
AcDbLinetypeTableRecord
  2
AM_ISO08W050
 70
     0
  3
____ . ____ . ____ . ____ . ____ . ____ . ____
 72
    65
 73
     4
 40
18.0
 49
12.0
 74
     0
 49
-1.5
 74
     0
 49
3.0
 74
     0
 49
-1.5
 74
     0
  0
LTYPE
  5
15B
330
5
100
AcDbSymbolTableRecord
100
AcDbLinetypeTableRecord
  2
AM_ISO09W050
 70
     0
  3
_____ . . _____ . . _____ . . ____ .. ____
 72
    65
 73
     6
 40
22.5
 49
12.0
 74
     0
 49
-1.5
 74
     0
 49
3.0
 74
     0
 49
-1.5
 74
     0
 49
3.0
 74
     0
 49
-1.5
 74
     0
  0
LTYPE
  5
15C
330
5
100
AcDbSymbolTableRecord
100
AcDbLinetypeTableRecord
  2
Amconstr
 70
     0
  3
_______________________
 72
    65
 73
     2
 40
9999.0
 49
9999.0
 74
     0
 49
0.0
 74
     0
  0
LTYPE
  5
15D
330
5
100
AcDbSymbolTableRecord
100
AcDbLinetypeTableRecord
  2
AM_ISO08W050x2
 70
     0
  3
__ . __ . __ . __ . __ . __
 72
    65
 73
     4
 40
9.0
 49
6.0
 74
     0
 49
-0.75
 74
     0
 49
1.5
 74
     0
 49
-0.75
 74
     0
  0
LTYPE
  5
15E
330
5
100
AcDbSymbolTableRecord
100
AcDbLinetypeTableRecord
  2
AM_ISO02W050x2
 70
     0
  3
 _ _ _ _ _ _ _ _ _ _ _ _
 72
    65
 73
     2
 40
3.75
 49
3.0
 74
     0
 49
-0.75
 74
     0
  0
LTYPE
  5
161
330
5
100
AcDbSymbolTableRecord
100
AcDbLinetypeTableRecord
  2
Amzigzag
 70
     0
  3
/\/-/\/-/\/-/\/-/\/-/\/
 72
    65
 73
     2
 40
11.00009999999999
 49
0.0001
 74
     4
 75
   135
340
160
 46
0.04
 50
0.0
 44
0.0
 45
0.0
 49
-11.0
 74
     0
  0
LTYPE
  5
162
330
5
100
AcDbSymbolTableRecord
100
AcDbLinetypeTableRecord
  2
CENTER2
 70
     0
  3
Center (.5x) ___ _ ___ _ ___ _ ___ _ ___ _ ___
 72
    65
 73
     4
 40
1.125
 49
0.75
 74
     0
 49
-0.125
 74
     0
 49
0.125
 74
     0
 49
-0.125
 74
     0
  0
LTYPE
  5
163
330
5
100
AcDbSymbolTableRecord
100
AcDbLinetypeTableRecord
  2
HIDDEN2
 70
     0
  3
Hidden (.5x) _ _ _ _ _ _ _ _ _ _ _ _ _ _ _ _ _
 72
    65
 73
     2
 40
0.1875
 49
0.125
 74
     0
 49
-0.0625
 74
     0
  0
LTYPE
  5
164
330
5
100
AcDbSymbolTableRecord
100
AcDbLinetypeTableRecord
  2
Amzigzag2
 70
     0
  3
/\/-/\/-/\/-/\/-/\/-/\/
 72
    65
 73
     2
 40
0.4401
 49
0.0001
 74
     4
 75
   135
340
160
 46
0.0016
 50
0.0
 44
0.0
 45
0.0
 49
-0.4400000000000001
 74
     0
  0
ENDTAB
  0
TABLE
  2
LAYER
  5
2
330
0
100
AcDbSymbolTable
 70
     8
  0
LAYER
  5
10
330
2
100
AcDbSymbolTableRecord
100
AcDbLayerTableRecord
  2
0
 70
     0
 62
     7
  6
CONTINUOUS
370
    -3
390
F
  0
LAYER
  5
22
330
2
100
AcDbSymbolTableRecord
100
AcDbLayerTableRecord
  2
CONTINUOUS
 70
     0
 62
     7
  6
CONTINUOUS
370
    -3
390
F
  0
LAYER
  5
24
330
2
100
AcDbSymbolTableRecord
100
AcDbLayerTableRecord
  2
CENTER
 70
     0
 62
     1
  6
CENTER
370
    -3
390
F
  0
LAYER
  5
25
330
2
100
AcDbSymbolTableRecord
100
AcDbLayerTableRecord
  2
DIVIDE
 70
     0
 62
     2
  6
CONTINUOUS
370
    -3
390
F
  0
LAYER
  5
26
330
2
100
AcDbSymbolTableRecord
100
AcDbLayerTableRecord
  2
TEXT
 70
     0
 62
     3
  6
CONTINUOUS
370
    -3
390
F
  0
LAYER
  5
27
330
2
100
AcDbSymbolTableRecord
100
AcDbLayerTableRecord
  2
THIN
 70
     0
 62
     4
  6
CONTINUOUS
370
    -3
390
F
  0
LAYER
  5
16F
330
2
100
AcDbSymbolTableRecord
100
AcDbLayerTableRecord
  2
1
 70
     0
 62
     1
  6
CENTER
370
    -3
390
F
  0
LAYER
  5
170
330
2
100
AcDbSymbolTableRecord
100
AcDbLayerTableRecord
  2
2
 70
     0
 62
     7
  6
HIDDEN
370
    -3
390
F
  0
ENDTAB
  0
TABLE
  2
STYLE
  5
3
330
0
100
AcDbSymbolTable
 70
     3
  0
STYLE
  5
11
330
3
100
AcDbSymbolTableRecord
100
AcDbTextStyleTableRecord
  2
STANDARD
 70
     0
 40
0.0
 41
1.0
 50
0.0
 71
     0
 42
2.5
  3
ROMANS.shx
  4
EXTFONT.shx
  0
STYLE
  5
28
330
3
100
AcDbSymbolTableRecord
100
AcDbTextStyleTableRecord
  2
K
 70
     0
 40
0.0
 41
1.0
 50
15.0
 71
     0
 42
1.0
  3
ROMANS
  4
EXTFONT
  0
STYLE
  5
160
330
3
100
AcDbSymbolTableRecord
100
AcDbTextStyleTableRecord
  2

 70
     1
 40
0.0
 41
1.0
 50
0.0
 71
     0
 42
2.5
  3
ltypeshp.shx
  4

  0
ENDTAB
  0
TABLE
  2
VIEW
  5
6
330
0
100
AcDbSymbolTable
 70
     0
  0
ENDTAB
  0
TABLE
  2
UCS
  5
7
330
0
100
AcDbSymbolTable
 70
     0
  0
ENDTAB
  0
TABLE
  2
APPID
  5
9
330
0
100
AcDbSymbolTable
 70
    12
  0
APPID
  5
12
330
9
100
AcDbSymbolTableRecord
100
AcDbRegAppTableRecord
  2
ACAD
 70
     0
  0
APPID
  5
93
330
9
100
AcDbSymbolTableRecord
100
AcDbRegAppTableRecord
  2
GENIUS_GENDIM_13
 70
     0
  0
APPID
  5
94
330
9
100
AcDbSymbolTableRecord
100
AcDbRegAppTableRecord
  2
GENIUS_GENDTOL_13
 70
     0
  0
APPID
  5
95
330
9
100
AcDbSymbolTableRecord
100
AcDbRegAppTableRecord
  2
GENIUS_GE3DTOL_13
 70
     0
  0
APPID
  5
97
330
9
100
AcDbSymbolTableRecord
100
AcDbRegAppTableRecord
  2
MCAD_NO_VIS
 70
     0
  0
APPID
  5
98
330
9
100
AcDbSymbolTableRecord
100
AcDbRegAppTableRecord
  2
ACAD_TEMP_GRAPHIC
 70
     0
  0
APPID
  5
CA
330
9
100
AcDbSymbolTableRecord
100
AcDbRegAppTableRecord
  2
AD_DRAW
 70
     0
  0
APPID
  5
CD
330
9
100
AcDbSymbolTableRecord
100
AcDbRegAppTableRecord
  2
ACATTRIBSERVICES
 70
     0
  0
APPID
  5
119
330
9
100
AcDbSymbolTableRecord
100
AcDbRegAppTableRecord
  2
ASURF_PCURVE_APPNAME
 70
     0
  0
APPID
  5
148
330
9
100
AcDbSymbolTableRecord
100
AcDbRegAppTableRecord
  2
DESIGNERASSEMBLIES
 70
     0
  0
APPID
  5
150
330
9
100
AcDbSymbolTableRecord
100
AcDbRegAppTableRecord
  2
ACADM_DIM_EDIT
 70
     0
  0
APPID
  5
151
330
9
100
AcDbSymbolTableRecord
100
AcDbRegAppTableRecord
  2
AMDT_DM_ADJ
 70
     0
  0
ENDTAB
  0
TABLE
  2
DIMSTYLE
  5
A
330
0
100
AcDbSymbolTable
 70
     2
100
AcDbDimStyleTable
 71
     0
  0
DIMSTYLE
105
29
330
A
100
AcDbSymbolTableRecord
100
AcDbDimStyleTableRecord
  2
ITM
 70
     0
 41
1.5
 42
1.0
 43
6.0
 44
1.0
 47
495.0
 73
     0
 74
     0
 77
     3
 78
     8
140
3.0
141
0.0
147
0.5
172
     1
173
     1
174
     1
271
     2
272
     2
279
     2
284
     8
285
     8
286
     8
340
11
  0
DIMSTYLE
105
171
330
A
100
AcDbSymbolTableRecord
100
AcDbDimStyleTableRecord
  2
STANDARD
 70
     0
279
     2
340
11
  0
ENDTAB
  0
TABLE
  2
BLOCK_RECORD
  5
1
330
0
100
AcDbSymbolTable
 70
     5
  0
BLOCK_RECORD
  5
1E
102
{ACAD_XDICTIONARY
360
267
102
}
330
1
100
AcDbSymbolTableRecord
100
AcDbBlockTableRecord
  2
*Model_Space
340
21
  0
BLOCK_RECORD
  5
1A
330
1
100
AcDbSymbolTableRecord
100
AcDbBlockTableRecord
  2
*Paper_Space
340
1D
  0
BLOCK_RECORD
  5
13F
330
1
100
AcDbSymbolTableRecord
100
AcDbBlockTableRecord
  2
*U0
340
0
  0
ENDTAB
  0
ENDSEC
  0
SECTION
  2
BLOCKS
  0
BLOCK
  5
1F
330
1E
100
AcDbEntity
  8
0
100
AcDbBlockBegin
  2
*Model_Space
 70
     0
 10
0.0
 20
0.0
 30
0.0
  3
*Model_Space
  1

  0
ENDBLK
  5
20
330
1E
100
AcDbEntity
  8
0
100
AcDbBlockEnd
  0
BLOCK
  5
1B
330
1A
100
AcDbEntity
 67
     1
  8
0
100
AcDbBlockBegin
  2
*Paper_Space
 70
     0
 10
0.0
 20
0.0
 30
0.0
  3
*Paper_Space
  1

  0
ENDBLK
  5
1C
330
1A
100
AcDbEntity
 67
     1
  8
0
100
AcDbBlockEnd
  0
BLOCK
  5
140
330
13F
100
AcDbEntity
  8
0
100
AcDbBlockBegin
  2
*U0
 70
     1
 10
0.0
 20
0.0
 30
0.0
  3
*U0
  1

  0
ENDBLK
  5
141
330
13F
100
AcDbEntity
  8
0
100
AcDbBlockEnd
  0
ENDSEC
  0
SECTION
  2
ENTITIES
  0
ARC
  5
50B
330
1E
100
AcDbEntity
  8
CONTINUOUS
100
AcDbCircle
 10
311.531349962926
 20
203.6849837285357
 30
0.0
 40
3.0
100
AcDbArc
 50
184.0725840000002
 51
278.7845590000006
  0
ARC
  5
50C
330
1E
100
AcDbEntity
  8
CONTINUOUS
100
AcDbCircle
 10
314.585739962926
 20
183.9195917285357
 30
0.0
 40
17.0
100
AcDbArc
 50
55.50115499999982
 51
98.78455900000062
  0
ARC
  5
50D
330
1E
100
AcDbEntity
  8
CONTINUOUS
100
AcDbCircle
 10
343.271118962926
 20
190.4668427285357
 30
0.0
 40
17.0
100
AcDbArc
 50
106.9297269999997
 51
150.2131300000006
  0
LINE
  5
50E
330
1E
100
AcDbEntity
  8
CENTER
100
AcDbLine
 10
322.130676962926
 20
235.7986727285357
 30
0.0
 11
322.130676962926
 21
198.1535647285357
 31
0.0
  0
POLYLINE
  5
50F
330
1E
100
AcDbEntity
  8
CONTINUOUS
100
AcDb2dPolyline
 66
     1
 10
0.0
 20
0.0
 30
0.0
  0
VERTEX
  5
510
330
50F
100
AcDbEntity
  8
CONTINUOUS
100
AcDbVertex
100
AcDb2dVertex
 10
324.214363962926
 20
162.4860287285357
 30
0.0
 42
0.211404
 50
90.0
  0
VERTEX
  5
511
330
50F
100
AcDbEntity
  8
CONTINUOUS
100
AcDbVertex
100
AcDb2dVertex
 10
323.891593962926
 20
163.2153087285357
 30
0.0
 42
0.09467
 50
90.0
  0
VERTEX
  5
512
330
50F
100
AcDbEntity
  8
CONTINUOUS
100
AcDbVertex
100
AcDb2dVertex
 10
322.4240749629259
 20
164.1123757285357
 30
0.0
 42
0.051364
 70
     2
 50
159.379545
  0
VERTEX
  5
513
330
50F
100
AcDbEntity
  8
CONTINUOUS
100
AcDbVertex
100
AcDb2dVertex
 10
320.598603962926
 20
164.5926307285357
 30
0.0
 42
0.038674
 50
159.379545
  0
VERTEX
  5
514
330
50F
100
AcDbEntity
  8
CONTINUOUS
100
AcDbVertex
100
AcDb2dVertex
 10
318.101935962926
 20
164.7860297285357
 30
0.0
 42
0.038674
 50
90.0
  0
VERTEX
  5
515
330
50F
100
AcDbEntity
  8
CONTINUOUS
100
AcDbVertex
100
AcDb2dVertex
 10
315.605267962926
 20
164.5926307285357
 30
0.0
 42
0.051364
 50
90.0
  0
VERTEX
  5
516
330
50F
100
AcDbEntity
  8
CONTINUOUS
100
AcDbVertex
100
AcDb2dVertex
 10
313.779796962926
 20
164.1123757285357
 30
0.0
 42
0.09467
 70
     2
 50
200.620455
  0
VERTEX
  5
517
330
50F
100
AcDbEntity
  8
CONTINUOUS
100
AcDbVertex
100
AcDb2dVertex
 10
312.312278962926
 20
163.2153087285357
 30
0.0
 42
0.211404
 50
200.620455
  0
VERTEX
  5
518
330
50F
100
AcDbEntity
  8
CONTINUOUS
100
AcDbVertex
100
AcDb2dVertex
 10
311.989508962926
 20
162.4860287285357
 30
0.0
 42
0.211404
 50
90.0
  0
SEQEND
  5
519
330
50F
100
AcDbEntity
  8
CONTINUOUS
  0
ARC
  5
51A
330
1E
100
AcDbEntity
  8
CONTINUOUS
100
AcDbCircle
 10
322.130676962926
 20
104.4860287285357
 30
0.0
 40
65.0
100
AcDbArc
 50
90.0
 51
102.5558580000009
  0
LINE
  5
51B
330
1E
100
AcDbEntity
  8
CONTINUOUS
100
AcDbLine
 10
314.104833962926
 20
144.4860287285357
 30
0.0
 11
330.156519962926
 21
144.4860287285357
 31
0.0
  0
LINE
  5
51C
330
1E
100
AcDbEntity
  8
CONTINUOUS
100
AcDbLine
 10
302.630676962926
 20
157.4860287285357
 30
0.0
 11
339.934836962926
 21
157.4860287285357
 31
0.0
  0
ARC
  5
51D
330
1E
100
AcDbEntity
  8
CONTINUOUS
100
AcDbCircle
 10
309.630676962926
 20
160.6108897285357
 30
0.0
 40
7.5
100
AcDbArc
 50
102.5558580000009
 51
180.0
  0
LINE
  5
51E
330
1E
100
AcDbEntity
  8
CONTINUOUS
100
AcDbLine
 10
312.790259962926
 20
157.4860287285357
 30
0.0
 11
313.105175962926
 21
145.4598517285357
 31
0.0
  0
ARC
  5
51F
330
1E
100
AcDbEntity
  8
CONTINUOUS
100
AcDbCircle
 10
314.104833962926
 20
145.4860287285357
 30
0.0
 40
1.0
100
AcDbArc
 50
181.5000000000002
 51
270.0
  0
POLYLINE
  5
520
330
1E
100
AcDbEntity
  8
CONTINUOUS
100
AcDb2dPolyline
 66
     1
 10
0.0
 20
0.0
 30
0.0
  0
VERTEX
  5
521
330
520
100
AcDbEntity
  8
CONTINUOUS
100
AcDbVertex
100
AcDb2dVertex
 10
308.538925962926
 20
162.4860287285357
 30
0.0
 42
0.114379
 50
90.0
  0
VERTEX
  5
522
330
520
100
AcDbEntity
  8
CONTINUOUS
100
AcDbVertex
100
AcDb2dVertex
 10
308.339544962926
 20
163.3462017285357
 30
0.0
 42
0.103715
 50
90.0
  0
VERTEX
  5
523
330
520
100
AcDbEntity
  8
CONTINUOUS
100
AcDbVertex
100
AcDb2dVertex
 10
307.742171962926
 20
164.1123747285357
 30
0.0
 42
0.091506
 70
     2
 50
139.785504
  0
VERTEX
  5
524
330
520
100
AcDbEntity
  8
CONTINUOUS
100
AcDbVertex
100
AcDb2dVertex
 10
306.879384962926
 20
164.6056537285357
 30
0.0
 42
0.084417
 50
139.785504
  0
VERTEX
  5
525
330
520
100
AcDbEntity
  8
CONTINUOUS
100
AcDbVertex
100
AcDb2dVertex
 10
305.818638962926
 20
164.7860287285357
 30
0.0
 42
0.084417
 50
90.0
  0
VERTEX
  5
526
330
520
100
AcDbEntity
  8
CONTINUOUS
100
AcDbVertex
100
AcDb2dVertex
 10
304.757893962926
 20
164.6056537285357
 30
0.0
 42
0.091506
 50
90.0
  0
VERTEX
  5
527
330
520
100
AcDbEntity
  8
CONTINUOUS
100
AcDbVertex
100
AcDb2dVertex
 10
303.895106962926
 20
164.1123747285357
 30
0.0
 42
0.103715
 70
     2
 50
220.214496
  0
VERTEX
  5
528
330
520
100
AcDbEntity
  8
CONTINUOUS
100
AcDbVertex
100
AcDb2dVertex
 10
303.297733962926
 20
163.3462017285357
 30
0.0
 42
0.114379
 50
220.214496
  0
VERTEX
  5
529
330
520
100
AcDbEntity
  8
CONTINUOUS
100
AcDbVertex
100
AcDb2dVertex
 10
303.098352962926
 20
162.4860287285357
 30
0.0
 42
0.114379
 50
90.0
  0
SEQEND
  5
52A
330
520
100
AcDbEntity
  8
CONTINUOUS
  0
LINE
  5
52B
330
1E
100
AcDbEntity
  8
CONTINUOUS
100
AcDbLine
 10
302.130676962926
 20
160.6108897285357
 30
0.0
 11
302.130676962926
 21
157.9860287285357
 31
0.0
  0
LINE
  5
52C
330
1E
100
AcDbEntity
  8
CONTINUOUS
100
AcDbLine
 10
303.098352962926
 20
157.4860287285357
 30
0.0
 11
303.098352962926
 21
162.4860287285357
 31
0.0
  0
ARC
  5
52D
330
1E
100
AcDbEntity
  8
CONTINUOUS
100
AcDbCircle
 10
302.630676962926
 20
157.9860287285357
 30
0.0
 40
0.5
100
AcDbArc
 50
180.0
 51
270.0
  0
LINE
  5
52E
330
1E
100
AcDbEntity
  8
CONTINUOUS
100
AcDbLine
 10
308.538925962926
 20
157.4860287285357
 30
0.0
 11
308.538925962926
 21
162.4860287285357
 31
0.0
  0
LINE
  5
52F
330
1E
100
AcDbEntity
  8
CONTINUOUS
100
AcDbLine
 10
311.989508962926
 20
157.4860287285357
 30
0.0
 11
311.989508962926
 21
162.4860287285357
 31
0.0
  0
LINE
  5
530
330
1E
100
AcDbEntity
  8
CONTINUOUS
100
AcDbLine
 10
318.130676962926
 20
144.4860287285357
 30
0.0
 11
318.130676962926
 21
110.0860287285357
 31
0.0
  0
LINE
  5
531
330
1E
100
AcDbEntity
  8
THIN
100
AcDbLine
 10
318.730676962926
 20
142.4860287285357
 30
0.0
 11
318.730676962926
 21
109.4860287285357
 31
0.0
  0
LINE
  5
532
330
1E
100
AcDbEntity
  8
THIN
100
AcDbLine
 10
325.530676962926
 20
109.4860287285357
 30
0.0
 11
325.530676962926
 21
142.4860287285357
 31
0.0
  0
LINE
  5
533
330
1E
100
AcDbEntity
  8
CONTINUOUS
100
AcDbLine
 10
326.130676962926
 20
110.0860287285357
 30
0.0
 11
326.130676962926
 21
144.4860287285357
 31
0.0
  0
LINE
  5
534
330
1E
100
AcDbEntity
  8
CENTER
100
AcDbLine
 10
322.130676962926
 20
170.4860287285357
 30
0.0
 11
322.130676962926
 21
108.4860287285357
 31
0.0
  0
LINE
  5
535
330
1E
100
AcDbEntity
  8
CONTINUOUS
100
AcDbLine
 10
318.130676962926
 20
110.0860287285357
 30
0.0
 11
326.130676962926
 21
110.0860287285357
 31
0.0
  0
LINE
  5
536
330
1E
100
AcDbEntity
  8
CONTINUOUS
100
AcDbLine
 10
318.730676962926
 20
109.4860287285357
 30
0.0
 11
325.530676962926
 21
109.4860287285357
 31
0.0
  0
LINE
  5
537
330
1E
100
AcDbEntity
  8
CONTINUOUS
100
AcDbLine
 10
318.730676962926
 20
109.4860287285357
 30
0.0
 11
318.130676962926
 21
110.0860287285357
 31
0.0
  0
LINE
  5
538
330
1E
100
AcDbEntity
  8
CONTINUOUS
100
AcDbLine
 10
325.530676962926
 20
109.4860287285357
 30
0.0
 11
326.130676962926
 21
110.0860287285357
 31
0.0
  0
ARC
  5
539
330
1E
100
AcDbEntity
  8
CONTINUOUS
100
AcDbCircle
 10
332.933466962926
 20
160.7316887285357
 30
0.0
 40
7.5
100
AcDbArc
 50
0.0285560000002051
 51
76.76696199999939
  0
LINE
  5
53A
330
1E
100
AcDbEntity
  8
CONTINUOUS
100
AcDbLine
 10
331.156176962926
 20
145.4598517285357
 30
0.0
 11
331.471093962926
 21
157.4860287285357
 31
0.0
  0
LINE
  5
53B
330
1E
100
AcDbEntity
  8
THIN
100
AcDbLine
 10
325.530676962926
 20
142.4860287285357
 30
0.0
 11
326.130676962926
 21
143.5252597285357
 31
0.0
  0
LINE
  5
53C
330
1E
100
AcDbEntity
  8
THIN
100
AcDbLine
 10
318.730676962926
 20
142.4860287285357
 30
0.0
 11
318.130676962926
 21
143.5252597285357
 31
0.0
  0
LINE
  5
53D
330
1E
100
AcDbEntity
  8
CONTINUOUS
100
AcDbLine
 10
318.130676962926
 20
142.4860287285357
 30
0.0
 11
326.130676962926
 21
142.4860287285357
 31
0.0
  0
ARC
  5
53E
330
1E
100
AcDbEntity
  8
CONTINUOUS
100
AcDbCircle
 10
330.156519962926
 20
145.4860287285357
 30
0.0
 40
1.0
100
AcDbArc
 50
270.0
 51
358.4999999999996
  0
LINE
  5
53F
330
1E
100
AcDbEntity
  8
CONTINUOUS
100
AcDbLine
 10
324.214363962926
 20
157.4860287285357
 30
0.0
 11
324.214363962926
 21
162.4860287285357
 31
0.0
  0
LINE
  5
540
330
1E
100
AcDbEntity
  8
CONTINUOUS
100
AcDbLine
 10
338.320742962926
 20
157.4860287285357
 30
0.0
 11
338.320742962926
 21
162.4860287285357
 31
0.0
  0
LINE
  5
541
330
1E
100
AcDbEntity
  8
CONTINUOUS
100
AcDbLine
 10
328.517170962926
 20
157.4860287285357
 30
0.0
 11
328.517170962926
 21
162.4860287285357
 31
0.0
  0
POLYLINE
  5
542
330
1E
100
AcDbEntity
  8
CONTINUOUS
100
AcDb2dPolyline
 66
     1
 10
0.0
 20
0.0
 30
0.0
  0
VERTEX
  5
543
330
542
100
AcDbEntity
  8
CONTINUOUS
100
AcDbVertex
100
AcDb2dVertex
 10
338.320742962926
 20
162.4860287285357
 30
0.0
 42
0.182801
 50
90.0
  0
VERTEX
  5
544
330
542
100
AcDbEntity
  8
CONTINUOUS
100
AcDbVertex
100
AcDb2dVertex
 10
338.030218962926
 20
163.2541227285357
 30
0.0
 42
0.102572
 50
90.0
  0
VERTEX
  5
545
330
542
100
AcDbEntity
  8
CONTINUOUS
100
AcDbVertex
100
AcDb2dVertex
 10
336.885042962926
 20
164.1123747285357
 30
0.0
 42
0.061767
 70
     2
 50
154.8632399999999
  0
VERTEX
  5
546
330
542
100
AcDbEntity
  8
CONTINUOUS
100
AcDbVertex
100
AcDb2dVertex
 10
335.406676962926
 20
164.5946577285357
 30
0.0
 42
0.048028
 50
154.8632399999999
  0
VERTEX
  5
547
330
542
100
AcDbEntity
  8
CONTINUOUS
100
AcDbVertex
100
AcDb2dVertex
 10
333.418956962926
 20
164.7860297285357
 30
0.0
 42
0.048028
 50
90.0
  0
VERTEX
  5
548
330
542
100
AcDbEntity
  8
CONTINUOUS
100
AcDbVertex
100
AcDb2dVertex
 10
331.431235962926
 20
164.5946577285357
 30
0.0
 42
0.061767
 50
90.0
  0
VERTEX
  5
549
330
542
100
AcDbEntity
  8
CONTINUOUS
100
AcDbVertex
100
AcDb2dVertex
 10
329.952870962926
 20
164.1123747285357
 30
0.0
 42
0.102572
 70
     2
 50
205.13676
  0
VERTEX
  5
54A
330
542
100
AcDbEntity
  8
CONTINUOUS
100
AcDbVertex
100
AcDb2dVertex
 10
328.807694962926
 20
163.2541227285357
 30
0.0
 42
0.182801
 50
205.13676
  0
VERTEX
  5
54B
330
542
100
AcDbEntity
  8
CONTINUOUS
100
AcDbVertex
100
AcDb2dVertex
 10
328.517170962926
 20
162.4860287285357
 30
0.0
 42
0.182801
 50
90.0
  0
SEQEND
  5
54C
330
542
100
AcDbEntity
  8
CONTINUOUS
  0
LINE
  5
54D
330
1E
100
AcDbEntity
  8
CONTINUOUS
100
AcDbLine
 10
340.434836962926
 20
157.9862777285357
 30
0.0
 11
340.433465962926
 21
160.7354267285358
 31
0.0
  0
ARC
  5
54E
330
1E
100
AcDbEntity
  8
CONTINUOUS
100
AcDbCircle
 10
339.934836962926
 20
157.9860287285357
 30
0.0
 40
0.5
100
AcDbArc
 50
270.0
 51
0.0285560000002051
  0
ARC
  5
54F
330
1E
100
AcDbEntity
  8
CONTINUOUS
100
AcDbCircle
 10
322.119822962926
 20
114.7467657285357
 30
0.0
 40
54.73926399999999
100
AcDbArc
 50
76.76696199999939
 51
89.98863899999891
  0
ARC
  5
550
330
1E
100
AcDbEntity
  8
CONTINUOUS
100
AcDbCircle
 10
325.913532962926
 20
200.4023447285357
 30
0.0
 40
3.0
100
AcDbArc
 50
235.5011549999998
 51
330.2131300000006
  0
LINE
  5
551
330
1E
100
AcDbEntity
  8
CENTER
100
AcDbLine
 10
301.130676962926
 20
216.9761187285357
 30
0.0
 11
340.037313962926
 21
216.9761187285357
 31
0.0
  0
ARC
  5
552
330
1E
100
AcDbEntity
  8
CONTINUOUS
100
AcDbCircle
 10
314.585739962926
 20
250.0326457285357
 30
0.0
 40
17.0
100
AcDbArc
 50
261.2154409999993
 51
304.4988450000001
  0
ARC
  5
553
330
1E
100
AcDbEntity
  8
CONTINUOUS
100
AcDbCircle
 10
311.531349962926
 20
230.2672537285357
 30
0.0
 40
3.0
100
AcDbArc
 50
81.21544099999937
 51
175.9274159999997
  0
ARC
  5
554
330
1E
100
AcDbEntity
  8
CONTINUOUS
100
AcDbCircle
 10
305.130676962926
 20
216.9761187285357
 30
0.0
 40
3.0
100
AcDbArc
 50
132.644011999999
 51
227.3559880000009
  0
ARC
  5
555
330
1E
100
AcDbEntity
  8
CONTINUOUS
100
AcDbCircle
 10
291.581852962926
 20
202.2645807285357
 30
0.0
 40
17.0
100
AcDbArc
 50
4.072584000000246
 51
47.35598800000094
  0
ARC
  5
556
330
1E
100
AcDbEntity
  8
CONTINUOUS
100
AcDbCircle
 10
291.581852962926
 20
231.6876567285357
 30
0.0
 40
17.0
100
AcDbArc
 50
312.644011999999
 51
355.9274159999997
  0
ARC
  5
557
330
1E
100
AcDbEntity
  8
CONTINUOUS
100
AcDbCircle
 10
343.271118962926
 20
243.4853947285357
 30
0.0
 40
17.0
100
AcDbArc
 50
209.7868699999993
 51
253.0702730000002
  0
ARC
  5
558
330
1E
100
AcDbEntity
  8
CONTINUOUS
100
AcDbCircle
 10
337.447147962926
 20
224.3521427285357
 30
0.0
 40
3.0
100
AcDbArc
 50
338.3582980000003
 51
73.07027300000024
  0
ARC
  5
559
330
1E
100
AcDbEntity
  8
CONTINUOUS
100
AcDbCircle
 10
337.447147962926
 20
209.6000947285357
 30
0.0
 40
3.0
100
AcDbArc
 50
286.9297269999997
 51
21.64170199999964
  0
ARC
  5
55A
330
1E
100
AcDbEntity
  8
CONTINUOUS
100
AcDbCircle
 10
356.037313962926
 20
216.9761187285357
 30
0.0
 40
17.0
100
AcDbArc
 50
158.3582980000003
 51
201.6417019999996
  0
ARC
  5
55B
330
1E
100
AcDbEntity
  8
CONTINUOUS
100
AcDbCircle
 10
325.913532962926
 20
233.5498937285357
 30
0.0
 40
3.0
100
AcDbArc
 50
29.78686999999936
 51
124.4988450000001
  0
TEXT
  5
568
330
1E
100
AcDbEntity
  8
0
100
AcDbText
 10
333.7900532081734
 20
121.0079207616631
 30
0.0
 40
2.5
  1
SLK-40-35
100
AcDbText
  0
ENDSEC
  0
SECTION
  2
OBJECTS
  0
DICTIONARY
  5
C
330
0
100
AcDbDictionary
281
     1
  3
ACAD_GROUP
350
D
  3
ACAD_LAYOUT
350
19
  3
ACAD_MLINESTYLE
350
16
  3
ACAD_PLOTSETTINGS
350
18
  3
ACAD_PLOTSTYLENAME
350
E
  3
AcDbVariableDictionary
350
273
  3
AcmDictionary
350
149
  3
AMG
350
90
  3
AMGSNAPSETTINGS
350
166
  3
DWGPROPS
350
4B4
  3
MAPISURF_MODULE
350
11C
  0
DICTIONARY
  5
267
330
1E
100
AcDbDictionary
280
     1
281
     1
  3
ACAD_INDEX
360
268
  0
DICTIONARY
  5
D
102
{ACAD_REACTORS
330
C
102
}
330
C
100
AcDbDictionary
281
     1
  0
DICTIONARY
  5
19
102
{ACAD_REACTORS
330
C
102
}
330
C
100
AcDbDictionary
281
     1
  3
Model
350
21
  3
ﾚｲｱｳﾄ1
350
1D
  0
DICTIONARY
  5
16
102
{ACAD_REACTORS
330
C
102
}
330
C
100
AcDbDictionary
281
     1
  3
Standard
350
17
  0
DICTIONARY
  5
18
102
{ACAD_REACTORS
330
C
102
}
330
C
100
AcDbDictionary
281
     1
  0
ACDBDICTIONARYWDFLT
  5
E
102
{ACAD_REACTORS
330
C
102
}
330
C
100
AcDbDictionary
281
     1
  3
Normal
350
F
100
AcDbDictionaryWithDefault
340
F
  0
DICTIONARY
  5
273
102
{ACAD_REACTORS
330
C
102
}
330
C
100
AcDbDictionary
281
     1
  3
DIMASSOC
350
275
  3
INDEXCTL
350
274
  0
DICTIONARY
  5
149
102
{ACAD_REACTORS
330
C
102
}
330
C
100
AcDbDictionary
281
     1
  3
AcmBOMDATA
350
14A
  0
DICTIONARY
  5
90
102
{ACAD_REACTORS
330
C
102
}
330
C
100
AcDbDictionary
281
     1
  3
AcMgSettings
350
91
  3
AMGLAYCFG
350
156
  0
DICTIONARY
  5
166
102
{ACAD_REACTORS
330
C
102
}
330
C
100
AcDbDictionary
281
     1
  3
DIMENSION
350
16B
  3
FEA
350
16A
  3
HATCH (1)
350
167
  3
HATCH (2)
350
168
  3
SIMPLE WELD
350
16C
  3
SYMBOLS
350
169
  0
XRECORD
  5
4B4
102
{ACAD_REACTORS
330
C
102
}
330
C
100
AcDbXrecord
280
     1
  1
DWGPROPS COOKIE
  2

  3

  4

  6

  7

  8

  9

300
AmdtFileType=84
301
=
302
=
303
=
304
=
305
=
306
=
307
=
308
=
309
=
 40
0.3516199652777778
 41
2451449.307680995
 42
2454132.465594792
  1

 90
        1
  0
DICTIONARY
  5
268
102
{ACAD_REACTORS
330
267
102
}
330
267
100
AcDbDictionary
281
     1
  3
*A1
350
269
  0
LAYOUT
  5
21
102
{ACAD_REACTORS
330
19
102
}
330
19
100
AcDbPlotSettings
  1

  2
EPSON PM-3700C
  4

  6

 40
0.0
 41
0.0
 42
0.0
 43
0.0
 44
0.0
 45
0.0
 46
0.0
 47
0.0
 48
0.0
 49
0.0
140
0.0
141
0.0
142
1.0
143
1.0
 70
  1712
 72
     0
 73
     0
 74
     0
  7

 75
     0
147
1.0
148
0.0
149
0.0
100
AcDbLayout
  1
Model
 70
     1
 71
     0
 10
0.0
 20
0.0
 11
12.0
 21
9.0
 12
0.0
 22
0.0
 32
0.0
 14
0.0
 24
0.0
 34
0.0
 15
0.0
 25
0.0
 35
0.0
146
0.0
 13
0.0
 23
0.0
 33
0.0
 16
1.0
 26
0.0
 36
0.0
 17
0.0
 27
1.0
 37
0.0
 76
     0
330
1E
  0
LAYOUT
  5
1D
102
{ACAD_REACTORS
330
19
102
}
330
19
100
AcDbPlotSettings
  1

  2
EPSON PM-3700C
  4

  6

 40
0.0
 41
0.0
 42
0.0
 43
0.0
 44
0.0
 45
0.0
 46
0.0
 47
0.0
 48
0.0
 49
0.0
140
0.0
141
0.0
142
1.0
143
1.0
 70
   688
 72
     0
 73
     0
 74
     5
  7

 75
    16
147
1.0
148
0.0
149
0.0
100
AcDbLayout
  1
ﾚｲｱｳﾄ1
 70
     1
 71
     1
 10
0.0
 20
0.0
 11
420.0
 21
297.0
 12
0.0
 22
0.0
 32
0.0
 14
-1.000000000000000E+20
 24
-1.000000000000000E+20
 34
-1.000000000000000E+20
 15
1.000000000000000E+20
 25
1.000000000000000E+20
 35
1.000000000000000E+20
146
0.0
 13
0.0
 23
0.0
 33
0.0
 16
1.0
 26
0.0
 36
0.0
 17
0.0
 27
1.0
 37
0.0
 76
     0
330
1A
  0
MLINESTYLE
  5
17
102
{ACAD_REACTORS
330
16
102
}
330
16
100
AcDbMlineStyle
  2
STANDARD
 70
     0
  3

 62
   256
 51
90.0
 52
90.0
 71
     2
 49
0.5
 62
   256
  6
BYLAYER
 49
-0.5
 62
   256
  6
BYLAYER
  0
ACDBPLACEHOLDER
  5
F
102
{ACAD_REACTORS
330
E
102
}
330
E
  0
DICTIONARYVAR
  5
275
102
{ACAD_REACTORS
330
273
102
}
330
273
100
DictionaryVariables
280
     0
  1
0
  0
DICTIONARYVAR
  5
274
102
{ACAD_REACTORS
330
273
102
}
330
273
100
DictionaryVariables
280
     0
  1
1
  0
ACMDATADICTIONARY
  5
14A
102
{ACAD_REACTORS
330
149
102
}
330
149
100
AcDbDictionary
281
     1
  3
*A1
350
14B
100
AcmDataDictionary
  0
DICTIONARY
  5
91
102
{ACAD_REACTORS
330
90
102
}
330
90
100
AcDbDictionary
281
     1
  3
DWGSETTINGS
350
92
  0
ACAMGFILTERDAT
  5
16B
102
{ACAD_REACTORS
330
166
102
}
330
166
100
AcAmgFilterDat
 70
    15
  1
DIMENSION,AMDT_*_DIM
  2
*
  3
*
  4
*
  5
*
290
     1
  0
ACAMGFILTERDAT
  5
16A
102
{ACAD_REACTORS
330
166
102
}
330
166
100
AcAmgFilterDat
 70
    15
  1
*
  2
AM_FEA-AM_*
  3
*
  4
*
  5
*
290
     1
  0
ACAMGFILTERDAT
  5
167
102
{ACAD_REACTORS
330
166
102
}
330
166
100
AcAmgFilterDat
 70
    15
  1
HATCH
  2
*
  3
*
  4
*
  5
*
290
     1
  0
ACAMGFILTERDAT
  5
168
102
{ACAD_REACTORS
330
166
102
}
330
166
100
AcAmgFilterDat
 70
    15
  1
LINE
  2
8,8N,*-8,*-8N,AM_8,AM_8N,*-AM_8,*-AM_8N
  3
*
  4
*
  5
INSERT,STDPART2D
290
     1
  0
ACAMGFILTERDAT
  5
16C
102
{ACAD_REACTORS
330
166
102
}
330
166
100
AcAmgFilterDat
 70
    15
  1
ARC
  2
AM_5
  3
*
  4
2
  5
INSERT
290
     0
  0
ACAMGFILTERDAT
  5
169
102
{ACAD_REACTORS
330
166
102
}
330
166
100
AcAmgFilterDat
 70
    15
  1
ACMFCFRAME,ACMDATUMTARGET,ACMDATUMID,ACMWELDSYM,ACMSURFSYM,ACMFEATID,ACMPARTREF,ACMBALLOON,AMDTEDGESYM,AMGSCREWCALCTABLE
  2
*
  3
*
  4
*
  5
*
290
     1
  0
LAYER_INDEX
  5
269
102
{ACAD_REACTORS
330
268
102
}
330
268
100
AcDbIndex
 40
2454132.469019456
100
AcDbLayerIndex
  8
0
360
26A
 90
        1
  8
CONTINUOUS
360
26B
 90
       44
  8
CENTER
360
26C
 90
        3
  8
DIVIDE
360
26D
 90
        0
  8
TEXT
360
26E
 90
        0
  8
THIN
360
26F
 90
        4
  8
1
360
270
 90
        0
  8
2
360
271
 90
        0
  0
ACMDATAENTRYBLOCK
  5
14B
102
{ACAD_REACTORS
330
14A
102
}
330
14A
100
AcmDataEntry
100
AcmDataEntryBlock
  0
IDBUFFER
  5
26A
330
0
100
AcDbIdBuffer
330
568
  0
IDBUFFER
  5
26B
330
0
100
AcDbIdBuffer
330
537
330
538
330
539
330
53A
330
53D
330
53E
330
53F
330
540
330
541
330
542
330
54D
330
54E
330
54F
330
550
330
552
330
553
330
554
330
555
330
556
330
557
330
558
330
559
330
55A
330
55B
330
536
330
535
330
533
330
530
330
52F
330
52E
330
52D
330
52C
330
52B
330
520
330
51F
330
51E
330
51D
330
51C
330
51B
330
51A
330
50F
330
50D
330
50C
330
50B
  0
IDBUFFER
  5
26C
330
0
100
AcDbIdBuffer
330
551
330
534
330
50E
  0
IDBUFFER
  5
26D
330
0
100
AcDbIdBuffer
  0
IDBUFFER
  5
26E
330
0
100
AcDbIdBuffer
  0
IDBUFFER
  5
26F
330
0
100
AcDbIdBuffer
330
53C
330
53B
330
532
330
531
  0
IDBUFFER
  5
270
330
0
100
AcDbIdBuffer
  0
IDBUFFER
  5
271
330
0
100
AcDbIdBuffer
  0
ENDSEC
  0
EOF
