  0
SECTION
  2
HEADER
  9
$ACADVER
  1
AC1015
  9
$ACADMAINTVER
 70
    13
  9
$DWGCODEPAGE
  3
ANSI_932
  9
$INSBASE
 10
0.0
 20
0.0
 30
0.0
  9
$EXTMIN
 10
-80.69091546955991
 20
-34.53413163964659
 30
0.0
  9
$EXTMAX
 10
198.6028349569593
 20
181.9544871322053
 30
0.0
  9
$LIMMIN
 10
0.0
 20
0.0
  9
$LIMMAX
 10
200.0
 20
150.0
  9
$ORTHOMODE
 70
     1
  9
$REGENMODE
 70
     1
  9
$FILLMODE
 70
     1
  9
$QTEXTMODE
 70
     0
  9
$MIRRTEXT
 70
     1
  9
$LTSCALE
 40
1.0
  9
$ATTMODE
 70
     1
  9
$TEXTSIZE
 40
2.5
  9
$TRACEWID
 40
1.0
  9
$TEXTSTYLE
  7
STANDARD
  9
$CLAYER
  8
0
  9
$CELTYPE
  6
ByLayer
  9
$CECOLOR
 62
   256
  9
$CELTSCALE
 40
1.0
  9
$DISPSILH
 70
     0
  9
$DIMSCALE
 40
1.0
  9
$DIMASZ
 40
2.5
  9
$DIMEXO
 40
0.625
  9
$DIMDLI
 40
3.75
  9
$DIMRND
 40
0.0
  9
$DIMDLE
 40
0.0
  9
$DIMEXE
 40
1.25
  9
$DIMTP
 40
0.0
  9
$DIMTM
 40
0.0
  9
$DIMTXT
 40
2.5
  9
$DIMCEN
 40
2.5
  9
$DIMTSZ
 40
0.0
  9
$DIMTOL
 70
     0
  9
$DIMLIM
 70
     0
  9
$DIMTIH
 70
     0
  9
$DIMTOH
 70
     0
  9
$DIMSE1
 70
     0
  9
$DIMSE2
 70
     0
  9
$DIMTAD
 70
     1
  9
$DIMZIN
 70
     8
  9
$DIMBLK
  1

  9
$DIMASO
 70
     1
  9
$DIMSHO
 70
     1
  9
$DIMPOST
  1

  9
$DIMAPOST
  1

  9
$DIMALT
 70
     0
  9
$DIMALTD
 70
     4
  9
$DIMALTF
 40
0.0394
  9
$DIMLFAC
 40
1.0
  9
$DIMTOFL
 70
     1
  9
$DIMTVP
 40
0.0
  9
$DIMTIX
 70
     0
  9
$DIMSOXD
 70
     0
  9
$DIMSAH
 70
     0
  9
$DIMBLK1
  1

  9
$DIMBLK2
  1

  9
$DIMSTYLE
  2
STANDARD
  9
$DIMCLRD
 70
     0
  9
$DIMCLRE
 70
     0
  9
$DIMCLRT
 70
     0
  9
$DIMTFAC
 40
1.0
  9
$DIMGAP
 40
0.625
  9
$DIMJUST
 70
     0
  9
$DIMSD1
 70
     0
  9
$DIMSD2
 70
     0
  9
$DIMTOLJ
 70
     1
  9
$DIMTZIN
 70
     0
  9
$DIMALTZ
 70
     0
  9
$DIMALTTZ
 70
     0
  9
$DIMUPT
 70
     0
  9
$DIMDEC
 70
     4
  9
$DIMTDEC
 70
     4
  9
$DIMALTU
 70
     2
  9
$DIMALTTD
 70
     2
  9
$DIMTXSTY
  7
STANDARD
  9
$DIMAUNIT
 70
     0
  9
$DIMADEC
 70
     0
  9
$DIMALTRND
 40
0.0
  9
$DIMAZIN
 70
     0
  9
$DIMDSEP
 70
    46
  9
$DIMATFIT
 70
     3
  9
$DIMFRAC
 70
     0
  9
$DIMLDRBLK
  1

  9
$DIMLUNIT
 70
     2
  9
$DIMLWD
 70
    -2
  9
$DIMLWE
 70
    -2
  9
$DIMTMOVE
 70
     0
  9
$LUNITS
 70
     2
  9
$LUPREC
 70
     4
  9
$SKETCHINC
 40
1.0
  9
$FILLETRAD
 40
1.0
  9
$AUNITS
 70
     0
  9
$AUPREC
 70
     0
  9
$MENU
  1
.
  9
$ELEVATION
 40
0.0
  9
$PELEVATION
 40
0.0
  9
$THICKNESS
 40
0.0
  9
$LIMCHECK
 70
     0
  9
$CHAMFERA
 40
10.0
  9
$CHAMFERB
 40
10.0
  9
$CHAMFERC
 40
0.0
  9
$CHAMFERD
 40
0.0
  9
$SKPOLY
 70
     0
  9
$TDCREATE
 40
2452125.683722997
  9
$TDUCREATE
 40
2452125.308722997
  9
$TDUPDATE
 40
2454700.618106191
  9
$TDUUPDATE
 40
2454700.243106191
  9
$TDINDWG
 40
0.0451928935
  9
$TDUSRTIMER
 40
0.0451925347
  9
$USRTIMER
 70
     1
  9
$ANGBASE
 50
0.0
  9
$ANGDIR
 70
     0
  9
$PDMODE
 70
     0
  9
$PDSIZE
 40
0.0
  9
$PLINEWID
 40
0.0
  9
$SPLFRAME
 70
     0
  9
$SPLINETYPE
 70
     6
  9
$SPLINESEGS
 70
     8
  9
$HANDSEED
  5
CDA
  9
$SURFTAB1
 70
     6
  9
$SURFTAB2
 70
     6
  9
$SURFTYPE
 70
     6
  9
$SURFU
 70
     6
  9
$SURFV
 70
     6
  9
$UCSBASE
  2

  9
$UCSNAME
  2

  9
$UCSORG
 10
0.0
 20
0.0
 30
0.0
  9
$UCSXDIR
 10
1.0
 20
0.0
 30
0.0
  9
$UCSYDIR
 10
0.0
 20
1.0
 30
0.0
  9
$UCSORTHOREF
  2

  9
$UCSORTHOVIEW
 70
     0
  9
$UCSORGTOP
 10
0.0
 20
0.0
 30
0.0
  9
$UCSORGBOTTOM
 10
0.0
 20
0.0
 30
0.0
  9
$UCSORGLEFT
 10
0.0
 20
0.0
 30
0.0
  9
$UCSORGRIGHT
 10
0.0
 20
0.0
 30
0.0
  9
$UCSORGFRONT
 10
0.0
 20
0.0
 30
0.0
  9
$UCSORGBACK
 10
0.0
 20
0.0
 30
0.0
  9
$PUCSBASE
  2

  9
$PUCSNAME
  2

  9
$PUCSORG
 10
0.0
 20
0.0
 30
0.0
  9
$PUCSXDIR
 10
1.0
 20
0.0
 30
0.0
  9
$PUCSYDIR
 10
0.0
 20
1.0
 30
0.0
  9
$PUCSORTHOREF
  2

  9
$PUCSORTHOVIEW
 70
     0
  9
$PUCSORGTOP
 10
0.0
 20
0.0
 30
0.0
  9
$PUCSORGBOTTOM
 10
0.0
 20
0.0
 30
0.0
  9
$PUCSORGLEFT
 10
0.0
 20
0.0
 30
0.0
  9
$PUCSORGRIGHT
 10
0.0
 20
0.0
 30
0.0
  9
$PUCSORGFRONT
 10
0.0
 20
0.0
 30
0.0
  9
$PUCSORGBACK
 10
0.0
 20
0.0
 30
0.0
  9
$USERI1
 70
     0
  9
$USERI2
 70
     0
  9
$USERI3
 70
     0
  9
$USERI4
 70
     0
  9
$USERI5
 70
     0
  9
$USERR1
 40
0.0
  9
$USERR2
 40
0.0
  9
$USERR3
 40
0.0
  9
$USERR4
 40
0.0
  9
$USERR5
 40
0.0
  9
$WORLDVIEW
 70
     1
  9
$SHADEDGE
 70
     3
  9
$SHADEDIF
 70
    70
  9
$TILEMODE
 70
     1
  9
$MAXACTVP
 70
    48
  9
$PINSBASE
 10
0.0
 20
0.0
 30
0.0
  9
$PLIMCHECK
 70
     0
  9
$PEXTMIN
 10
1.000000000000000E+20
 20
1.000000000000000E+20
 30
1.000000000000000E+20
  9
$PEXTMAX
 10
-1.000000000000000E+20
 20
-1.000000000000000E+20
 30
-1.000000000000000E+20
  9
$PLIMMIN
 10
0.0
 20
0.0
  9
$PLIMMAX
 10
420.0
 20
297.0
  9
$UNITMODE
 70
     0
  9
$VISRETAIN
 70
     1
  9
$PLINEGEN
 70
     0
  9
$PSLTSCALE
 70
     1
  9
$TREEDEPTH
 70
  3020
  9
$CMLSTYLE
  2
Standard
  9
$CMLJUST
 70
     0
  9
$CMLSCALE
 40
1.0
  9
$PROXYGRAPHICS
 70
     1
  9
$MEASUREMENT
 70
     0
  9
$CELWEIGHT
370
    -1
  9
$ENDCAPS
280
     0
  9
$JOINSTYLE
280
     0
  9
$LWDISPLAY
290
     0
  9
$INSUNITS
 70
     0
  9
$HYPERLINKBASE
  1

  9
$STYLESHEET
  1

  9
$XEDIT
290
     1
  9
$CEPSNTYPE
380
     0
  9
$PSTYLEMODE
290
     1
  9
$FINGERPRINTGUID
  2
{A10496DF-95F9-45CE-9E69-95AC451A2C1D}
  9
$VERSIONGUID
  2
{D5DE1DA8-F223-4688-AC52-C916BA220624}
  9
$EXTNAMES
290
     1
  9
$PSVPSCALE
 40
0.0
  9
$OLESTARTUP
290
     0
  0
ENDSEC
  0
SECTION
  2
CLASSES
  0
CLASS
  1
ACDBDICTIONARYWDFLT
  2
AcDbDictionaryWithDefault
  3
AutoCAD 2000
 90
        0
280
     0
281
     0
  0
CLASS
  1
ACDBPLACEHOLDER
  2
AcDbPlaceHolder
  3
AutoCAD 2000
 90
        0
280
     0
281
     0
  0
CLASS
  1
LAYOUT
  2
AcDbLayout
  3
AutoCAD 2000
 90
        0
280
     0
281
     0
  0
CLASS
  1
AMGSETTINGSOBJ
  2
AmgSettingsObj
  3
"AcadM|Product Description: AutoCAD Mechanical 2000|Company: Autodesk"
 90
        0
280
     0
281
     0
  0
CLASS
  1
ACME_DOCUMENT
  2
AcMeDbDoc
  3
AcMeServices
 90
        0
280
     0
281
     0
  0
CLASS
  1
ACMESCOPE
  2
AcMeScope
  3
AcMeServices
 90
        0
280
     0
281
     0
  0
CLASS
  1
ACMECOMMANDHISTORY
  2
AcMeCommandHistory
  3
AcMeServices
 90
        0
280
     0
281
     0
  0
CLASS
  1
ACIMSYSVARMAN
  2
AcImSysVarManager
  3
AcMeServices
 90
        0
280
     0
281
     0
  0
CLASS
  1
ACIMREALSYSVAR
  2
AcImRealSysVar
  3
AcMeServices
 90
        0
280
     0
281
     0
  0
CLASS
  1
ACIMINTSYSVAR
  2
AcImIntSysVar
  3
AcMeServices
 90
        0
280
     0
281
     0
  0
CLASS
  1
ACMEDRAWINGMAN
  2
AcMeDrawingMan
  3
AcMeServices
 90
        0
280
     0
281
     0
  0
CLASS
  1
ACMEVIEW
  2
AcMeView
  3
AcMeServices
 90
        0
280
     0
281
     0
  0
CLASS
  1
ACDBENTITYCACHE
  2
AcMeEntityCache
  3
AcMeServices
 90
        0
280
     0
281
     0
  0
CLASS
  1
GSMANAGER
  2
AcMeGSManager
  3
AcMeServices
 90
        0
280
     0
281
     0
  0
CLASS
  1
AMDTINTERNALREACTOR
  2
AmdtInternalReactor
  3
AcMeServices
 90
        0
280
     0
281
     0
  0
CLASS
  1
ACMESTATEMGR
  2
AcMeStateMgr
  3
AcMeServices
 90
        0
280
     0
281
     0
  0
CLASS
  1
ACGREFMASTER
  2
AcGrefMaster
  3
AcAttribServices
 90
        0
280
     0
281
     0
  0
CLASS
  1
AM_DRAWING_MGR
  2
AcDmDwgMgr
  3
AcMechDwgViewMgmt
 90
        0
280
     0
281
     0
  0
CLASS
  1
AM_DWG_DOCUMENT
  2
AcDmDwgDocument
  3
AcMechDwgViewMgmt
 90
        0
280
     0
281
     0
  0
CLASS
  1
AM_DWG_SHEET
  2
AcDmSheet
  3
AcMechDwgViewMgmt
 90
        0
280
     0
281
     0
  0
CLASS
  1
AM_VIEWDIMPARMAP
  2
AcDmViewDimParMap
  3
AcMechDwgViewMgmt
 90
        0
280
     0
281
     0
  0
CLASS
  1
AM_DWGMGR_NAME
  2
AcDmDwgMgrName
  3
AcMechDwgViewMgmt
 90
        0
280
     0
281
     0
  0
CLASS
  1
ACME_DATABASE
  2
AcMeDbDatabase
  3
AcMeServices
 90
        0
280
     0
281
     0
  0
CLASS
  1
ACRFINSADJUSTERMGR
  2
AcRfInsAdjusterMgr
  3
AcMeServices
 90
        0
280
     0
281
     0
  0
CLASS
  1
ACGREFACADMASTER
  2
AcGrefacadMaster
  3
AcGrefServices
 90
        0
280
     0
281
     0
  0
CLASS
  1
AMDTMENUSTATEMGR
  2
AmdtMenuStateMgr
  3
McadcomServices
 90
        0
280
     0
281
     0
  0
CLASS
  1
AMDTMCOMMENUSTATE
  2
AmdtMcomMenuState
  3
McadcomServices
 90
        0
280
     0
281
     0
  0
CLASS
  1
AMIMASTER
  2
AmiMaster
  3
AmiServices
 90
        0
280
     0
281
     0
  0
CLASS
  1
ASAPP
  2
AcAsAppObject
  3
AutoSurfServices
 90
        0
280
     0
281
     0
  0
CLASS
  1
IM_STATIC_MAN
  2
AcImStaticVarManager
  3
AcMeServices
 90
        0
280
     0
281
     0
  0
CLASS
  1
ACIMSTRSYSVAR
  2
AcImStrSysVar
  3
AcMeServices
 90
        0
280
     0
281
     0
  0
CLASS
  1
ACIMDBLSTATICVAR
  2
AcImDblStaticVar
  3
AcMeServices
 90
        0
280
     0
281
     0
  0
CLASS
  1
ACIMSTRSTATICVAR
  2
AcImStrStaticVar
  3
AcMeServices
 90
        0
280
     0
281
     0
  0
CLASS
  1
ACIMINTSTATICVAR
  2
AcImIntStaticVar
  3
AcMeServices
 90
        0
280
     0
281
     0
  0
CLASS
  1
ACASGREFMASTER
  2
AcAsGrefMaster
  3
AutoSurfResolverServices
 90
        0
280
     0
281
     0
  0
CLASS
  1
ACADGREFMODULE
  2
AcAdGrefModule
  3
AdGrefServices
 90
        0
280
     0
281
     0
  0
CLASS
  1
AMDTMAPISURFMOUDULE
  2
AmdtMApiSurfModule
  3
MApiSurfServices
 90
        0
280
     0
281
     0
  0
CLASS
  1
MAPIAMMOUDLE
  2
MApiAmModule
  3
MApiAmServices
 90
        0
280
     0
281
     0
  0
CLASS
  1
AMDTADMENUSTATE
  2
AmdtAdMenuState
  3
DesignerServices
 90
        0
280
     0
281
     0
  0
CLASS
  1
ADAPPL
  2
AcAdAppl
  3
DesignerServices
 90
        0
280
     0
281
     0
  0
CLASS
  1
DEPMGR
  2
AcAdDepMgr
  3
DesignerServices
 90
        0
280
     0
281
     0
  0
CLASS
  1
PARAMMGR
  2
AcAdParamMgr
  3
DesignerServices
 90
        0
280
     0
281
     0
  0
CLASS
  1
PARAMSCOPE
  2
AcAdParamScope
  3
DesignerServices
 90
        0
280
     0
281
     0
  0
CLASS
  1
NAMEDAPPL
  2
AcAdNamedAppl
  3
DesignerServices
 90
        0
280
     0
281
     0
  0
CLASS
  1
AMDTDMMENUSTATE
  2
AmdtDmMenuState
  3
AcMechDwgViewMgmt
 90
        0
280
     0
281
     0
  0
CLASS
  1
MAPIADMODULE
  2
MApiAdModule
  3
MApiAdServices
 90
        0
280
     0
281
     0
  0
CLASS
  1
AMDTAMMENUSTATE
  2
AmdtAmMenuState
  3
DesignerAssemblies
 90
        0
280
     0
281
     0
  0
CLASS
  1
ACAMPROJECT
  2
AcAmProject
  3
DesignerAssemblies
 90
        0
280
     0
281
     0
  0
CLASS
  1
ACAMGRCOMPDEF
  2
AcAmGrCompDef
  3
DesignerAssemblies
 90
        0
280
     0
281
     0
  0
CLASS
  1
ACCMCONTEXT
  2
AcCmContext
  3
DesignerAssemblies
 90
        0
280
     0
281
     0
  0
CLASS
  1
ACAMCOMPDEF
  2
AcAmCompDef
  3
DesignerAssemblies
 90
        0
280
     0
281
     0
  0
CLASS
  1
ACAMCOMPDEFMGR
  2
AcAmCompDefMgr
  3
DesignerAssemblies
 90
        0
280
     0
281
     0
  0
CLASS
  1
AMCONTEXTMGR
  2
AcAmContextMgr
  3
DesignerAssemblies
 90
        0
280
     0
281
     0
  0
CLASS
  1
ACAMCONTEXTMODELER
  2
AcAmContextModeler
  3
DesignerAssemblies
 90
        0
280
     0
281
     0
  0
CLASS
  1
ACMDATADICTIONARY
  2
AcmDataDictionary
  3
"AcmSymBB|Product Description: AutoCAD Mechanical 2000|Company: Autodesk"
 90
        0
280
     0
281
     0
  0
CLASS
  1
ACMDATAENTRYBLOCK
  2
AcmDataEntryBlock
  3
"AcmSymBB|Product Description: AutoCAD Mechanical 2000|Company: Autodesk"
 90
        0
280
     0
281
     0
  0
CLASS
  1
CATALOGSTATE
  2
AcAmCatalogState
  3
DesignerAssemblies
 90
        0
280
     0
281
     0
  0
CLASS
  1
ACAMGRCOMPDEFSET
  2
AcAmGrCompDefSet
  3
DesignerAssemblies
 90
        0
280
     0
281
     0
  0
CLASS
  1
AMDTBROWSERDBTAB
  2
AmdtBrowserDbTab
  3
McadcomServices
 90
        0
280
     0
281
     0
  0
CLASS
  1
CBROWSERAPPOBJECT
  2
CBrowserAppObject
  3
McadcomServices
 90
        0
280
     0
281
     0
  0
CLASS
  1
DM_PLACEHOLDER
  2
AcDmSelsetPlaceholder
  3
AcMechDwgViewMgmt
 90
        0
280
     0
281
     0
  0
CLASS
  1
ACMSTANDARDANSI
  2
AcmStandardANSI
  3
"Amdt_StdImp|Product Description: AutoCAD Mechanical 2000|Company: Autodesk"
 90
        0
280
     0
281
     0
  0
CLASS
  1
AMGOBJPROPCFG
  2
AmgObjPropCfg
  3
"AmgLay|Product Description: AutoCAD Mechanical 2000|Company: Autodesk"
 90
        1
280
     0
281
     0
  0
CLASS
  1
ACMSURFSTANDARDANSI
  2
AcmSurfTextStdANSI
  3
"Amdt_StdImp|Product Description: AutoCAD Mechanical 2000|Company: Autodesk"
 90
        0
280
     0
281
     0
  0
CLASS
  1
ACMFCFSTANDARDANSI
  2
AcmFCFStdANSI
  3
"Amdt_StdImp|Product Description: AutoCAD Mechanical 2000|Company: Autodesk"
 90
        0
280
     0
281
     0
  0
CLASS
  1
ACMWELDSTANDARDANSI
  2
AcmWeldingStdANSI
  3
"Amdt_StdImp|Product Description: AutoCAD Mechanical 2000|Company: Autodesk"
 90
        0
280
     0
281
     0
  0
CLASS
  1
ACMIDSTANDARDANSI
  2
AcmIdStdANSI
  3
"Amdt_StdImp|Product Description: AutoCAD Mechanical 2000|Company: Autodesk"
 90
        0
280
     0
281
     0
  0
CLASS
  1
ACMDATUMSTANDARDANSI
  2
AcmDatumStdANSI
  3
"Amdt_StdImp|Product Description: AutoCAD Mechanical 2000|Company: Autodesk"
 90
        0
280
     0
281
     0
  0
CLASS
  1
ACMBOMSTANDARDANSI
  2
AcmBOMStdANSI
  3
"Amdt_StdImp|Product Description: AutoCAD Mechanical 2000|Company: Autodesk"
 90
        0
280
     0
281
     0
  0
CLASS
  1
ACMDETAILSTANDARDANSI
  2
AmdtDetailSymStdANSI
  3
"Amdt_StdImp|Product Description: AutoCAD Mechanical 2000|Company: Autodesk"
 90
        0
280
     0
281
     0
  0
CLASS
  1
ACMSECTIONSTANDARDANSI
  2
AmdtSectionSymStdANSI
  3
"Amdt_StdImp|Product Description: AutoCAD Mechanical 2000|Company: Autodesk"
 90
        0
280
     0
281
     0
  0
CLASS
  1
ACMCENTERLINESTANDARDANSI
  2
AmdtCenterLineStdANSI
  3
"Amdt_StdImp|Product Description: AutoCAD Mechanical 2000|Company: Autodesk"
 90
        0
280
     0
281
     0
  0
CLASS
  1
ACMTHREADLINESTANDARDANSI
  2
AmdtThreadLineStdANSI
  3
"Amdt_StdImp|Product Description: AutoCAD Mechanical 2000|Company: Autodesk"
 90
        0
280
     0
281
     0
  0
CLASS
  1
ACMNOTESTANDARDANSI
  2
AmdtNoteStdANSI
  3
"Amdt_StdImp|Product Description: AutoCAD Mechanical 2000|Company: Autodesk"
 90
        0
280
     0
281
     0
  0
CLASS
  1
ACAMGLAYSTD
  2
AcAmgLayStd
  3
"AcAmgLayStd|Product Description: AutoCAD Mechanical 2000|Company: Autodesk"
 90
        0
280
     0
281
     0
  0
CLASS
  1
ACAMGDIMSTD
  2
AcAmgDimStd
  3
"AcAmgDimStd|Product Description: AutoCAD Mechanical 2000|Company: Autodesk"
 90
        0
280
     0
281
     0
  0
CLASS
  1
ACAMGHOLECHARTSTDANSI
  2
AcAmgHoleChartStdANSI
  3
ACMSYMBB_MODULE_NAME
 90
        0
280
     0
281
     0
  0
CLASS
  1
ACAMGTITLESTD
  2
AcAmgTitleStd
  3
"TITLEAPP"
 90
        0
280
     0
281
     0
  0
CLASS
  1
LAYER_INDEX
  2
AcDbLayerIndex
  3
AutoCAD 2000
 90
        0
280
     0
281
     0
  0
CLASS
  1
IDBUFFER
  2
AcDbIdBuffer
  3
AutoCAD 2000
 90
        0
280
     0
281
     0
  0
CLASS
  1
DICTIONARYVAR
  2
AcDbDictionaryVar
  3
AutoCAD 2000
 90
        0
280
     0
281
     0
  0
CLASS
  1
ACAMGFILTERDAT
  2
AcAmgFilterDat
  3
"AcadM|Product Description: AutoCAD Mechanical 2000|Company: Autodesk"
 90
        0
280
     0
281
     0
  0
CLASS
  1
AMDTFORMULAUPDATEDISPATCHER
  2
AmdtFormulaUpdateDispatcher
  3
AcMeServices
 90
        0
280
     0
281
     0
  0
ENDSEC
  0
SECTION
  2
TABLES
  0
TABLE
  2
VPORT
  5
42D
330
0
100
AcDbSymbolTable
 70
     5
  0
VPORT
  5
CD9
330
42D
100
AcDbSymbolTableRecord
100
AcDbViewportTableRecord
  2
*Active
 70
     0
 10
0.0
 20
0.0
 11
1.0
 21
1.0
 12
0.0
 22
0.0
 13
0.0
 23
0.0
 14
0.5
 24
0.5
 15
1.0
 25
1.0
 16
0.0
 26
0.0
 36
1.0
 17
113.7736169056603
 27
75.0
 37
0.0
 40
300.0644662059283
 41
1.516981132075471
 42
50.0
 43
0.0
 44
0.0
 50
0.0
 51
0.0
 71
     0
 72
   100
 73
     1
 74
     1
 75
     0
 76
     0
 77
     0
 78
     0
281
     0
 65
     0
110
0.0
120
0.0
130
0.0
111
1.0
121
0.0
131
0.0
112
0.0
122
1.0
132
0.0
 79
     0
146
0.0
  0
ENDTAB
  0
TABLE
  2
LTYPE
  5
42A
330
0
100
AcDbSymbolTable
 70
    18
  0
LTYPE
  5
438
330
42A
100
AcDbSymbolTableRecord
100
AcDbLinetypeTableRecord
  2
ByBlock
 70
     0
  3

 72
    65
 73
     0
 40
0.0
  0
LTYPE
  5
439
330
42A
100
AcDbSymbolTableRecord
100
AcDbLinetypeTableRecord
  2
ByLayer
 70
     0
  3

 72
    65
 73
     0
 40
0.0
  0
LTYPE
  5
43A
330
42A
100
AcDbSymbolTableRecord
100
AcDbLinetypeTableRecord
  2
CONTINUOUS
 70
     0
  3
Solid line
 72
    65
 73
     0
 40
0.0
  0
LTYPE
  5
448
330
42A
100
AcDbSymbolTableRecord
100
AcDbLinetypeTableRecord
  2
CENTER
 70
     0
  3
____ _ ____ _ ____ _ ____ _ ____ _ ____ _ ____
 72
    65
 73
     4
 40
2.0
 49
1.25
 74
     0
 49
-0.25
 74
     0
 49
0.25
 74
     0
 49
-0.25
 74
     0
  0
LTYPE
  5
792
330
42A
100
AcDbSymbolTableRecord
100
AcDbLinetypeTableRecord
  2
HIDDEN
 70
     0
  3
Hidden __ __ __ __ __ __ __ __ __ __ __ __ __ _
 72
    65
 73
     2
 40
0.375
 49
0.25
 74
     0
 49
-0.125
 74
     0
  0
LTYPE
  5
793
330
42A
100
AcDbSymbolTableRecord
100
AcDbLinetypeTableRecord
  2
PHANTOM2
 70
     0
  3
Phantom (.5x) ___ _ _ ___ _ _ ___ _ _ ___ _ _
 72
    65
 73
     6
 40
1.25
 49
0.625
 74
     0
 49
-0.125
 74
     0
 49
0.125
 74
     0
 49
-0.125
 74
     0
 49
0.125
 74
     0
 49
-0.125
 74
     0
  0
LTYPE
  5
7F5
330
42A
100
AcDbSymbolTableRecord
100
AcDbLinetypeTableRecord
  2
ASULTYPE
 70
     0
  3
実線
 72
    65
 73
     2
 40
3.0
 49
2.5
 74
     0
 49
0.5
 74
     0
  0
LTYPE
  5
7F6
330
42A
100
AcDbSymbolTableRecord
100
AcDbLinetypeTableRecord
  2
ASVLTYPE
 70
     0
  3
__ __ __ __ __ __ __ __ __ __ __ __ __ __ __ __ __ __ __ __ __
 72
    65
 73
     2
 40
0.75
 49
0.5
 74
     0
 49
-0.25
 74
     0
  0
LTYPE
  5
83A
330
42A
100
AcDbSymbolTableRecord
100
AcDbLinetypeTableRecord
  2
AM_ISO02W050
 70
     0
  3
__ __ __ __ __ __ __ __ __ __ __ __ __ __ __
 72
    65
 73
     2
 40
7.5
 49
6.0
 74
     0
 49
-1.5
 74
     0
  0
LTYPE
  5
83B
330
42A
100
AcDbSymbolTableRecord
100
AcDbLinetypeTableRecord
  2
AM_ISO08W050
 70
     0
  3
____ . ____ . ____ . ____ . ____ . ____ . ____
 72
    65
 73
     4
 40
18.0
 49
12.0
 74
     0
 49
-1.5
 74
     0
 49
3.0
 74
     0
 49
-1.5
 74
     0
  0
LTYPE
  5
83C
330
42A
100
AcDbSymbolTableRecord
100
AcDbLinetypeTableRecord
  2
AM_ISO09W050
 70
     0
  3
_____ . . _____ . . _____ . . ____ .. ____
 72
    65
 73
     6
 40
22.5
 49
12.0
 74
     0
 49
-1.5
 74
     0
 49
3.0
 74
     0
 49
-1.5
 74
     0
 49
3.0
 74
     0
 49
-1.5
 74
     0
  0
LTYPE
  5
83D
330
42A
100
AcDbSymbolTableRecord
100
AcDbLinetypeTableRecord
  2
Amconstr
 70
     0
  3
_______________________
 72
    65
 73
     2
 40
9999.0
 49
9999.0
 74
     0
 49
0.0
 74
     0
  0
LTYPE
  5
83E
330
42A
100
AcDbSymbolTableRecord
100
AcDbLinetypeTableRecord
  2
AM_ISO08W050x2
 70
     0
  3
__ . __ . __ . __ . __ . __
 72
    65
 73
     4
 40
9.0
 49
6.0
 74
     0
 49
-0.75
 74
     0
 49
1.5
 74
     0
 49
-0.75
 74
     0
  0
LTYPE
  5
83F
330
42A
100
AcDbSymbolTableRecord
100
AcDbLinetypeTableRecord
  2
AM_ISO02W050x2
 70
     0
  3
 _ _ _ _ _ _ _ _ _ _ _ _
 72
    65
 73
     2
 40
3.75
 49
3.0
 74
     0
 49
-0.75
 74
     0
  0
LTYPE
  5
842
330
42A
100
AcDbSymbolTableRecord
100
AcDbLinetypeTableRecord
  2
Amzigzag
 70
     0
  3
/\/-/\/-/\/-/\/-/\/-/\/
 72
    65
 73
     2
 40
11.00009999999999
 49
0.0001
 74
     4
 75
   135
340
841
 46
0.04
 50
0.0
 44
0.0
 45
0.0
 49
-11.0
 74
     0
  0
LTYPE
  5
843
330
42A
100
AcDbSymbolTableRecord
100
AcDbLinetypeTableRecord
  2
CENTER2
 70
     0
  3
Center (.5x) ___ _ ___ _ ___ _ ___ _ ___ _ ___
 72
    65
 73
     4
 40
1.125
 49
0.75
 74
     0
 49
-0.125
 74
     0
 49
0.125
 74
     0
 49
-0.125
 74
     0
  0
LTYPE
  5
844
330
42A
100
AcDbSymbolTableRecord
100
AcDbLinetypeTableRecord
  2
HIDDEN2
 70
     0
  3
Hidden (.5x) _ _ _ _ _ _ _ _ _ _ _ _ _ _ _ _ _
 72
    65
 73
     2
 40
0.1875
 49
0.125
 74
     0
 49
-0.0625
 74
     0
  0
LTYPE
  5
845
330
42A
100
AcDbSymbolTableRecord
100
AcDbLinetypeTableRecord
  2
Amzigzag2
 70
     0
  3
/\/-/\/-/\/-/\/-/\/-/\/
 72
    65
 73
     2
 40
0.4401
 49
0.0001
 74
     4
 75
   135
340
841
 46
0.0016
 50
0.0
 44
0.0
 45
0.0
 49
-0.4400000000000001
 74
     0
  0
LTYPE
  5
853
330
42A
100
AcDbSymbolTableRecord
100
AcDbLinetypeTableRecord
  2
ACANSTGB
 70
     0
  3
__ . . __ . .
 72
    65
 73
     6
 40
0.35433070866
 49
0.15748031496
 74
     0
 49
-0.03937007874
 74
     0
 49
0.03937007874
 74
     0
 49
-0.03937007874
 74
     0
 49
0.03937007874
 74
     0
 49
-0.03937007874
 74
     0
  0
LTYPE
  5
854
330
42A
100
AcDbSymbolTableRecord
100
AcDbLinetypeTableRecord
  2
ACANSTGL
 70
     0
  3
_ _ _ _ _
 72
    65
 73
     2
 40
0.11811023622
 49
0.07874015748
 74
     0
 49
-0.03937007874
 74
     0
  0
ENDTAB
  0
TABLE
  2
LAYER
  5
427
330
0
100
AcDbSymbolTable
 70
     5
  0
LAYER
  5
435
330
427
100
AcDbSymbolTableRecord
100
AcDbLayerTableRecord
  2
0
 70
     0
 62
     7
  6
CONTINUOUS
370
    -3
390
434
  0
LAYER
  5
449
330
427
100
AcDbSymbolTableRecord
100
AcDbLayerTableRecord
  2
1
 70
     0
 62
     1
  6
CENTER
370
    -3
390
434
  0
LAYER
  5
44A
330
427
100
AcDbSymbolTableRecord
100
AcDbLayerTableRecord
  2
DEFPOINTS
 70
     0
 62
     7
  6
CONTINUOUS
290
     0
370
    -3
390
434
  0
LAYER
  5
8AE
330
427
100
AcDbSymbolTableRecord
100
AcDbLayerTableRecord
  2
3
 70
     0
 62
     3
  6
CONTINUOUS
370
    -3
390
434
  0
LAYER
  5
8AF
330
427
100
AcDbSymbolTableRecord
100
AcDbLayerTableRecord
  2
2
 70
     0
 62
     2
  6
HIDDEN
370
    -3
390
434
  0
ENDTAB
  0
TABLE
  2
STYLE
  5
428
330
0
100
AcDbSymbolTable
 70
     6
  0
STYLE
  5
436
330
428
100
AcDbSymbolTableRecord
100
AcDbTextStyleTableRecord
  2
STANDARD
 70
     0
 40
0.0
 41
1.0
 50
0.0
 71
     0
 42
2.5
  3
txt
  4

  0
STYLE
  5
44B
330
428
100
AcDbSymbolTableRecord
100
AcDbTextStyleTableRecord
  2
BIGFONT
 70
     0
 40
10.0
 41
0.8
 50
0.0
 71
     0
 42
10.0
  3
txt.shx
  4
bigfont
  0
STYLE
  5
841
330
428
100
AcDbSymbolTableRecord
100
AcDbTextStyleTableRecord
  2

 70
     1
 40
0.0
 41
1.0
 50
0.0
 71
     0
 42
2.5
  3
ltypeshp.shx
  4

  0
STYLE
  5
846
330
428
100
AcDbSymbolTableRecord
100
AcDbTextStyleTableRecord
  2
ACANSTS
 70
     0
 40
1.0
 41
1.0
 50
0.0
 71
     0
 42
2.5
  3
romans.shx
  4
extfont.shx
  0
STYLE
  5
852
330
428
100
AcDbSymbolTableRecord
100
AcDbTextStyleTableRecord
  2
ACANSGDT
 70
     0
 40
0.0
 41
1.0
 50
0.0
 71
     0
 42
2.5
  3
amgdtans.shx
  4

  0
STYLE
  5
8B0
330
428
100
AcDbSymbolTableRecord
100
AcDbTextStyleTableRecord
  2
04500
 70
     0
 40
0.0
 41
0.45
 50
0.0
 71
     0
 42
4.000000000000048
  3
ROMANS
  4
EXTFONT
  0
ENDTAB
  0
TABLE
  2
VIEW
  5
42B
330
0
100
AcDbSymbolTable
 70
     0
  0
ENDTAB
  0
TABLE
  2
UCS
  5
42C
330
0
100
AcDbSymbolTable
 70
     0
  0
ENDTAB
  0
TABLE
  2
APPID
  5
42E
330
0
100
AcDbSymbolTable
 70
    13
  0
APPID
  5
437
330
42E
100
AcDbSymbolTableRecord
100
AcDbRegAppTableRecord
  2
ACAD
 70
     0
  0
APPID
  5
770
330
42E
100
AcDbSymbolTableRecord
100
AcDbRegAppTableRecord
  2
GENIUS_GENDIM_13
 70
     0
  0
APPID
  5
771
330
42E
100
AcDbSymbolTableRecord
100
AcDbRegAppTableRecord
  2
GENIUS_GENDTOL_13
 70
     0
  0
APPID
  5
772
330
42E
100
AcDbSymbolTableRecord
100
AcDbRegAppTableRecord
  2
GENIUS_GE3DTOL_13
 70
     0
  0
APPID
  5
775
330
42E
100
AcDbSymbolTableRecord
100
AcDbRegAppTableRecord
  2
MCAD_NO_VIS
 70
     0
  0
APPID
  5
776
330
42E
100
AcDbSymbolTableRecord
100
AcDbRegAppTableRecord
  2
ACAD_TEMP_GRAPHIC
 70
     0
  0
APPID
  5
7A8
330
42E
100
AcDbSymbolTableRecord
100
AcDbRegAppTableRecord
  2
AD_DRAW
 70
     0
  0
APPID
  5
7AB
330
42E
100
AcDbSymbolTableRecord
100
AcDbRegAppTableRecord
  2
ACATTRIBSERVICES
 70
     0
  0
APPID
  5
7F7
330
42E
100
AcDbSymbolTableRecord
100
AcDbRegAppTableRecord
  2
ASURF_PCURVE_APPNAME
 70
     0
  0
APPID
  5
7FC
330
42E
100
AcDbSymbolTableRecord
100
AcDbRegAppTableRecord
  2
AMG_3D2D_5.0
 70
     0
  0
APPID
  5
827
330
42E
100
AcDbSymbolTableRecord
100
AcDbRegAppTableRecord
  2
DESIGNERASSEMBLIES
 70
     0
  0
APPID
  5
82F
330
42E
100
AcDbSymbolTableRecord
100
AcDbRegAppTableRecord
  2
ACADM_DIM_EDIT
 70
     0
  0
APPID
  5
830
330
42E
100
AcDbSymbolTableRecord
100
AcDbRegAppTableRecord
  2
AMDT_DM_ADJ
 70
     0
  0
ENDTAB
  0
TABLE
  2
DIMSTYLE
  5
42F
330
0
100
AcDbSymbolTable
 70
     7
100
AcDbDimStyleTable
 71
     1
340
44C
  0
DIMSTYLE
105
44C
330
42F
100
AcDbSymbolTableRecord
100
AcDbDimStyleTableRecord
  2
STANDARD
 70
     0
274
     4
279
     2
284
     8
285
     8
286
     8
340
436
  0
DIMSTYLE
105
859
330
42F
100
AcDbSymbolTableRecord
100
AcDbDimStyleTableRecord
  2
AM_ANSI
 70
     0
  4
mm
 41
0.1
 42
0.05
 43
0.5
 44
0.1
 47
0.1
 48
0.1
 78
     7
 79
     2
140
0.12
141
0.0
146
0.71
147
0.06
176
   256
177
   256
178
     2
274
     4
284
     7
340
436
371
    -1
372
    -1
  0
DIMSTYLE
105
85A
330
42F
100
AcDbSymbolTableRecord
100
AcDbDimStyleTableRecord
  2
AM_ANSI$3
 70
     0
  4
mm
 41
0.1
 42
0.05
 43
0.5
 44
0.1
 47
0.1
 48
0.1
 78
     7
 79
     2
140
0.12
141
0.0
146
0.71
147
0.06
176
   256
177
   256
178
     2
274
     4
284
     7
288
     1
289
     0
340
436
371
    -1
372
    -1
  0
DIMSTYLE
105
85B
330
42F
100
AcDbSymbolTableRecord
100
AcDbDimStyleTableRecord
  2
AM_ANSI$4
 70
     0
  4
mm
 41
0.1
 42
0.05
 43
0.5
 44
0.1
 47
0.1
 48
0.1
 78
     7
 79
     2
140
0.12
141
0.0
146
0.71
147
0.06
176
   256
177
   256
178
     2
274
     4
284
     7
288
     1
289
     0
340
436
371
    -1
372
    -1
  0
DIMSTYLE
105
85C
330
42F
100
AcDbSymbolTableRecord
100
AcDbDimStyleTableRecord
  2
AM_ANSI$7
 70
     0
  4
mm
 41
0.1
 42
0.05
 43
0.5
 44
0.1
 47
0.1
 48
0.1
 78
     7
 79
     2
140
0.24
141
0.0
146
0.71
147
0.06
176
   256
177
   256
178
     2
274
     4
284
     7
340
436
371
    -1
372
    -1
  0
DIMSTYLE
105
85D
330
42F
100
AcDbSymbolTableRecord
100
AcDbDimStyleTableRecord
  2
AM_ANSI$SF
 70
     0
  4
mm
 41
0.1
 42
0.05
 43
0.5
 44
0.1
 47
0.1
 48
0.1
 75
     1
 76
     1
 78
     7
 79
     2
140
0.12
141
0.0
146
0.71
147
0.06
176
   256
177
   256
178
     2
274
     4
284
     7
340
436
371
    -1
372
    -1
  0
DIMSTYLE
105
862
330
42F
100
AcDbSymbolTableRecord
100
AcDbDimStyleTableRecord
  2
AM_ANSI$SH
 70
     0
  4
mm
 41
0.1
 42
0.05
 43
0.5
 44
0.1
 47
0.1
 48
0.1
 75
     1
 76
     1
 78
     7
 79
     2
140
0.12
141
0.0
146
0.71
147
0.06
173
     1
176
   256
177
   256
178
     2
274
     4
284
     7
340
436
343
85E
371
    -1
372
    -1
  0
ENDTAB
  0
TABLE
  2
BLOCK_RECORD
  5
426
330
0
100
AcDbSymbolTable
 70
     6
  0
BLOCK_RECORD
  5
443
102
{ACAD_XDICTIONARY
360
866
102
}
330
426
100
AcDbSymbolTableRecord
100
AcDbBlockTableRecord
  2
*Model_Space
340
446
  0
BLOCK_RECORD
  5
43F
330
426
100
AcDbSymbolTableRecord
100
AcDbBlockTableRecord
  2
*Paper_Space
340
442
  0
BLOCK_RECORD
  5
44F
330
426
100
AcDbSymbolTableRecord
100
AcDbBlockTableRecord
  2
$MODEL_SPACE
340
0
  0
BLOCK_RECORD
  5
452
330
426
100
AcDbSymbolTableRecord
100
AcDbBlockTableRecord
  2
$PAPER_SPACE
340
0
  0
BLOCK_RECORD
  5
455
330
426
100
AcDbSymbolTableRecord
100
AcDbBlockTableRecord
  2
A$C0C13436D
340
0
  0
BLOCK_RECORD
  5
81E
330
426
100
AcDbSymbolTableRecord
100
AcDbBlockTableRecord
  2
*U3
340
0
  0
BLOCK_RECORD
  5
85E
330
426
100
AcDbSymbolTableRecord
100
AcDbBlockTableRecord
  2
GENAXEH
340
0
  0
ENDTAB
  0
ENDSEC
  0
SECTION
  2
BLOCKS
  0
BLOCK
  5
444
330
443
100
AcDbEntity
  8
0
100
AcDbBlockBegin
  2
*Model_Space
 70
     0
 10
0.0
 20
0.0
 30
0.0
  3
*Model_Space
  1

  0
ENDBLK
  5
445
330
443
100
AcDbEntity
  8
0
100
AcDbBlockEnd
  0
BLOCK
  5
440
330
43F
100
AcDbEntity
 67
     1
  8
0
100
AcDbBlockBegin
  2
*Paper_Space
 70
     0
 10
0.0
 20
0.0
 30
0.0
  3
*Paper_Space
  1

  0
ENDBLK
  5
441
330
43F
100
AcDbEntity
 67
     1
  8
0
100
AcDbBlockEnd
  0
BLOCK
  5
450
330
44F
100
AcDbEntity
  8
0
100
AcDbBlockBegin
  2
$MODEL_SPACE
 70
     0
 10
0.0
 20
0.0
 30
0.0
  3
$MODEL_SPACE
  1

  0
ENDBLK
  5
451
330
44F
100
AcDbEntity
  8
0
100
AcDbBlockEnd
  0
BLOCK
  5
453
330
452
100
AcDbEntity
  8
0
100
AcDbBlockBegin
  2
$PAPER_SPACE
 70
     0
 10
0.0
 20
0.0
 30
0.0
  3
$PAPER_SPACE
  1

  0
ENDBLK
  5
454
330
452
100
AcDbEntity
  8
0
100
AcDbBlockEnd
  0
BLOCK
  5
456
330
455
100
AcDbEntity
  8
0
100
AcDbBlockBegin
  2
A$C0C13436D
 70
     0
 10
0.0
 20
0.0
 30
0.0
  3
A$C0C13436D
  1

  0
ARC
  5
457
330
455
100
AcDbEntity
  8
0
100
AcDbCircle
 10
55.0
 20
38.004234
 30
0.0
 40
1.0
100
AcDbArc
 50
180.0
 51
285.0428009999999
  0
LINE
  5
458
330
455
100
AcDbEntity
  8
0
100
AcDbLine
 10
54.73933399999999
 20
55.69962
 30
0.0
 11
102.7393339999999
 21
68.65961999999999
 31
0.0
  0
LINE
  5
459
330
455
100
AcDbEntity
  8
1
100
AcDbLine
 10
8.0
 20
70.5
 30
0.0
 11
8.0
 21
0.0
 31
0.0
  0
LINE
  5
45A
330
455
100
AcDbEntity
  8
0
100
AcDbLine
 10
14.0
 20
33.5
 30
0.0
 11
14.0
 21
37.26708099999999
 31
0.0
  0
LINE
  5
45B
330
455
100
AcDbEntity
  8
0
100
AcDbLine
 10
2.0
 20
33.5
 30
0.0
 11
2.0
 21
37.26708099999999
 31
0.0
  0
LINE
  5
45C
330
455
100
AcDbEntity
  8
0
100
AcDbLine
 10
5.0
 20
33.5
 30
0.0
 11
5.0
 21
4.0
 31
0.0
  0
LINE
  5
45D
330
455
100
AcDbEntity
  8
0
100
AcDbLine
 10
5.5
 20
3.5
 30
0.0
 11
5.5
 21
32.5
 31
0.0
  0
LINE
  5
45E
330
455
100
AcDbEntity
  8
0
100
AcDbLine
 10
10.5
 20
3.5
 30
0.0
 11
10.5
 21
32.5
 31
0.0
  0
LINE
  5
45F
330
455
100
AcDbEntity
  8
0
100
AcDbLine
 10
11.0
 20
33.5
 30
0.0
 11
11.0
 21
4.0
 31
0.0
  0
LINE
  5
460
330
455
100
AcDbEntity
  8
0
100
AcDbLine
 10
10.5
 20
3.5
 30
0.0
 11
8.0
 21
3.5
 31
0.0
  0
LINE
  5
461
330
455
100
AcDbEntity
  8
0
100
AcDbLine
 10
11.0
 20
4.0
 30
0.0
 11
8.0
 21
4.0
 31
0.0
  0
LINE
  5
462
330
455
100
AcDbEntity
  8
0
100
AcDbLine
 10
5.5
 20
3.5
 30
0.0
 11
8.0
 21
3.5
 31
0.0
  0
LINE
  5
463
330
455
100
AcDbEntity
  8
0
100
AcDbLine
 10
5.0
 20
4.0
 30
0.0
 11
8.0
 21
4.0
 31
0.0
  0
LINE
  5
464
330
455
100
AcDbEntity
  8
0
100
AcDbLine
 10
5.0
 20
4.0
 30
0.0
 11
5.5
 21
3.5
 31
0.0
  0
LINE
  5
465
330
455
100
AcDbEntity
  8
0
100
AcDbLine
 10
11.0
 20
4.0
 30
0.0
 11
10.5
 21
3.5
 31
0.0
  0
LINE
  5
466
330
455
100
AcDbEntity
  8
0
100
AcDbLine
 10
11.0
 20
32.5
 30
0.0
 11
8.0
 21
32.5
 31
0.0
  0
LINE
  5
467
330
455
100
AcDbEntity
  8
0
100
AcDbLine
 10
8.0
 20
33.5
 30
0.0
 11
14.0
 21
33.5
 31
0.0
  0
LINE
  5
468
330
455
100
AcDbEntity
  8
0
100
AcDbLine
 10
8.0
 20
33.5
 30
0.0
 11
2.0
 21
33.5
 31
0.0
  0
LINE
  5
469
330
455
100
AcDbEntity
  8
0
100
AcDbLine
 10
5.0
 20
32.5
 30
0.0
 11
8.0
 21
32.5
 31
0.0
  0
LINE
  5
46A
330
455
100
AcDbEntity
  8
0
100
AcDbLine
 10
16.0
 20
38.5
 30
0.0
 11
16.0
 21
57.5
 31
0.0
  0
ARC
  5
46B
330
455
100
AcDbEntity
  8
0
100
AcDbCircle
 10
8.0
 20
65.0
 30
0.0
 40
8.5
100
AcDbArc
 50
241.9275129999999
 51
298.072487
  0
POLYLINE
  5
46C
330
455
100
AcDbEntity
  8
0
100
AcDb3dPolyline
 66
     1
 10
0.0
 20
0.0
 30
0.0
 70
     8
  0
VERTEX
  5
46D
330
46C
100
AcDbEntity
  8
0
100
AcDbVertex
100
AcDb3dPolylineVertex
 10
0.267585
 20
58.0129
 30
0.0
 70
    32
  0
VERTEX
  5
46E
330
46C
100
AcDbEntity
  8
0
100
AcDbVertex
100
AcDb3dPolylineVertex
 10
0.212081
 20
57.9575
 30
0.0
 70
    32
  0
VERTEX
  5
46F
330
46C
100
AcDbEntity
  8
0
100
AcDbVertex
100
AcDb3dPolylineVertex
 10
0.162945
 20
57.9016
 30
0.0
 70
    32
  0
VERTEX
  5
470
330
46C
100
AcDbEntity
  8
0
100
AcDbVertex
100
AcDb3dPolylineVertex
 10
0.120218
 20
57.84539999999999
 30
0.0
 70
    32
  0
VERTEX
  5
471
330
46C
100
AcDbEntity
  8
0
100
AcDbVertex
100
AcDb3dPolylineVertex
 10
0.0839342
 20
57.789
 30
0.0
 70
    32
  0
VERTEX
  5
472
330
46C
100
AcDbEntity
  8
0
100
AcDbVertex
100
AcDb3dPolylineVertex
 10
0.0541232
 20
57.7323
 30
0.0
 70
    32
  0
VERTEX
  5
473
330
46C
100
AcDbEntity
  8
0
100
AcDbVertex
100
AcDb3dPolylineVertex
 10
0.0308095
 20
57.6754
 30
0.0
 70
    32
  0
VERTEX
  5
474
330
46C
100
AcDbEntity
  8
0
100
AcDbVertex
100
AcDb3dPolylineVertex
 10
0.0140121
 20
57.61829999999999
 30
0.0
 70
    32
  0
VERTEX
  5
475
330
46C
100
AcDbEntity
  8
0
100
AcDbVertex
100
AcDb3dPolylineVertex
 10
0.00374481
 20
57.5612
 30
0.0
 70
    32
  0
VERTEX
  5
476
330
46C
100
AcDbEntity
  8
0
100
AcDbVertex
100
AcDb3dPolylineVertex
 10
0.0000160367
 20
57.50399999999999
 30
0.0
 70
    32
  0
VERTEX
  5
477
330
46C
100
AcDbEntity
  8
0
100
AcDbVertex
100
AcDb3dPolylineVertex
 10
0.00282881
 20
57.4468
 30
0.0
 70
    32
  0
VERTEX
  5
478
330
46C
100
AcDbEntity
  8
0
100
AcDbVertex
100
AcDb3dPolylineVertex
 10
0.0121808
 20
57.3897
 30
0.0
 70
    32
  0
VERTEX
  5
479
330
46C
100
AcDbEntity
  8
0
100
AcDbVertex
100
AcDb3dPolylineVertex
 10
0.0280644
 20
57.3326
 30
0.0
 70
    32
  0
VERTEX
  5
47A
330
46C
100
AcDbEntity
  8
0
100
AcDbVertex
100
AcDb3dPolylineVertex
 10
0.0504667
 20
57.2757
 30
0.0
 70
    32
  0
VERTEX
  5
47B
330
46C
100
AcDbEntity
  8
0
100
AcDbVertex
100
AcDb3dPolylineVertex
 10
0.0793692
 20
57.219
 30
0.0
 70
    32
  0
VERTEX
  5
47C
330
46C
100
AcDbEntity
  8
0
100
AcDbVertex
100
AcDb3dPolylineVertex
 10
0.114748
 20
57.1625
 30
0.0
 70
    32
  0
VERTEX
  5
47D
330
46C
100
AcDbEntity
  8
0
100
AcDbVertex
100
AcDb3dPolylineVertex
 10
0.156575
 20
57.1062
 30
0.0
 70
    32
  0
VERTEX
  5
47E
330
46C
100
AcDbEntity
  8
0
100
AcDbVertex
100
AcDb3dPolylineVertex
 10
0.204816
 20
57.0503
 30
0.0
 70
    32
  0
VERTEX
  5
47F
330
46C
100
AcDbEntity
  8
0
100
AcDbVertex
100
AcDb3dPolylineVertex
 10
0.25943
 20
56.9948
 30
0.0
 70
    32
  0
VERTEX
  5
480
330
46C
100
AcDbEntity
  8
0
100
AcDbVertex
100
AcDb3dPolylineVertex
 10
0.320374
 20
56.9397
 30
0.0
 70
    32
  0
VERTEX
  5
481
330
46C
100
AcDbEntity
  8
0
100
AcDbVertex
100
AcDb3dPolylineVertex
 10
0.387598
 20
56.885
 30
0.0
 70
    32
  0
VERTEX
  5
482
330
46C
100
AcDbEntity
  8
0
100
AcDbVertex
100
AcDb3dPolylineVertex
 10
0.461046
 20
56.83089999999999
 30
0.0
 70
    32
  0
VERTEX
  5
483
330
46C
100
AcDbEntity
  8
0
100
AcDbVertex
100
AcDb3dPolylineVertex
 10
0.540659
 20
56.7772
 30
0.0
 70
    32
  0
VERTEX
  5
484
330
46C
100
AcDbEntity
  8
0
100
AcDbVertex
100
AcDb3dPolylineVertex
 10
0.626371
 20
56.7242
 30
0.0
 70
    32
  0
VERTEX
  5
485
330
46C
100
AcDbEntity
  8
0
100
AcDbVertex
100
AcDb3dPolylineVertex
 10
0.718112
 20
56.6718
 30
0.0
 70
    32
  0
VERTEX
  5
486
330
46C
100
AcDbEntity
  8
0
100
AcDbVertex
100
AcDb3dPolylineVertex
 10
0.8158079999999999
 20
56.6201
 30
0.0
 70
    32
  0
VERTEX
  5
487
330
46C
100
AcDbEntity
  8
0
100
AcDbVertex
100
AcDb3dPolylineVertex
 10
0.9193789999999999
 20
56.56909999999999
 30
0.0
 70
    32
  0
VERTEX
  5
488
330
46C
100
AcDbEntity
  8
0
100
AcDbVertex
100
AcDb3dPolylineVertex
 10
1.028739999999999
 20
56.5189
 30
0.0
 70
    32
  0
VERTEX
  5
489
330
46C
100
AcDbEntity
  8
0
100
AcDbVertex
100
AcDb3dPolylineVertex
 10
1.143799999999999
 20
56.4695
 30
0.0
 70
    32
  0
VERTEX
  5
48A
330
46C
100
AcDbEntity
  8
0
100
AcDbVertex
100
AcDb3dPolylineVertex
 10
1.264469999999999
 20
56.4209
 30
0.0
 70
    32
  0
VERTEX
  5
48B
330
46C
100
AcDbEntity
  8
0
100
AcDbVertex
100
AcDb3dPolylineVertex
 10
1.390639999999999
 20
56.37319999999999
 30
0.0
 70
    32
  0
VERTEX
  5
48C
330
46C
100
AcDbEntity
  8
0
100
AcDbVertex
100
AcDb3dPolylineVertex
 10
1.52222
 20
56.3264
 30
0.0
 70
    32
  0
VERTEX
  5
48D
330
46C
100
AcDbEntity
  8
0
100
AcDbVertex
100
AcDb3dPolylineVertex
 10
1.6591
 20
56.2806
 30
0.0
 70
    32
  0
VERTEX
  5
48E
330
46C
100
AcDbEntity
  8
0
100
AcDbVertex
100
AcDb3dPolylineVertex
 10
1.801159999999999
 20
56.2357
 30
0.0
 70
    32
  0
VERTEX
  5
48F
330
46C
100
AcDbEntity
  8
0
100
AcDbVertex
100
AcDb3dPolylineVertex
 10
1.94829
 20
56.19189999999999
 30
0.0
 70
    32
  0
VERTEX
  5
490
330
46C
100
AcDbEntity
  8
0
100
AcDbVertex
100
AcDb3dPolylineVertex
 10
2.100359999999999
 20
56.1492
 30
0.0
 70
    32
  0
VERTEX
  5
491
330
46C
100
AcDbEntity
  8
0
100
AcDbVertex
100
AcDb3dPolylineVertex
 10
2.25727
 20
56.10759999999999
 30
0.0
 70
    32
  0
VERTEX
  5
492
330
46C
100
AcDbEntity
  8
0
100
AcDbVertex
100
AcDb3dPolylineVertex
 10
2.41886
 20
56.0671
 30
0.0
 70
    32
  0
VERTEX
  5
493
330
46C
100
AcDbEntity
  8
0
100
AcDbVertex
100
AcDb3dPolylineVertex
 10
2.58502
 20
56.0278
 30
0.0
 70
    32
  0
VERTEX
  5
494
330
46C
100
AcDbEntity
  8
0
100
AcDbVertex
100
AcDb3dPolylineVertex
 10
2.755609999999999
 20
55.9897
 30
0.0
 70
    32
  0
VERTEX
  5
495
330
46C
100
AcDbEntity
  8
0
100
AcDbVertex
100
AcDb3dPolylineVertex
 10
2.93049
 20
55.9528
 30
0.0
 70
    32
  0
VERTEX
  5
496
330
46C
100
AcDbEntity
  8
0
100
AcDbVertex
100
AcDb3dPolylineVertex
 10
3.109509999999999
 20
55.9172
 30
0.0
 70
    32
  0
VERTEX
  5
497
330
46C
100
AcDbEntity
  8
0
100
AcDbVertex
100
AcDb3dPolylineVertex
 10
3.29254
 20
55.8829
 30
0.0
 70
    32
  0
VERTEX
  5
498
330
46C
100
AcDbEntity
  8
0
100
AcDbVertex
100
AcDb3dPolylineVertex
 10
3.479409999999999
 20
55.8499
 30
0.0
 70
    32
  0
VERTEX
  5
499
330
46C
100
AcDbEntity
  8
0
100
AcDbVertex
100
AcDb3dPolylineVertex
 10
3.669969999999999
 20
55.8183
 30
0.0
 70
    32
  0
VERTEX
  5
49A
330
46C
100
AcDbEntity
  8
0
100
AcDbVertex
100
AcDb3dPolylineVertex
 10
3.86408
 20
55.788
 30
0.0
 70
    32
  0
VERTEX
  5
49B
330
46C
100
AcDbEntity
  8
0
100
AcDbVertex
100
AcDb3dPolylineVertex
 10
4.061569999999999
 20
55.75919999999999
 30
0.0
 70
    32
  0
VERTEX
  5
49C
330
46C
100
AcDbEntity
  8
0
100
AcDbVertex
100
AcDb3dPolylineVertex
 10
4.26228
 20
55.7317
 30
0.0
 70
    32
  0
VERTEX
  5
49D
330
46C
100
AcDbEntity
  8
0
100
AcDbVertex
100
AcDb3dPolylineVertex
 10
4.46605
 20
55.7057
 30
0.0
 70
    32
  0
VERTEX
  5
49E
330
46C
100
AcDbEntity
  8
0
100
AcDbVertex
100
AcDb3dPolylineVertex
 10
4.672709999999999
 20
55.6812
 30
0.0
 70
    32
  0
VERTEX
  5
49F
330
46C
100
AcDbEntity
  8
0
100
AcDbVertex
100
AcDb3dPolylineVertex
 10
4.88208
 20
55.65809999999999
 30
0.0
 70
    32
  0
VERTEX
  5
4A0
330
46C
100
AcDbEntity
  8
0
100
AcDbVertex
100
AcDb3dPolylineVertex
 10
5.094009999999999
 20
55.6366
 30
0.0
 70
    32
  0
VERTEX
  5
4A1
330
46C
100
AcDbEntity
  8
0
100
AcDbVertex
100
AcDb3dPolylineVertex
 10
5.308309999999999
 20
55.61659999999999
 30
0.0
 70
    32
  0
VERTEX
  5
4A2
330
46C
100
AcDbEntity
  8
0
100
AcDbVertex
100
AcDb3dPolylineVertex
 10
5.52482
 20
55.5981
 30
0.0
 70
    32
  0
VERTEX
  5
4A3
330
46C
100
AcDbEntity
  8
0
100
AcDbVertex
100
AcDb3dPolylineVertex
 10
5.74335
 20
55.5812
 30
0.0
 70
    32
  0
VERTEX
  5
4A4
330
46C
100
AcDbEntity
  8
0
100
AcDbVertex
100
AcDb3dPolylineVertex
 10
5.963719999999999
 20
55.56589999999999
 30
0.0
 70
    32
  0
VERTEX
  5
4A5
330
46C
100
AcDbEntity
  8
0
100
AcDbVertex
100
AcDb3dPolylineVertex
 10
6.18576
 20
55.5521
 30
0.0
 70
    32
  0
VERTEX
  5
4A6
330
46C
100
AcDbEntity
  8
0
100
AcDbVertex
100
AcDb3dPolylineVertex
 10
6.409279999999999
 20
55.5399
 30
0.0
 70
    32
  0
VERTEX
  5
4A7
330
46C
100
AcDbEntity
  8
0
100
AcDbVertex
100
AcDb3dPolylineVertex
 10
6.6341
 20
55.5294
 30
0.0
 70
    32
  0
VERTEX
  5
4A8
330
46C
100
AcDbEntity
  8
0
100
AcDbVertex
100
AcDb3dPolylineVertex
 10
6.860039999999999
 20
55.5204
 30
0.0
 70
    32
  0
VERTEX
  5
4A9
330
46C
100
AcDbEntity
  8
0
100
AcDbVertex
100
AcDb3dPolylineVertex
 10
7.08691
 20
55.5131
 30
0.0
 70
    32
  0
VERTEX
  5
4AA
330
46C
100
AcDbEntity
  8
0
100
AcDbVertex
100
AcDb3dPolylineVertex
 10
7.31453
 20
55.5074
 30
0.0
 70
    32
  0
VERTEX
  5
4AB
330
46C
100
AcDbEntity
  8
0
100
AcDbVertex
100
AcDb3dPolylineVertex
 10
7.54271
 20
55.5033
 30
0.0
 70
    32
  0
VERTEX
  5
4AC
330
46C
100
AcDbEntity
  8
0
100
AcDbVertex
100
AcDb3dPolylineVertex
 10
7.77126
 20
55.5008
 30
0.0
 70
    32
  0
VERTEX
  5
4AD
330
46C
100
AcDbEntity
  8
0
100
AcDbVertex
100
AcDb3dPolylineVertex
 10
8.0
 20
55.5
 30
0.0
 70
    32
  0
VERTEX
  5
4AE
330
46C
100
AcDbEntity
  8
0
100
AcDbVertex
100
AcDb3dPolylineVertex
 10
8.22874
 20
55.5008
 30
0.0
 70
    32
  0
VERTEX
  5
4AF
330
46C
100
AcDbEntity
  8
0
100
AcDbVertex
100
AcDb3dPolylineVertex
 10
8.457289999999998
 20
55.5033
 30
0.0
 70
    32
  0
VERTEX
  5
4B0
330
46C
100
AcDbEntity
  8
0
100
AcDbVertex
100
AcDb3dPolylineVertex
 10
8.68547
 20
55.5074
 30
0.0
 70
    32
  0
VERTEX
  5
4B1
330
46C
100
AcDbEntity
  8
0
100
AcDbVertex
100
AcDb3dPolylineVertex
 10
8.913089999999998
 20
55.5131
 30
0.0
 70
    32
  0
VERTEX
  5
4B2
330
46C
100
AcDbEntity
  8
0
100
AcDbVertex
100
AcDb3dPolylineVertex
 10
9.13996
 20
55.5204
 30
0.0
 70
    32
  0
VERTEX
  5
4B3
330
46C
100
AcDbEntity
  8
0
100
AcDbVertex
100
AcDb3dPolylineVertex
 10
9.365899999999999
 20
55.5294
 30
0.0
 70
    32
  0
VERTEX
  5
4B4
330
46C
100
AcDbEntity
  8
0
100
AcDbVertex
100
AcDb3dPolylineVertex
 10
9.590719999999999
 20
55.5399
 30
0.0
 70
    32
  0
VERTEX
  5
4B5
330
46C
100
AcDbEntity
  8
0
100
AcDbVertex
100
AcDb3dPolylineVertex
 10
9.814239999999999
 20
55.5521
 30
0.0
 70
    32
  0
VERTEX
  5
4B6
330
46C
100
AcDbEntity
  8
0
100
AcDbVertex
100
AcDb3dPolylineVertex
 10
10.0363
 20
55.56589999999999
 30
0.0
 70
    32
  0
VERTEX
  5
4B7
330
46C
100
AcDbEntity
  8
0
100
AcDbVertex
100
AcDb3dPolylineVertex
 10
10.2567
 20
55.5812
 30
0.0
 70
    32
  0
VERTEX
  5
4B8
330
46C
100
AcDbEntity
  8
0
100
AcDbVertex
100
AcDb3dPolylineVertex
 10
10.4752
 20
55.5981
 30
0.0
 70
    32
  0
VERTEX
  5
4B9
330
46C
100
AcDbEntity
  8
0
100
AcDbVertex
100
AcDb3dPolylineVertex
 10
10.6917
 20
55.61659999999999
 30
0.0
 70
    32
  0
VERTEX
  5
4BA
330
46C
100
AcDbEntity
  8
0
100
AcDbVertex
100
AcDb3dPolylineVertex
 10
10.906
 20
55.6366
 30
0.0
 70
    32
  0
VERTEX
  5
4BB
330
46C
100
AcDbEntity
  8
0
100
AcDbVertex
100
AcDb3dPolylineVertex
 10
11.1179
 20
55.65809999999999
 30
0.0
 70
    32
  0
VERTEX
  5
4BC
330
46C
100
AcDbEntity
  8
0
100
AcDbVertex
100
AcDb3dPolylineVertex
 10
11.3273
 20
55.6812
 30
0.0
 70
    32
  0
VERTEX
  5
4BD
330
46C
100
AcDbEntity
  8
0
100
AcDbVertex
100
AcDb3dPolylineVertex
 10
11.53389999999999
 20
55.7057
 30
0.0
 70
    32
  0
VERTEX
  5
4BE
330
46C
100
AcDbEntity
  8
0
100
AcDbVertex
100
AcDb3dPolylineVertex
 10
11.73769999999999
 20
55.7317
 30
0.0
 70
    32
  0
VERTEX
  5
4BF
330
46C
100
AcDbEntity
  8
0
100
AcDbVertex
100
AcDb3dPolylineVertex
 10
11.9384
 20
55.75919999999999
 30
0.0
 70
    32
  0
VERTEX
  5
4C0
330
46C
100
AcDbEntity
  8
0
100
AcDbVertex
100
AcDb3dPolylineVertex
 10
12.13589999999999
 20
55.788
 30
0.0
 70
    32
  0
VERTEX
  5
4C1
330
46C
100
AcDbEntity
  8
0
100
AcDbVertex
100
AcDb3dPolylineVertex
 10
12.33
 20
55.8183
 30
0.0
 70
    32
  0
VERTEX
  5
4C2
330
46C
100
AcDbEntity
  8
0
100
AcDbVertex
100
AcDb3dPolylineVertex
 10
12.5206
 20
55.8499
 30
0.0
 70
    32
  0
VERTEX
  5
4C3
330
46C
100
AcDbEntity
  8
0
100
AcDbVertex
100
AcDb3dPolylineVertex
 10
12.7075
 20
55.8829
 30
0.0
 70
    32
  0
VERTEX
  5
4C4
330
46C
100
AcDbEntity
  8
0
100
AcDbVertex
100
AcDb3dPolylineVertex
 10
12.8905
 20
55.9172
 30
0.0
 70
    32
  0
VERTEX
  5
4C5
330
46C
100
AcDbEntity
  8
0
100
AcDbVertex
100
AcDb3dPolylineVertex
 10
13.0695
 20
55.9528
 30
0.0
 70
    32
  0
VERTEX
  5
4C6
330
46C
100
AcDbEntity
  8
0
100
AcDbVertex
100
AcDb3dPolylineVertex
 10
13.2444
 20
55.9897
 30
0.0
 70
    32
  0
VERTEX
  5
4C7
330
46C
100
AcDbEntity
  8
0
100
AcDbVertex
100
AcDb3dPolylineVertex
 10
13.41499999999999
 20
56.0278
 30
0.0
 70
    32
  0
VERTEX
  5
4C8
330
46C
100
AcDbEntity
  8
0
100
AcDbVertex
100
AcDb3dPolylineVertex
 10
13.58109999999999
 20
56.0671
 30
0.0
 70
    32
  0
VERTEX
  5
4C9
330
46C
100
AcDbEntity
  8
0
100
AcDbVertex
100
AcDb3dPolylineVertex
 10
13.7427
 20
56.10759999999999
 30
0.0
 70
    32
  0
VERTEX
  5
4CA
330
46C
100
AcDbEntity
  8
0
100
AcDbVertex
100
AcDb3dPolylineVertex
 10
13.8996
 20
56.1492
 30
0.0
 70
    32
  0
VERTEX
  5
4CB
330
46C
100
AcDbEntity
  8
0
100
AcDbVertex
100
AcDb3dPolylineVertex
 10
14.0517
 20
56.19189999999999
 30
0.0
 70
    32
  0
VERTEX
  5
4CC
330
46C
100
AcDbEntity
  8
0
100
AcDbVertex
100
AcDb3dPolylineVertex
 10
14.1988
 20
56.2357
 30
0.0
 70
    32
  0
VERTEX
  5
4CD
330
46C
100
AcDbEntity
  8
0
100
AcDbVertex
100
AcDb3dPolylineVertex
 10
14.3409
 20
56.2806
 30
0.0
 70
    32
  0
VERTEX
  5
4CE
330
46C
100
AcDbEntity
  8
0
100
AcDbVertex
100
AcDb3dPolylineVertex
 10
14.4778
 20
56.3264
 30
0.0
 70
    32
  0
VERTEX
  5
4CF
330
46C
100
AcDbEntity
  8
0
100
AcDbVertex
100
AcDb3dPolylineVertex
 10
14.6094
 20
56.37319999999999
 30
0.0
 70
    32
  0
VERTEX
  5
4D0
330
46C
100
AcDbEntity
  8
0
100
AcDbVertex
100
AcDb3dPolylineVertex
 10
14.7355
 20
56.4209
 30
0.0
 70
    32
  0
VERTEX
  5
4D1
330
46C
100
AcDbEntity
  8
0
100
AcDbVertex
100
AcDb3dPolylineVertex
 10
14.85619999999999
 20
56.4695
 30
0.0
 70
    32
  0
VERTEX
  5
4D2
330
46C
100
AcDbEntity
  8
0
100
AcDbVertex
100
AcDb3dPolylineVertex
 10
14.9713
 20
56.5189
 30
0.0
 70
    32
  0
VERTEX
  5
4D3
330
46C
100
AcDbEntity
  8
0
100
AcDbVertex
100
AcDb3dPolylineVertex
 10
15.0806
 20
56.56909999999999
 30
0.0
 70
    32
  0
VERTEX
  5
4D4
330
46C
100
AcDbEntity
  8
0
100
AcDbVertex
100
AcDb3dPolylineVertex
 10
15.1842
 20
56.6201
 30
0.0
 70
    32
  0
VERTEX
  5
4D5
330
46C
100
AcDbEntity
  8
0
100
AcDbVertex
100
AcDb3dPolylineVertex
 10
15.2819
 20
56.6718
 30
0.0
 70
    32
  0
VERTEX
  5
4D6
330
46C
100
AcDbEntity
  8
0
100
AcDbVertex
100
AcDb3dPolylineVertex
 10
15.3736
 20
56.7242
 30
0.0
 70
    32
  0
VERTEX
  5
4D7
330
46C
100
AcDbEntity
  8
0
100
AcDbVertex
100
AcDb3dPolylineVertex
 10
15.4593
 20
56.7772
 30
0.0
 70
    32
  0
VERTEX
  5
4D8
330
46C
100
AcDbEntity
  8
0
100
AcDbVertex
100
AcDb3dPolylineVertex
 10
15.539
 20
56.83089999999999
 30
0.0
 70
    32
  0
VERTEX
  5
4D9
330
46C
100
AcDbEntity
  8
0
100
AcDbVertex
100
AcDb3dPolylineVertex
 10
15.61239999999999
 20
56.885
 30
0.0
 70
    32
  0
VERTEX
  5
4DA
330
46C
100
AcDbEntity
  8
0
100
AcDbVertex
100
AcDb3dPolylineVertex
 10
15.6796
 20
56.9397
 30
0.0
 70
    32
  0
VERTEX
  5
4DB
330
46C
100
AcDbEntity
  8
0
100
AcDbVertex
100
AcDb3dPolylineVertex
 10
15.7406
 20
56.9948
 30
0.0
 70
    32
  0
VERTEX
  5
4DC
330
46C
100
AcDbEntity
  8
0
100
AcDbVertex
100
AcDb3dPolylineVertex
 10
15.7952
 20
57.0503
 30
0.0
 70
    32
  0
VERTEX
  5
4DD
330
46C
100
AcDbEntity
  8
0
100
AcDbVertex
100
AcDb3dPolylineVertex
 10
15.8434
 20
57.1062
 30
0.0
 70
    32
  0
VERTEX
  5
4DE
330
46C
100
AcDbEntity
  8
0
100
AcDbVertex
100
AcDb3dPolylineVertex
 10
15.8853
 20
57.1625
 30
0.0
 70
    32
  0
VERTEX
  5
4DF
330
46C
100
AcDbEntity
  8
0
100
AcDbVertex
100
AcDb3dPolylineVertex
 10
15.9206
 20
57.219
 30
0.0
 70
    32
  0
VERTEX
  5
4E0
330
46C
100
AcDbEntity
  8
0
100
AcDbVertex
100
AcDb3dPolylineVertex
 10
15.9495
 20
57.2757
 30
0.0
 70
    32
  0
VERTEX
  5
4E1
330
46C
100
AcDbEntity
  8
0
100
AcDbVertex
100
AcDb3dPolylineVertex
 10
15.9719
 20
57.3326
 30
0.0
 70
    32
  0
VERTEX
  5
4E2
330
46C
100
AcDbEntity
  8
0
100
AcDbVertex
100
AcDb3dPolylineVertex
 10
15.9878
 20
57.3897
 30
0.0
 70
    32
  0
VERTEX
  5
4E3
330
46C
100
AcDbEntity
  8
0
100
AcDbVertex
100
AcDb3dPolylineVertex
 10
15.9972
 20
57.4468
 30
0.0
 70
    32
  0
VERTEX
  5
4E4
330
46C
100
AcDbEntity
  8
0
100
AcDbVertex
100
AcDb3dPolylineVertex
 10
16.0
 20
57.50399999999999
 30
0.0
 70
    32
  0
VERTEX
  5
4E5
330
46C
100
AcDbEntity
  8
0
100
AcDbVertex
100
AcDb3dPolylineVertex
 10
15.9963
 20
57.5612
 30
0.0
 70
    32
  0
VERTEX
  5
4E6
330
46C
100
AcDbEntity
  8
0
100
AcDbVertex
100
AcDb3dPolylineVertex
 10
15.986
 20
57.61829999999999
 30
0.0
 70
    32
  0
VERTEX
  5
4E7
330
46C
100
AcDbEntity
  8
0
100
AcDbVertex
100
AcDb3dPolylineVertex
 10
15.9692
 20
57.6754
 30
0.0
 70
    32
  0
VERTEX
  5
4E8
330
46C
100
AcDbEntity
  8
0
100
AcDbVertex
100
AcDb3dPolylineVertex
 10
15.9459
 20
57.7323
 30
0.0
 70
    32
  0
VERTEX
  5
4E9
330
46C
100
AcDbEntity
  8
0
100
AcDbVertex
100
AcDb3dPolylineVertex
 10
15.9161
 20
57.789
 30
0.0
 70
    32
  0
VERTEX
  5
4EA
330
46C
100
AcDbEntity
  8
0
100
AcDbVertex
100
AcDb3dPolylineVertex
 10
15.87979999999999
 20
57.84539999999999
 30
0.0
 70
    32
  0
VERTEX
  5
4EB
330
46C
100
AcDbEntity
  8
0
100
AcDbVertex
100
AcDb3dPolylineVertex
 10
15.83709999999999
 20
57.9016
 30
0.0
 70
    32
  0
VERTEX
  5
4EC
330
46C
100
AcDbEntity
  8
0
100
AcDbVertex
100
AcDb3dPolylineVertex
 10
15.7879
 20
57.9575
 30
0.0
 70
    32
  0
VERTEX
  5
4ED
330
46C
100
AcDbEntity
  8
0
100
AcDbVertex
100
AcDb3dPolylineVertex
 10
15.7324
 20
58.0129
 30
0.0
 70
    32
  0
SEQEND
  5
4EE
330
46C
100
AcDbEntity
  8
0
  0
LINE
  5
4EF
330
455
100
AcDbEntity
  8
0
100
AcDbLine
 10
0.0
 20
38.5
 30
0.0
 11
0.0
 21
57.5
 31
0.0
  0
POLYLINE
  5
4F0
330
455
100
AcDbEntity
  8
0
100
AcDb3dPolyline
 66
     1
 10
0.0
 20
0.0
 30
0.0
 70
     8
  0
VERTEX
  5
4F1
330
4F0
100
AcDbEntity
  8
0
100
AcDbVertex
100
AcDb3dPolylineVertex
 10
0.0
 20
38.5
 30
0.0
 70
    32
  0
VERTEX
  5
4F2
330
4F0
100
AcDbEntity
  8
0
100
AcDbVertex
100
AcDb3dPolylineVertex
 10
0.00240945
 20
38.4543
 30
0.0
 70
    32
  0
VERTEX
  5
4F3
330
4F0
100
AcDbEntity
  8
0
100
AcDbVertex
100
AcDb3dPolylineVertex
 10
0.00963635
 20
38.40849999999999
 30
0.0
 70
    32
  0
VERTEX
  5
4F4
330
4F0
100
AcDbEntity
  8
0
100
AcDbVertex
100
AcDb3dPolylineVertex
 10
0.0216763
 20
38.3629
 30
0.0
 70
    32
  0
VERTEX
  5
4F5
330
4F0
100
AcDbEntity
  8
0
100
AcDbVertex
100
AcDb3dPolylineVertex
 10
0.0385222
 20
38.3173
 30
0.0
 70
    32
  0
VERTEX
  5
4F6
330
4F0
100
AcDbEntity
  8
0
100
AcDbVertex
100
AcDb3dPolylineVertex
 10
0.0601637
 20
38.2718
 30
0.0
 70
    32
  0
VERTEX
  5
4F7
330
4F0
100
AcDbEntity
  8
0
100
AcDbVertex
100
AcDb3dPolylineVertex
 10
0.0865879
 20
38.2265
 30
0.0
 70
    32
  0
VERTEX
  5
4F8
330
4F0
100
AcDbEntity
  8
0
100
AcDbVertex
100
AcDb3dPolylineVertex
 10
0.117779
 20
38.1813
 30
0.0
 70
    32
  0
VERTEX
  5
4F9
330
4F0
100
AcDbEntity
  8
0
100
AcDbVertex
100
AcDb3dPolylineVertex
 10
0.153718
 20
38.1364
 30
0.0
 70
    32
  0
VERTEX
  5
4FA
330
4F0
100
AcDbEntity
  8
0
100
AcDbVertex
100
AcDb3dPolylineVertex
 10
0.194383
 20
38.0916
 30
0.0
 70
    32
  0
VERTEX
  5
4FB
330
4F0
100
AcDbEntity
  8
0
100
AcDbVertex
100
AcDb3dPolylineVertex
 10
0.23975
 20
38.0471
 30
0.0
 70
    32
  0
VERTEX
  5
4FC
330
4F0
100
AcDbEntity
  8
0
100
AcDbVertex
100
AcDb3dPolylineVertex
 10
0.2897909999999999
 20
38.0028
 30
0.0
 70
    32
  0
VERTEX
  5
4FD
330
4F0
100
AcDbEntity
  8
0
100
AcDbVertex
100
AcDb3dPolylineVertex
 10
0.344477
 20
37.95889999999999
 30
0.0
 70
    32
  0
VERTEX
  5
4FE
330
4F0
100
AcDbEntity
  8
0
100
AcDbVertex
100
AcDb3dPolylineVertex
 10
0.403775
 20
37.9153
 30
0.0
 70
    32
  0
VERTEX
  5
4FF
330
4F0
100
AcDbEntity
  8
0
100
AcDbVertex
100
AcDb3dPolylineVertex
 10
0.4676470000000001
 20
37.872
 30
0.0
 70
    32
  0
VERTEX
  5
500
330
4F0
100
AcDbEntity
  8
0
100
AcDbVertex
100
AcDb3dPolylineVertex
 10
0.5360580000000001
 20
37.8292
 30
0.0
 70
    32
  0
VERTEX
  5
501
330
4F0
100
AcDbEntity
  8
0
100
AcDbVertex
100
AcDb3dPolylineVertex
 10
0.6089640000000001
 20
37.7867
 30
0.0
 70
    32
  0
VERTEX
  5
502
330
4F0
100
AcDbEntity
  8
0
100
AcDbVertex
100
AcDb3dPolylineVertex
 10
0.686322
 20
37.74459999999999
 30
0.0
 70
    32
  0
VERTEX
  5
503
330
4F0
100
AcDbEntity
  8
0
100
AcDbVertex
100
AcDb3dPolylineVertex
 10
0.768086
 20
37.703
 30
0.0
 70
    32
  0
VERTEX
  5
504
330
4F0
100
AcDbEntity
  8
0
100
AcDbVertex
100
AcDb3dPolylineVertex
 10
0.8542059999999999
 20
37.6619
 30
0.0
 70
    32
  0
VERTEX
  5
505
330
4F0
100
AcDbEntity
  8
0
100
AcDbVertex
100
AcDb3dPolylineVertex
 10
0.9446299999999999
 20
37.62129999999999
 30
0.0
 70
    32
  0
VERTEX
  5
506
330
4F0
100
AcDbEntity
  8
0
100
AcDbVertex
100
AcDb3dPolylineVertex
 10
1.039299999999999
 20
37.5812
 30
0.0
 70
    32
  0
VERTEX
  5
507
330
4F0
100
AcDbEntity
  8
0
100
AcDbVertex
100
AcDb3dPolylineVertex
 10
1.13817
 20
37.5417
 30
0.0
 70
    32
  0
VERTEX
  5
508
330
4F0
100
AcDbEntity
  8
0
100
AcDbVertex
100
AcDb3dPolylineVertex
 10
1.24117
 20
37.5028
 30
0.0
 70
    32
  0
VERTEX
  5
509
330
4F0
100
AcDbEntity
  8
0
100
AcDbVertex
100
AcDb3dPolylineVertex
 10
1.348239999999999
 20
37.46439999999999
 30
0.0
 70
    32
  0
VERTEX
  5
50A
330
4F0
100
AcDbEntity
  8
0
100
AcDbVertex
100
AcDb3dPolylineVertex
 10
1.45932
 20
37.42669999999999
 30
0.0
 70
    32
  0
VERTEX
  5
50B
330
4F0
100
AcDbEntity
  8
0
100
AcDbVertex
100
AcDb3dPolylineVertex
 10
1.57434
 20
37.3896
 30
0.0
 70
    32
  0
VERTEX
  5
50C
330
4F0
100
AcDbEntity
  8
0
100
AcDbVertex
100
AcDb3dPolylineVertex
 10
1.693229999999999
 20
37.3532
 30
0.0
 70
    32
  0
VERTEX
  5
50D
330
4F0
100
AcDbEntity
  8
0
100
AcDbVertex
100
AcDb3dPolylineVertex
 10
1.81592
 20
37.3175
 30
0.0
 70
    32
  0
VERTEX
  5
50E
330
4F0
100
AcDbEntity
  8
0
100
AcDbVertex
100
AcDb3dPolylineVertex
 10
1.942329999999999
 20
37.2825
 30
0.0
 70
    32
  0
VERTEX
  5
50F
330
4F0
100
AcDbEntity
  8
0
100
AcDbVertex
100
AcDb3dPolylineVertex
 10
2.072389999999999
 20
37.24819999999999
 30
0.0
 70
    32
  0
VERTEX
  5
510
330
4F0
100
AcDbEntity
  8
0
100
AcDbVertex
100
AcDb3dPolylineVertex
 10
2.20602
 20
37.2147
 30
0.0
 70
    32
  0
VERTEX
  5
511
330
4F0
100
AcDbEntity
  8
0
100
AcDbVertex
100
AcDb3dPolylineVertex
 10
2.34315
 20
37.182
 30
0.0
 70
    32
  0
VERTEX
  5
512
330
4F0
100
AcDbEntity
  8
0
100
AcDbVertex
100
AcDb3dPolylineVertex
 10
2.48368
 20
37.14999999999999
 30
0.0
 70
    32
  0
VERTEX
  5
513
330
4F0
100
AcDbEntity
  8
0
100
AcDbVertex
100
AcDb3dPolylineVertex
 10
2.62753
 20
37.11889999999999
 30
0.0
 70
    32
  0
VERTEX
  5
514
330
4F0
100
AcDbEntity
  8
0
100
AcDbVertex
100
AcDb3dPolylineVertex
 10
2.77462
 20
37.0886
 30
0.0
 70
    32
  0
VERTEX
  5
515
330
4F0
100
AcDbEntity
  8
0
100
AcDbVertex
100
AcDb3dPolylineVertex
 10
2.92485
 20
37.0591
 30
0.0
 70
    32
  0
VERTEX
  5
516
330
4F0
100
AcDbEntity
  8
0
100
AcDbVertex
100
AcDb3dPolylineVertex
 10
3.078149999999999
 20
37.0305
 30
0.0
 70
    32
  0
VERTEX
  5
517
330
4F0
100
AcDbEntity
  8
0
100
AcDbVertex
100
AcDb3dPolylineVertex
 10
3.23441
 20
37.0028
 30
0.0
 70
    32
  0
VERTEX
  5
518
330
4F0
100
AcDbEntity
  8
0
100
AcDbVertex
100
AcDb3dPolylineVertex
 10
3.39353
 20
36.97599999999999
 30
0.0
 70
    32
  0
VERTEX
  5
519
330
4F0
100
AcDbEntity
  8
0
100
AcDbVertex
100
AcDb3dPolylineVertex
 10
3.555439999999999
 20
36.95009999999999
 30
0.0
 70
    32
  0
VERTEX
  5
51A
330
4F0
100
AcDbEntity
  8
0
100
AcDbVertex
100
AcDb3dPolylineVertex
 10
3.720019999999999
 20
36.9252
 30
0.0
 70
    32
  0
VERTEX
  5
51B
330
4F0
100
AcDbEntity
  8
0
100
AcDbVertex
100
AcDb3dPolylineVertex
 10
3.88718
 20
36.9012
 30
0.0
 70
    32
  0
VERTEX
  5
51C
330
4F0
100
AcDbEntity
  8
0
100
AcDbVertex
100
AcDb3dPolylineVertex
 10
4.056809999999999
 20
36.8782
 30
0.0
 70
    32
  0
VERTEX
  5
51D
330
4F0
100
AcDbEntity
  8
0
100
AcDbVertex
100
AcDb3dPolylineVertex
 10
4.22883
 20
36.8561
 30
0.0
 70
    32
  0
VERTEX
  5
51E
330
4F0
100
AcDbEntity
  8
0
100
AcDbVertex
100
AcDb3dPolylineVertex
 10
4.403109999999999
 20
36.835
 30
0.0
 70
    32
  0
VERTEX
  5
51F
330
4F0
100
AcDbEntity
  8
0
100
AcDbVertex
100
AcDb3dPolylineVertex
 10
4.579559999999999
 20
36.81499999999999
 30
0.0
 70
    32
  0
VERTEX
  5
520
330
4F0
100
AcDbEntity
  8
0
100
AcDbVertex
100
AcDb3dPolylineVertex
 10
4.75807
 20
36.7959
 30
0.0
 70
    32
  0
VERTEX
  5
521
330
4F0
100
AcDbEntity
  8
0
100
AcDbVertex
100
AcDb3dPolylineVertex
 10
4.93853
 20
36.7779
 30
0.0
 70
    32
  0
VERTEX
  5
522
330
4F0
100
AcDbEntity
  8
0
100
AcDbVertex
100
AcDb3dPolylineVertex
 10
5.12084
 20
36.7609
 30
0.0
 70
    32
  0
VERTEX
  5
523
330
4F0
100
AcDbEntity
  8
0
100
AcDbVertex
100
AcDb3dPolylineVertex
 10
5.30488
 20
36.745
 30
0.0
 70
    32
  0
VERTEX
  5
524
330
4F0
100
AcDbEntity
  8
0
100
AcDbVertex
100
AcDb3dPolylineVertex
 10
5.490549999999999
 20
36.7301
 30
0.0
 70
    32
  0
VERTEX
  5
525
330
4F0
100
AcDbEntity
  8
0
100
AcDbVertex
100
AcDb3dPolylineVertex
 10
5.677719999999999
 20
36.71629999999999
 30
0.0
 70
    32
  0
VERTEX
  5
526
330
4F0
100
AcDbEntity
  8
0
100
AcDbVertex
100
AcDb3dPolylineVertex
 10
5.866299999999999
 20
36.7035
 30
0.0
 70
    32
  0
VERTEX
  5
527
330
4F0
100
AcDbEntity
  8
0
100
AcDbVertex
100
AcDb3dPolylineVertex
 10
6.05616
 20
36.69189999999999
 30
0.0
 70
    32
  0
VERTEX
  5
528
330
4F0
100
AcDbEntity
  8
0
100
AcDbVertex
100
AcDb3dPolylineVertex
 10
6.247189999999999
 20
36.6813
 30
0.0
 70
    32
  0
VERTEX
  5
529
330
4F0
100
AcDbEntity
  8
0
100
AcDbVertex
100
AcDb3dPolylineVertex
 10
6.43928
 20
36.6718
 30
0.0
 70
    32
  0
VERTEX
  5
52A
330
4F0
100
AcDbEntity
  8
0
100
AcDbVertex
100
AcDb3dPolylineVertex
 10
6.632299999999999
 20
36.6634
 30
0.0
 70
    32
  0
VERTEX
  5
52B
330
4F0
100
AcDbEntity
  8
0
100
AcDbVertex
100
AcDb3dPolylineVertex
 10
6.82616
 20
36.6562
 30
0.0
 70
    32
  0
VERTEX
  5
52C
330
4F0
100
AcDbEntity
  8
0
100
AcDbVertex
100
AcDb3dPolylineVertex
 10
7.02071
 20
36.65
 30
0.0
 70
    32
  0
VERTEX
  5
52D
330
4F0
100
AcDbEntity
  8
0
100
AcDbVertex
100
AcDb3dPolylineVertex
 10
7.21586
 20
36.645
 30
0.0
 70
    32
  0
VERTEX
  5
52E
330
4F0
100
AcDbEntity
  8
0
100
AcDbVertex
100
AcDb3dPolylineVertex
 10
7.41148
 20
36.6411
 30
0.0
 70
    32
  0
VERTEX
  5
52F
330
4F0
100
AcDbEntity
  8
0
100
AcDbVertex
100
AcDb3dPolylineVertex
 10
7.60746
 20
36.63819999999999
 30
0.0
 70
    32
  0
VERTEX
  5
530
330
4F0
100
AcDbEntity
  8
0
100
AcDbVertex
100
AcDb3dPolylineVertex
 10
7.803669999999999
 20
36.6366
 30
0.0
 70
    32
  0
VERTEX
  5
531
330
4F0
100
AcDbEntity
  8
0
100
AcDbVertex
100
AcDb3dPolylineVertex
 10
8.0
 20
36.636
 30
0.0
 70
    32
  0
VERTEX
  5
532
330
4F0
100
AcDbEntity
  8
0
100
AcDbVertex
100
AcDb3dPolylineVertex
 10
8.196329999999999
 20
36.6366
 30
0.0
 70
    32
  0
VERTEX
  5
533
330
4F0
100
AcDbEntity
  8
0
100
AcDbVertex
100
AcDb3dPolylineVertex
 10
8.392539999999998
 20
36.63819999999999
 30
0.0
 70
    32
  0
VERTEX
  5
534
330
4F0
100
AcDbEntity
  8
0
100
AcDbVertex
100
AcDb3dPolylineVertex
 10
8.588519999999999
 20
36.6411
 30
0.0
 70
    32
  0
VERTEX
  5
535
330
4F0
100
AcDbEntity
  8
0
100
AcDbVertex
100
AcDb3dPolylineVertex
 10
8.784139999999998
 20
36.645
 30
0.0
 70
    32
  0
VERTEX
  5
536
330
4F0
100
AcDbEntity
  8
0
100
AcDbVertex
100
AcDb3dPolylineVertex
 10
8.979289999999998
 20
36.65
 30
0.0
 70
    32
  0
VERTEX
  5
537
330
4F0
100
AcDbEntity
  8
0
100
AcDbVertex
100
AcDb3dPolylineVertex
 10
9.17384
 20
36.6562
 30
0.0
 70
    32
  0
VERTEX
  5
538
330
4F0
100
AcDbEntity
  8
0
100
AcDbVertex
100
AcDb3dPolylineVertex
 10
9.367699999999999
 20
36.6634
 30
0.0
 70
    32
  0
VERTEX
  5
539
330
4F0
100
AcDbEntity
  8
0
100
AcDbVertex
100
AcDb3dPolylineVertex
 10
9.560719999999999
 20
36.6718
 30
0.0
 70
    32
  0
VERTEX
  5
53A
330
4F0
100
AcDbEntity
  8
0
100
AcDbVertex
100
AcDb3dPolylineVertex
 10
9.75281
 20
36.6813
 30
0.0
 70
    32
  0
VERTEX
  5
53B
330
4F0
100
AcDbEntity
  8
0
100
AcDbVertex
100
AcDb3dPolylineVertex
 10
9.943839999999999
 20
36.69189999999999
 30
0.0
 70
    32
  0
VERTEX
  5
53C
330
4F0
100
AcDbEntity
  8
0
100
AcDbVertex
100
AcDb3dPolylineVertex
 10
10.13369999999999
 20
36.7035
 30
0.0
 70
    32
  0
VERTEX
  5
53D
330
4F0
100
AcDbEntity
  8
0
100
AcDbVertex
100
AcDb3dPolylineVertex
 10
10.32229999999999
 20
36.71629999999999
 30
0.0
 70
    32
  0
VERTEX
  5
53E
330
4F0
100
AcDbEntity
  8
0
100
AcDbVertex
100
AcDb3dPolylineVertex
 10
10.5095
 20
36.7301
 30
0.0
 70
    32
  0
VERTEX
  5
53F
330
4F0
100
AcDbEntity
  8
0
100
AcDbVertex
100
AcDb3dPolylineVertex
 10
10.69509999999999
 20
36.745
 30
0.0
 70
    32
  0
VERTEX
  5
540
330
4F0
100
AcDbEntity
  8
0
100
AcDbVertex
100
AcDb3dPolylineVertex
 10
10.8792
 20
36.7609
 30
0.0
 70
    32
  0
VERTEX
  5
541
330
4F0
100
AcDbEntity
  8
0
100
AcDbVertex
100
AcDb3dPolylineVertex
 10
11.0615
 20
36.7779
 30
0.0
 70
    32
  0
VERTEX
  5
542
330
4F0
100
AcDbEntity
  8
0
100
AcDbVertex
100
AcDb3dPolylineVertex
 10
11.2419
 20
36.7959
 30
0.0
 70
    32
  0
VERTEX
  5
543
330
4F0
100
AcDbEntity
  8
0
100
AcDbVertex
100
AcDb3dPolylineVertex
 10
11.4204
 20
36.81499999999999
 30
0.0
 70
    32
  0
VERTEX
  5
544
330
4F0
100
AcDbEntity
  8
0
100
AcDbVertex
100
AcDb3dPolylineVertex
 10
11.5969
 20
36.835
 30
0.0
 70
    32
  0
VERTEX
  5
545
330
4F0
100
AcDbEntity
  8
0
100
AcDbVertex
100
AcDb3dPolylineVertex
 10
11.7712
 20
36.8561
 30
0.0
 70
    32
  0
VERTEX
  5
546
330
4F0
100
AcDbEntity
  8
0
100
AcDbVertex
100
AcDb3dPolylineVertex
 10
11.9432
 20
36.8782
 30
0.0
 70
    32
  0
VERTEX
  5
547
330
4F0
100
AcDbEntity
  8
0
100
AcDbVertex
100
AcDb3dPolylineVertex
 10
12.1128
 20
36.9012
 30
0.0
 70
    32
  0
VERTEX
  5
548
330
4F0
100
AcDbEntity
  8
0
100
AcDbVertex
100
AcDb3dPolylineVertex
 10
12.27999999999999
 20
36.9252
 30
0.0
 70
    32
  0
VERTEX
  5
549
330
4F0
100
AcDbEntity
  8
0
100
AcDbVertex
100
AcDb3dPolylineVertex
 10
12.4446
 20
36.95009999999999
 30
0.0
 70
    32
  0
VERTEX
  5
54A
330
4F0
100
AcDbEntity
  8
0
100
AcDbVertex
100
AcDb3dPolylineVertex
 10
12.6065
 20
36.97599999999999
 30
0.0
 70
    32
  0
VERTEX
  5
54B
330
4F0
100
AcDbEntity
  8
0
100
AcDbVertex
100
AcDb3dPolylineVertex
 10
12.76559999999999
 20
37.0028
 30
0.0
 70
    32
  0
VERTEX
  5
54C
330
4F0
100
AcDbEntity
  8
0
100
AcDbVertex
100
AcDb3dPolylineVertex
 10
12.9219
 20
37.0305
 30
0.0
 70
    32
  0
VERTEX
  5
54D
330
4F0
100
AcDbEntity
  8
0
100
AcDbVertex
100
AcDb3dPolylineVertex
 10
13.0751
 20
37.0591
 30
0.0
 70
    32
  0
VERTEX
  5
54E
330
4F0
100
AcDbEntity
  8
0
100
AcDbVertex
100
AcDb3dPolylineVertex
 10
13.2254
 20
37.0886
 30
0.0
 70
    32
  0
VERTEX
  5
54F
330
4F0
100
AcDbEntity
  8
0
100
AcDbVertex
100
AcDb3dPolylineVertex
 10
13.3725
 20
37.11889999999999
 30
0.0
 70
    32
  0
VERTEX
  5
550
330
4F0
100
AcDbEntity
  8
0
100
AcDbVertex
100
AcDb3dPolylineVertex
 10
13.5163
 20
37.14999999999999
 30
0.0
 70
    32
  0
VERTEX
  5
551
330
4F0
100
AcDbEntity
  8
0
100
AcDbVertex
100
AcDb3dPolylineVertex
 10
13.6569
 20
37.182
 30
0.0
 70
    32
  0
VERTEX
  5
552
330
4F0
100
AcDbEntity
  8
0
100
AcDbVertex
100
AcDb3dPolylineVertex
 10
13.794
 20
37.2147
 30
0.0
 70
    32
  0
VERTEX
  5
553
330
4F0
100
AcDbEntity
  8
0
100
AcDbVertex
100
AcDb3dPolylineVertex
 10
13.92759999999999
 20
37.24819999999999
 30
0.0
 70
    32
  0
VERTEX
  5
554
330
4F0
100
AcDbEntity
  8
0
100
AcDbVertex
100
AcDb3dPolylineVertex
 10
14.0577
 20
37.2825
 30
0.0
 70
    32
  0
VERTEX
  5
555
330
4F0
100
AcDbEntity
  8
0
100
AcDbVertex
100
AcDb3dPolylineVertex
 10
14.1841
 20
37.3175
 30
0.0
 70
    32
  0
VERTEX
  5
556
330
4F0
100
AcDbEntity
  8
0
100
AcDbVertex
100
AcDb3dPolylineVertex
 10
14.3068
 20
37.3532
 30
0.0
 70
    32
  0
VERTEX
  5
557
330
4F0
100
AcDbEntity
  8
0
100
AcDbVertex
100
AcDb3dPolylineVertex
 10
14.4257
 20
37.3896
 30
0.0
 70
    32
  0
VERTEX
  5
558
330
4F0
100
AcDbEntity
  8
0
100
AcDbVertex
100
AcDb3dPolylineVertex
 10
14.54069999999999
 20
37.42669999999999
 30
0.0
 70
    32
  0
VERTEX
  5
559
330
4F0
100
AcDbEntity
  8
0
100
AcDbVertex
100
AcDb3dPolylineVertex
 10
14.6518
 20
37.46439999999999
 30
0.0
 70
    32
  0
VERTEX
  5
55A
330
4F0
100
AcDbEntity
  8
0
100
AcDbVertex
100
AcDb3dPolylineVertex
 10
14.7588
 20
37.5028
 30
0.0
 70
    32
  0
VERTEX
  5
55B
330
4F0
100
AcDbEntity
  8
0
100
AcDbVertex
100
AcDb3dPolylineVertex
 10
14.8618
 20
37.5417
 30
0.0
 70
    32
  0
VERTEX
  5
55C
330
4F0
100
AcDbEntity
  8
0
100
AcDbVertex
100
AcDb3dPolylineVertex
 10
14.9607
 20
37.5812
 30
0.0
 70
    32
  0
VERTEX
  5
55D
330
4F0
100
AcDbEntity
  8
0
100
AcDbVertex
100
AcDb3dPolylineVertex
 10
15.0554
 20
37.62129999999999
 30
0.0
 70
    32
  0
VERTEX
  5
55E
330
4F0
100
AcDbEntity
  8
0
100
AcDbVertex
100
AcDb3dPolylineVertex
 10
15.1458
 20
37.6619
 30
0.0
 70
    32
  0
VERTEX
  5
55F
330
4F0
100
AcDbEntity
  8
0
100
AcDbVertex
100
AcDb3dPolylineVertex
 10
15.2319
 20
37.703
 30
0.0
 70
    32
  0
VERTEX
  5
560
330
4F0
100
AcDbEntity
  8
0
100
AcDbVertex
100
AcDb3dPolylineVertex
 10
15.3137
 20
37.74459999999999
 30
0.0
 70
    32
  0
VERTEX
  5
561
330
4F0
100
AcDbEntity
  8
0
100
AcDbVertex
100
AcDb3dPolylineVertex
 10
15.391
 20
37.7867
 30
0.0
 70
    32
  0
VERTEX
  5
562
330
4F0
100
AcDbEntity
  8
0
100
AcDbVertex
100
AcDb3dPolylineVertex
 10
15.4639
 20
37.8292
 30
0.0
 70
    32
  0
VERTEX
  5
563
330
4F0
100
AcDbEntity
  8
0
100
AcDbVertex
100
AcDb3dPolylineVertex
 10
15.5324
 20
37.872
 30
0.0
 70
    32
  0
VERTEX
  5
564
330
4F0
100
AcDbEntity
  8
0
100
AcDbVertex
100
AcDb3dPolylineVertex
 10
15.59619999999999
 20
37.9153
 30
0.0
 70
    32
  0
VERTEX
  5
565
330
4F0
100
AcDbEntity
  8
0
100
AcDbVertex
100
AcDb3dPolylineVertex
 10
15.65549999999999
 20
37.95889999999999
 30
0.0
 70
    32
  0
VERTEX
  5
566
330
4F0
100
AcDbEntity
  8
0
100
AcDbVertex
100
AcDb3dPolylineVertex
 10
15.7102
 20
38.0028
 30
0.0
 70
    32
  0
VERTEX
  5
567
330
4F0
100
AcDbEntity
  8
0
100
AcDbVertex
100
AcDb3dPolylineVertex
 10
15.7603
 20
38.0471
 30
0.0
 70
    32
  0
VERTEX
  5
568
330
4F0
100
AcDbEntity
  8
0
100
AcDbVertex
100
AcDb3dPolylineVertex
 10
15.8056
 20
38.0916
 30
0.0
 70
    32
  0
VERTEX
  5
569
330
4F0
100
AcDbEntity
  8
0
100
AcDbVertex
100
AcDb3dPolylineVertex
 10
15.84629999999999
 20
38.1364
 30
0.0
 70
    32
  0
VERTEX
  5
56A
330
4F0
100
AcDbEntity
  8
0
100
AcDbVertex
100
AcDb3dPolylineVertex
 10
15.88219999999999
 20
38.1813
 30
0.0
 70
    32
  0
VERTEX
  5
56B
330
4F0
100
AcDbEntity
  8
0
100
AcDbVertex
100
AcDb3dPolylineVertex
 10
15.91339999999999
 20
38.2265
 30
0.0
 70
    32
  0
VERTEX
  5
56C
330
4F0
100
AcDbEntity
  8
0
100
AcDbVertex
100
AcDb3dPolylineVertex
 10
15.9398
 20
38.2718
 30
0.0
 70
    32
  0
VERTEX
  5
56D
330
4F0
100
AcDbEntity
  8
0
100
AcDbVertex
100
AcDb3dPolylineVertex
 10
15.96149999999999
 20
38.3173
 30
0.0
 70
    32
  0
VERTEX
  5
56E
330
4F0
100
AcDbEntity
  8
0
100
AcDbVertex
100
AcDb3dPolylineVertex
 10
15.9783
 20
38.3629
 30
0.0
 70
    32
  0
VERTEX
  5
56F
330
4F0
100
AcDbEntity
  8
0
100
AcDbVertex
100
AcDb3dPolylineVertex
 10
15.9904
 20
38.40849999999999
 30
0.0
 70
    32
  0
VERTEX
  5
570
330
4F0
100
AcDbEntity
  8
0
100
AcDbVertex
100
AcDb3dPolylineVertex
 10
15.9976
 20
38.4543
 30
0.0
 70
    32
  0
VERTEX
  5
571
330
4F0
100
AcDbEntity
  8
0
100
AcDbVertex
100
AcDb3dPolylineVertex
 10
16.0
 20
38.5
 30
0.0
 70
    32
  0
SEQEND
  5
572
330
4F0
100
AcDbEntity
  8
0
  0
LINE
  5
573
330
455
100
AcDbEntity
  8
0
100
AcDbLine
 10
2.029365
 20
56.16884599999999
 30
0.0
 11
2.0
 21
56.0
 31
0.0
  0
LINE
  5
574
330
455
100
AcDbEntity
  8
0
100
AcDbLine
 10
13.970635
 20
56.16884599999999
 30
0.0
 11
14.0
 21
56.0
 31
0.0
  0
LINE
  5
575
330
455
100
AcDbEntity
  8
0
100
AcDbLine
 10
8.0
 20
60.0
 30
0.0
 11
11.5
 21
60.0
 31
0.0
  0
ARC
  5
576
330
455
100
AcDbEntity
  8
0
100
AcDbCircle
 10
8.0
 20
62.916667
 30
0.0
 40
6.083333
100
AcDbArc
 50
48.88791
 51
131.1120899999999
  0
LINE
  5
577
330
455
100
AcDbEntity
  8
0
100
AcDbLine
 10
4.0
 20
67.5
 30
0.0
 11
2.514031999999999
 21
58.95568199999999
 31
0.0
  0
ARC
  5
578
330
455
100
AcDbEntity
  8
0
100
AcDbCircle
 10
4.5
 20
59.5
 30
0.0
 40
0.5
100
AcDbArc
 50
90.0
 51
180.0
  0
LINE
  5
579
330
455
100
AcDbEntity
  8
0
100
AcDbLine
 10
4.0
 20
59.5
 30
0.0
 11
4.0
 21
57.5
 31
0.0
  0
LINE
  5
57A
330
455
100
AcDbEntity
  8
0
100
AcDbLine
 10
8.0
 20
60.0
 30
0.0
 11
4.5
 21
60.0
 31
0.0
  0
LINE
  5
57B
330
455
100
AcDbEntity
  8
0
100
AcDbLine
 10
12.0
 20
67.5
 30
0.0
 11
13.485968
 21
58.95568199999999
 31
0.0
  0
ARC
  5
57C
330
455
100
AcDbEntity
  8
0
100
AcDbCircle
 10
11.5
 20
59.5
 30
0.0
 40
0.5
100
AcDbArc
 50
0.0
 51
90.0
  0
LINE
  5
57D
330
455
100
AcDbEntity
  8
0
100
AcDbLine
 10
12.0
 20
59.5
 30
0.0
 11
12.0
 21
57.5
 31
0.0
  0
LINE
  5
57E
330
455
100
AcDbEntity
  8
0
100
AcDbLine
 10
54.0
 20
54.734191
 30
0.0
 11
54.0
 21
38.004234
 31
0.0
  0
ARC
  5
57F
330
455
100
AcDbEntity
  8
0
100
AcDbCircle
 10
55.0
 20
54.734191
 30
0.0
 40
1.0
100
AcDbArc
 50
105.1095749999999
 51
180.0
  0
LINE
  5
580
330
455
100
AcDbEntity
  8
1
100
AcDbLine
 10
62.0
 20
63.0
 30
0.0
 11
62.0
 21
0.0
 31
0.0
  0
LINE
  5
581
330
455
100
AcDbEntity
  8
0
100
AcDbLine
 10
68.0
 20
33.5
 30
0.0
 11
68.0
 21
40.46249999999999
 31
0.0
  0
LINE
  5
582
330
455
100
AcDbEntity
  8
0
100
AcDbLine
 10
56.0
 20
33.5
 30
0.0
 11
56.0
 21
37.23749999999999
 31
0.0
  0
LINE
  5
583
330
455
100
AcDbEntity
  8
0
100
AcDbLine
 10
59.0
 20
33.5
 30
0.0
 11
59.0
 21
4.0
 31
0.0
  0
LINE
  5
584
330
455
100
AcDbEntity
  8
0
100
AcDbLine
 10
59.5
 20
3.5
 30
0.0
 11
59.5
 21
32.5
 31
0.0
  0
LINE
  5
585
330
455
100
AcDbEntity
  8
0
100
AcDbLine
 10
64.5
 20
3.5
 30
0.0
 11
64.5
 21
32.5
 31
0.0
  0
LINE
  5
586
330
455
100
AcDbEntity
  8
0
100
AcDbLine
 10
65.0
 20
33.5
 30
0.0
 11
65.0
 21
4.0
 31
0.0
  0
LINE
  5
587
330
455
100
AcDbEntity
  8
0
100
AcDbLine
 10
64.5
 20
3.5
 30
0.0
 11
62.0
 21
3.5
 31
0.0
  0
LINE
  5
588
330
455
100
AcDbEntity
  8
0
100
AcDbLine
 10
65.0
 20
4.0
 30
0.0
 11
62.0
 21
4.0
 31
0.0
  0
LINE
  5
589
330
455
100
AcDbEntity
  8
0
100
AcDbLine
 10
59.5
 20
3.5
 30
0.0
 11
62.0
 21
3.5
 31
0.0
  0
LINE
  5
58A
330
455
100
AcDbEntity
  8
0
100
AcDbLine
 10
59.0
 20
4.0
 30
0.0
 11
62.0
 21
4.0
 31
0.0
  0
LINE
  5
58B
330
455
100
AcDbEntity
  8
0
100
AcDbLine
 10
59.0
 20
4.0
 30
0.0
 11
59.5
 21
3.5
 31
0.0
  0
LINE
  5
58C
330
455
100
AcDbEntity
  8
0
100
AcDbLine
 10
65.0
 20
4.0
 30
0.0
 11
64.5
 21
3.5
 31
0.0
  0
LINE
  5
58D
330
455
100
AcDbEntity
  8
0
100
AcDbLine
 10
65.0
 20
32.5
 30
0.0
 11
62.0
 21
32.5
 31
0.0
  0
LINE
  5
58E
330
455
100
AcDbEntity
  8
0
100
AcDbLine
 10
62.0
 20
33.5
 30
0.0
 11
68.0
 21
33.5
 31
0.0
  0
LINE
  5
58F
330
455
100
AcDbEntity
  8
0
100
AcDbLine
 10
62.0
 20
33.5
 30
0.0
 11
56.0
 21
33.5
 31
0.0
  0
LINE
  5
590
330
455
100
AcDbEntity
  8
0
100
AcDbLine
 10
59.0
 20
32.5
 30
0.0
 11
62.0
 21
32.5
 31
0.0
  0
LINE
  5
591
330
455
100
AcDbEntity
  8
0
100
AcDbLine
 10
91.5
 20
57.0
 30
0.0
 11
68.0
 21
50.0
 31
0.0
  0
LINE
  5
592
330
455
100
AcDbEntity
  8
0
100
AcDbLine
 10
68.0
 20
50.0
 30
0.0
 11
68.0
 21
59.28
 31
0.0
  0
LINE
  5
593
330
455
100
AcDbEntity
  8
0
100
AcDbLine
 10
58.0
 20
56.58
 30
0.0
 11
58.0
 21
59.5
 31
0.0
  0
LINE
  5
594
330
455
100
AcDbEntity
  8
0
100
AcDbLine
 10
70.0
 20
41.766734
 30
0.0
 11
70.0
 21
50.595745
 31
0.0
  0
LINE
  5
595
330
455
100
AcDbEntity
  8
0
100
AcDbLine
 10
69.25954
 20
40.801001
 30
0.0
 11
55.25954
 21
37.038501
 31
0.0
  0
ARC
  5
596
330
455
100
AcDbEntity
  8
0
100
AcDbCircle
 10
69.0
 20
41.766734
 30
0.0
 40
1.0
100
AcDbArc
 50
285.0428009999999
 51
0.0
  0
LINE
  5
597
330
455
100
AcDbEntity
  8
0
100
AcDbLine
 10
58.5
 20
60.0
 30
0.0
 11
65.5
 21
60.0
 31
0.0
  0
ARC
  5
598
330
455
100
AcDbEntity
  8
0
100
AcDbCircle
 10
58.5
 20
59.5
 30
0.0
 40
0.5
100
AcDbArc
 50
90.0
 51
180.0
  0
ARC
  5
599
330
455
100
AcDbEntity
  8
0
100
AcDbCircle
 10
65.5
 20
59.5
 30
0.0
 40
0.5
100
AcDbArc
 50
0.0
 51
90.0
  0
LINE
  5
59A
330
455
100
AcDbEntity
  8
0
100
AcDbLine
 10
66.0
 20
59.5
 30
0.0
 11
66.0
 21
58.74
 31
0.0
  0
LINE
  5
59B
330
455
100
AcDbEntity
  8
0
100
AcDbLine
 10
103.2524219999999
 20
58.80498000000001
 30
0.0
 11
93.05439399999999
 21
56.144624
 31
0.0
  0
ARC
  5
59C
330
455
100
AcDbEntity
  8
0
100
AcDbCircle
 10
92.80197199999999
 20
57.112242
 30
0.0
 40
1.0
100
AcDbArc
 50
225.0
 51
284.620874
  0
LINE
  5
59D
330
455
100
AcDbEntity
  8
0
100
AcDbLine
 10
92.094865
 20
56.40513499999999
 30
0.0
 11
91.5
 21
57.0
 31
0.0
  0
ARC
  5
59E
330
455
100
AcDbEntity
  8
0
100
AcDbCircle
 10
103.0
 20
67.694191
 30
0.0
 40
1.0
100
AcDbArc
 50
0.0
 51
105.1095749999999
  0
LINE
  5
59F
330
455
100
AcDbEntity
  8
0
100
AcDbLine
 10
104.0
 20
67.694191
 30
0.0
 11
104.0
 21
59.772597
 31
0.0
  0
ARC
  5
5A0
330
455
100
AcDbEntity
  8
0
100
AcDbCircle
 10
103.0
 20
59.772597
 30
0.0
 40
1.0
100
AcDbArc
 50
284.620874
 51
0.0
  0
ENDBLK
  5
5A1
330
455
100
AcDbEntity
  8
0
100
AcDbBlockEnd
  0
BLOCK
  5
81F
330
81E
100
AcDbEntity
  8
0
100
AcDbBlockBegin
  2
*U3
 70
     1
 10
0.0
 20
0.0
 30
0.0
  3
*U3
  1

  0
ENDBLK
  5
820
330
81E
100
AcDbEntity
  8
0
100
AcDbBlockEnd
  0
BLOCK
  5
860
330
85E
100
AcDbEntity
  8
0
100
AcDbBlockBegin
  2
GENAXEH
 70
     0
 10
0.0
 20
0.0
 30
0.0
  3
GENAXEH
  1

  0
LINE
  5
85F
330
85E
100
AcDbEntity
  8
0
100
AcDbLine
 10
-1.0
 20
0.0
 30
0.0
 11
1.0
 21
0.0
 31
0.0
  0
ENDBLK
  5
861
330
85E
100
AcDbEntity
  8
0
100
AcDbBlockEnd
  0
ENDSEC
  0
SECTION
  2
ENTITIES
  0
CIRCLE
  5
BD6
330
443
100
AcDbEntity
  8
0
100
AcDbCircle
 10
55.99324477559543
 20
98.54264536214365
 30
0.0
 40
5.052999999999999
  0
CIRCLE
  5
BD7
330
443
100
AcDbEntity
  8
3
100
AcDbCircle
 10
55.99324477559543
 20
98.54264536214365
 30
0.0
 40
6.0
  0
CIRCLE
  5
BD8
330
443
100
AcDbEntity
  8
0
100
AcDbCircle
 10
55.99324477559543
 20
98.54264536214365
 30
0.0
 40
10.49999999999998
  0
CIRCLE
  5
BD9
330
443
100
AcDbEntity
  8
0
100
AcDbCircle
 10
55.99324477559543
 20
98.54264536214365
 30
0.0
 40
8.499999999999943
  0
LINE
  5
BDA
330
443
100
AcDbEntity
  8
1
100
AcDbLine
 10
100.9932447755954
 20
98.54264536214358
 30
0.0
 11
30.24701983639733
 21
98.54264536214365
 31
0.0
  0
LINE
  5
BDB
330
443
100
AcDbEntity
  8
0
100
AcDbLine
 10
42.17781135610908
 20
63.46217258988534
 30
0.0
 11
60.30132504350518
 21
82.56037111392075
 31
0.0
  0
LINE
  5
BDC
330
443
100
AcDbEntity
  8
0
100
AcDbLine
 10
42.80023097988174
 20
62.82064133027413
 30
0.0
 11
60.76704504439664
 21
81.75371290607833
 31
0.0
  0
CIRCLE
  5
BDD
330
443
100
AcDbEntity
  8
0
100
AcDbCircle
 10
55.99324477559543
 20
98.54264536214358
 30
0.0
 40
14.25
  0
CIRCLE
  5
BDE
330
443
100
AcDbEntity
  8
0
100
AcDbCircle
 10
55.99324477559543
 20
98.54264536214358
 30
0.0
 40
13.25
  0
LINE
  5
BDF
330
443
100
AcDbEntity
  8
0
100
AcDbLine
 10
42.17781135610908
 20
133.6231181344025
 30
0.0
 11
60.30132504350575
 21
114.5249196103663
 31
0.0
  0
LINE
  5
BE0
330
443
100
AcDbEntity
  8
0
100
AcDbLine
 10
42.80023097988197
 20
134.2646493940134
 30
0.0
 11
60.76704773809893
 21
115.3315749796395
 31
0.0
  0
LINE
  5
BE1
330
443
100
AcDbEntity
  8
2
100
AcDbLine
 10
64.99324477559532
 20
13.83195706345472
 30
0.0
 11
46.99324477559531
 21
13.8319570634546
 31
0.0
  0
LINE
  5
BE2
330
443
100
AcDbEntity
  8
2
100
AcDbLine
 10
64.49324477559532
 20
12.83195706345472
 30
0.0
 11
47.49324477559532
 21
12.83195706345461
 31
0.0
  0
LINE
  5
BE3
330
443
100
AcDbEntity
  8
2
100
AcDbLine
 10
66.49324477559531
 20
16.8319570634546
 30
0.0
 11
45.49324477559543
 21
16.8319570634554
 31
0.0
  0
LINE
  5
BE4
330
443
100
AcDbEntity
  8
0
100
AcDbLine
 10
69.24324477559543
 20
17.83195706345472
 30
0.0
 11
53.57346186117507
 21
17.83195706345472
 31
0.0
  0
LINE
  5
BE5
330
443
100
AcDbEntity
  8
2
100
AcDbLine
 10
61.04624477559543
 20
-10.16804293654539
 30
0.0
 11
50.94024477559543
 21
-10.16804293654539
 31
0.0
  0
LINE
  5
BE6
330
443
100
AcDbEntity
  8
2
100
AcDbLine
 10
62.49324477559543
 20
9.831957063454723
 30
0.0
 11
49.49324477559532
 21
9.831957063454609
 31
0.0
  0
LINE
  5
BE7
330
443
100
AcDbEntity
  8
0
100
AcDbLine
 10
64.99324477559532
 20
-12.16804293654527
 30
0.0
 11
46.99324477559531
 21
-12.16804293654527
 31
0.0
  0
LINE
  5
BE8
330
443
100
AcDbEntity
  8
0
100
AcDbLine
 10
62.04516011096558
 20
14.36133288803407
 30
0.0
 11
41.91519536614243
 21
22.60803151135641
 31
0.0
  0
LINE
  5
BE9
330
443
100
AcDbEntity
  8
0
100
AcDbLine
 10
70.99324477559543
 20
-11.86804293654532
 30
0.0
 11
40.99324477559543
 21
-11.86804293654532
 31
0.0
  0
LINE
  5
BEA
330
443
100
AcDbEntity
  8
0
100
AcDbLine
 10
39.99324477559543
 20
-10.86804293654532
 30
0.0
 11
71.99324477559542
 21
-10.86804293654532
 31
0.0
  0
LINE
  5
BEB
330
443
100
AcDbEntity
  8
0
100
AcDbLine
 10
58.53050100912304
 20
1.631957063454677
 30
0.0
 11
40.88989341369853
 21
1.631957063454677
 31
0.0
  0
LINE
  5
BEC
330
443
100
AcDbEntity
  8
0
100
AcDbLine
 10
59.53584948926851
 20
2.247391476597471
 30
0.0
 11
41.36859924627754
 21
11.32858648349847
 31
0.0
  0
LINE
  5
BED
330
443
100
AcDbEntity
  8
0
100
AcDbLine
 10
-34.90571700161077
 20
129.823274461607
 30
0.0
 11
-44.1837634840958
 21
103.9692889361868
 31
0.0
  0
LINE
  5
BEE
330
443
100
AcDbEntity
  8
0
100
AcDbLine
 10
-25.24723368447308
 20
128.823274461607
 30
0.0
 11
-33.13794916432425
 21
101.1474065003276
 31
0.0
  0
LINE
  5
BEF
330
443
100
AcDbEntity
  8
0
100
AcDbLine
 10
-23.51731585302854
 20
129.4200310788726
 30
0.0
 11
-31.69543388001125
 21
100.7361284258775
 31
0.0
  0
LINE
  5
BF0
330
443
100
AcDbEntity
  8
0
100
AcDbLine
 10
-44.06838337713915
 20
115.7117496827852
 30
0.0
 11
-35.70666156838369
 21
134.0196179800994
 31
0.0
  0
ARC
  5
BF1
330
443
100
AcDbEntity
  8
0
100
AcDbCircle
 10
-32.9778105587914
 20
132.7732744610618
 30
0.0
 40
3.0
100
AcDbArc
 50
89.99999999999998
 51
155.452477755107
  0
ARC
  5
BF2
330
443
100
AcDbEntity
  8
0
100
AcDbCircle
 10
-26.40234642165449
 20
132.7732744610618
 30
0.0
 40
3.0
100
AcDbArc
 50
0.0
 51
89.99999999999998
  0
LINE
  5
BF3
330
443
100
AcDbEntity
  8
0
100
AcDbLine
 10
-34.90571700161077
 20
130.8232744616073
 30
0.0
 11
-34.90571700161077
 21
133.3662334212717
 31
0.0
  0
LINE
  5
BF4
330
443
100
AcDbEntity
  8
0
100
AcDbLine
 10
-26.40234642165449
 20
135.7732744610618
 30
0.0
 11
-32.9778105587914
 21
135.7732744610618
 31
0.0
  0
LINE
  5
BF5
330
443
100
AcDbEntity
  8
0
100
AcDbLine
 10
-24.40234642165452
 20
129.823274461607
 30
0.0
 11
-33.90571700161074
 21
129.823274461607
 31
0.0
  0
ARC
  5
BF6
330
443
100
AcDbEntity
  8
0
100
AcDbCircle
 10
-26.40234642165452
 20
130.2425872277728
 30
0.0
 40
3.0
100
AcDbArc
 50
344.0865258022772
 51
359.9999999999992
  0
LINE
  5
BF7
330
443
100
AcDbEntity
  8
0
100
AcDbLine
 10
-23.40234642165452
 20
130.2425872277728
 30
0.0
 11
-23.40234642165449
 21
132.7732744610618
 31
0.0
  0
LINE
  5
BF8
330
443
100
AcDbEntity
  8
2
100
AcDbLine
 10
-58.10234642165454
 20
107.5426453621437
 30
0.0
 11
-32.40234642165455
 21
107.5426453621437
 31
0.0
  0
LINE
  5
BF9
330
443
100
AcDbEntity
  8
2
100
AcDbLine
 10
-58.10234642165454
 20
89.54264536214376
 30
0.0
 11
-32.40234642165452
 21
89.54264536214376
 31
0.0
  0
LINE
  5
BFA
330
443
100
AcDbEntity
  8
2
100
AcDbLine
 10
-33.40234642165452
 20
92.0426453621437
 30
0.0
 11
-36.40234642165452
 21
92.0426453621437
 31
0.0
  0
LINE
  5
BFB
330
443
100
AcDbEntity
  8
2
100
AcDbLine
 10
-33.4023464216545
 20
105.0426453621436
 30
0.0
 11
-36.40234642165455
 21
105.0426453621436
 31
0.0
  0
LINE
  5
BFC
330
443
100
AcDbEntity
  8
0
100
AcDbLine
 10
-34.90571700161078
 20
67.2620162626803
 30
0.0
 11
-44.18376350239263
 21
93.11600183908607
 31
0.0
  0
ARC
  5
BFD
330
443
100
AcDbEntity
  8
0
100
AcDbCircle
 10
-32.97781055879141
 20
64.3120162632255
 30
0.0
 40
3.0
100
AcDbArc
 50
204.5475222448929
 51
270.0
  0
LINE
  5
BFE
330
443
100
AcDbEntity
  8
1
100
AcDbLine
 10
-18.40234642165438
 20
98.54264536214365
 30
0.0
 11
-63.40234642165448
 21
98.54264536214367
 31
0.0
  0
LINE
  5
BFF
330
443
100
AcDbEntity
  8
0
100
AcDbLine
 10
-58.10234642165449
 20
83.54264536214367
 30
0.0
 11
-58.10234642165449
 21
113.5426453621437
 31
0.0
  0
LINE
  5
C00
330
443
100
AcDbEntity
  8
0
100
AcDbLine
 10
-57.10234642165445
 20
114.5426453621437
 30
0.0
 11
-57.1023464216545
 21
82.54264536214368
 31
0.0
  0
LINE
  5
C01
330
443
100
AcDbEntity
  8
0
100
AcDbLine
 10
-44.60234642165445
 20
83.25337931341016
 30
0.0
 11
-44.60234642165445
 21
91.32183948908897
 31
0.0
  0
LINE
  5
C02
330
443
100
AcDbEntity
  8
2
100
AcDbLine
 10
-58.40234642165455
 20
91.48964536214368
 30
0.0
 11
-56.40234642165456
 21
93.48964536214372
 31
0.0
  0
LINE
  5
C03
330
443
100
AcDbEntity
  8
2
100
AcDbLine
 10
-58.40234642165455
 20
105.5956453621437
 30
0.0
 11
-56.40234642165456
 21
103.5956453621437
 31
0.0
  0
LINE
  5
C04
330
443
100
AcDbEntity
  8
2
100
AcDbLine
 10
-57.34934642165455
 20
104.5426453621437
 30
0.0
 11
-36.40234642165455
 21
104.5426453621437
 31
0.0
  0
LINE
  5
C05
330
443
100
AcDbEntity
  8
2
100
AcDbLine
 10
-57.34934642165455
 20
92.54264536214373
 30
0.0
 11
-36.40234642165452
 21
92.54264536214373
 31
0.0
  0
LINE
  5
C06
330
443
100
AcDbEntity
  8
0
100
AcDbLine
 10
-45.88761738353401
 20
114.5426453621437
 30
0.0
 11
-57.10234642165447
 21
114.5426453621437
 31
0.0
  0
LINE
  5
C07
330
443
100
AcDbEntity
  8
0
100
AcDbLine
 10
-58.40234642165441
 20
89.54264536214378
 30
0.0
 11
-58.40234642165441
 21
107.5426453621437
 31
0.0
  0
LINE
  5
C08
330
443
100
AcDbEntity
  8
0
100
AcDbLine
 10
-58.10234642165447
 20
113.5426453621437
 30
0.0
 11
-57.10234642165447
 21
114.5426453621437
 31
0.0
  0
LINE
  5
C09
330
443
100
AcDbEntity
  8
0
100
AcDbLine
 10
-58.10234642165446
 20
107.5426453621437
 30
0.0
 11
-58.40234642165441
 21
107.5426453621437
 31
0.0
  0
LINE
  5
C0A
330
443
100
AcDbEntity
  8
0
100
AcDbLine
 10
-58.10234642165446
 20
89.54264536214378
 30
0.0
 11
-58.40234642165441
 21
89.54264536214378
 31
0.0
  0
LINE
  5
C0B
330
443
100
AcDbEntity
  8
2
100
AcDbLine
 10
-56.40234642165456
 20
93.48964536214372
 30
0.0
 11
-56.40234642165456
 21
103.5956453621437
 31
0.0
  0
LINE
  5
C0C
330
443
100
AcDbEntity
  8
2
100
AcDbLine
 10
-36.40234642165452
 20
92.0426453621437
 30
0.0
 11
-36.40234642165455
 21
105.0426453621437
 31
0.0
  0
ARC
  5
C0D
330
443
100
AcDbEntity
  8
0
100
AcDbCircle
 10
-41.36007976040557
 20
102.9559724858284
 30
0.0
 40
3.0
100
AcDbArc
 50
160.2588005868254
 51
205.1480928395256
  0
LINE
  5
C0E
330
443
100
AcDbEntity
  8
2
100
AcDbLine
 10
-56.40234642165456
 20
103.5956453621437
 30
0.0
 11
-36.40234642165455
 21
103.5956453621437
 31
0.0
  0
LINE
  5
C0F
330
443
100
AcDbEntity
  8
0
100
AcDbLine
 10
-44.60234642165447
 20
105.7634512351984
 30
0.0
 11
-44.60234642165445
 21
113.8319114108772
 31
0.0
  0
ARC
  5
C10
330
443
100
AcDbEntity
  8
0
100
AcDbCircle
 10
-45.88761738353401
 20
116.5426453621437
 30
0.0
 40
2.0
100
AcDbArc
 50
270.0
 51
335.4524777551071
  0
LINE
  5
C11
330
443
100
AcDbEntity
  8
2
100
AcDbLine
 10
-56.40234642165456
 20
93.48964536214367
 30
0.0
 11
-36.40234642165452
 21
93.48964536214367
 31
0.0
  0
LINE
  5
C12
330
443
100
AcDbEntity
  8
0
100
AcDbLine
 10
-43.2008484477059
 20
97.26776719973132
 30
0.0
 11
-44.07571701327443
 21
95.40419648370688
 31
0.0
  0
LINE
  5
C13
330
443
100
AcDbEntity
  8
0
100
AcDbLine
 10
-44.07571700903484
 20
101.6810943215095
 30
0.0
 11
-43.20084843364866
 21
99.8175235583127
 31
0.0
  0
ARC
  5
C14
330
443
100
AcDbEntity
  8
0
100
AcDbCircle
 10
-45.91648568227793
 20
98.5426453939938
 30
0.0
 40
3.0
100
AcDbArc
 50
334.8519065287107
 51
25.14809283952564
  0
ARC
  5
C15
330
443
100
AcDbEntity
  8
0
100
AcDbCircle
 10
-41.36007977870238
 20
94.1293182894444
 30
0.0
 40
3.0
100
AcDbArc
 50
154.8519065287107
 51
199.7411994131745
  0
LINE
  5
C16
330
443
100
AcDbEntity
  8
0
100
AcDbLine
 10
-45.95136001681772
 20
82.54264536214368
 30
0.0
 11
-57.10234642165449
 21
82.54264536214368
 31
0.0
  0
LINE
  5
C17
330
443
100
AcDbEntity
  8
0
100
AcDbLine
 10
-57.10234642165449
 20
82.54264536214368
 30
0.0
 11
-58.10234642165449
 21
83.54264536214367
 31
0.0
  0
LINE
  5
C18
330
443
100
AcDbEntity
  8
0
100
AcDbLine
 10
-44.06838337713915
 20
81.37354104150206
 30
0.0
 11
-35.7066615683837
 21
63.06567274418785
 31
0.0
  0
ARC
  5
C19
330
443
100
AcDbEntity
  8
0
100
AcDbCircle
 10
-45.88761738353402
 20
80.54264536214365
 30
0.0
 40
2.0
100
AcDbArc
 50
24.54752224489282
 51
89.99999999999998
  0
LINE
  5
C1A
330
443
100
AcDbEntity
  8
2
100
AcDbLine
 10
-29.40234642165455
 20
88.04264536214374
 30
0.0
 11
-29.40234642165375
 21
109.0426453621436
 31
0.0
  0
LINE
  5
C1B
330
443
100
AcDbEntity
  8
0
100
AcDbLine
 10
-24.02934769010033
 20
93.75719527711508
 30
0.0
 11
-28.40234642165452
 21
88.10347550593993
 31
0.0
  0
LINE
  5
C1C
330
443
100
AcDbEntity
  8
0
100
AcDbLine
 10
-25.24723368447309
 20
68.2620162626803
 30
0.0
 11
-33.13794916432425
 21
95.93788422395959
 31
0.0
  0
LINE
  5
C1D
330
443
100
AcDbEntity
  8
0
100
AcDbLine
 10
-23.51731585302855
 20
67.66525964541481
 30
0.0
 11
-31.69543388001125
 21
96.34916229840971
 31
0.0
  0
LINE
  5
C1E
330
443
100
AcDbEntity
  8
0
100
AcDbLine
 10
-28.4023464216545
 20
85.2926453621437
 30
0.0
 11
-28.40234642165446
 21
111.7926453621436
 31
0.0
  0
LINE
  5
C1F
330
443
100
AcDbEntity
  8
0
100
AcDbLine
 10
-29.40234642165449
 20
88.30639534233336
 30
0.0
 11
-29.40234642165444
 21
108.7788953819541
 31
0.0
  0
LINE
  5
C20
330
443
100
AcDbEntity
  8
2
100
AcDbLine
 10
-32.40234642165452
 20
89.54264536214376
 30
0.0
 11
-32.40234642165455
 21
107.5426453621437
 31
0.0
  0
LINE
  5
C21
330
443
100
AcDbEntity
  8
2
100
AcDbLine
 10
-33.40234642165452
 20
90.04264536214376
 30
0.0
 11
-33.40234642165455
 21
107.0426453621437
 31
0.0
  0
LINE
  5
C22
330
443
100
AcDbEntity
  8
0
100
AcDbLine
 10
-24.02934769010033
 20
103.3280954471722
 30
0.0
 11
-28.40234642165448
 21
108.9818152183473
 31
0.0
  0
LINE
  5
C23
330
443
100
AcDbEntity
  8
0
100
AcDbLine
 10
-28.51186563782107
 20
111.9021645783102
 30
0.0
 11
-28.40234642165449
 21
111.7926453621436
 31
0.0
  0
LINE
  5
C24
330
443
100
AcDbEntity
  8
2
100
AcDbLine
 10
-29.90234642165455
 20
107.0426453621436
 30
0.0
 11
-33.40234642165455
 21
107.0426453621437
 31
0.0
  0
ARC
  5
C25
330
443
100
AcDbEntity
  8
2
100
AcDbCircle
 10
-29.90234642165455
 20
107.5426453621437
 30
0.0
 40
0.5
100
AcDbArc
 50
270.0
 51
0.0
  0
LINE
  5
C26
330
443
100
AcDbEntity
  8
2
100
AcDbLine
 10
-28.40234642165455
 20
109.0426453621436
 30
0.0
 11
-29.40234642165455
 21
109.0426453621436
 31
0.0
  0
ARC
  5
C27
330
443
100
AcDbEntity
  8
0
100
AcDbCircle
 10
-24.00201903034192
 20
98.54264536214365
 30
0.0
 40
8.0
100
AcDbArc
 50
164.0865258022772
 51
195.9134741977227
  0
LINE
  5
C28
330
443
100
AcDbEntity
  8
2
100
AcDbLine
 10
-29.9023464216545
 20
90.04264536214376
 30
0.0
 11
-33.40234642165452
 21
90.04264536214376
 31
0.0
  0
ARC
  5
C29
330
443
100
AcDbEntity
  8
2
100
AcDbCircle
 10
-29.9023464216545
 20
89.54264536214376
 30
0.0
 40
0.5
100
AcDbArc
 50
359.9999999999992
 51
89.99999999999998
  0
LINE
  5
C2A
330
443
100
AcDbEntity
  8
0
100
AcDbLine
 10
-23.40234642165438
 20
101.4926453606695
 30
0.0
 11
-23.40234642165438
 21
95.59264536214383
 31
0.0
  0
ARC
  5
C2B
330
443
100
AcDbEntity
  8
0
100
AcDbCircle
 10
-26.40234642165438
 20
101.4926453606695
 30
0.0
 40
3.0
100
AcDbArc
 50
0.0
 51
37.7209781120815
  0
ARC
  5
C2C
330
443
100
AcDbEntity
  8
0
100
AcDbCircle
 10
-26.40234642165438
 20
95.59264536214383
 30
0.0
 40
3.0
100
AcDbArc
 50
322.2776167671892
 51
0.0
  0
LINE
  5
C2D
330
443
100
AcDbEntity
  8
0
100
AcDbLine
 10
-28.51186563782107
 20
85.18312614597716
 30
0.0
 11
-28.4023464216545
 21
85.2926453621437
 31
0.0
  0
LINE
  5
C2E
330
443
100
AcDbEntity
  8
2
100
AcDbLine
 10
-28.40234642165455
 20
88.04264536214374
 30
0.0
 11
-29.40234642165455
 21
88.0426453621437
 31
0.0
  0
LINE
  5
C2F
330
443
100
AcDbEntity
  8
0
100
AcDbLine
 10
-24.40234642165453
 20
67.2620162626803
 30
0.0
 11
-33.90571700161076
 21
67.2620162626803
 31
0.0
  0
ARC
  5
C30
330
443
100
AcDbEntity
  8
0
100
AcDbCircle
 10
-26.40234642165451
 20
64.3120162632255
 30
0.0
 40
3.0
100
AcDbArc
 50
270.0
 51
0.0
  0
LINE
  5
C31
330
443
100
AcDbEntity
  8
0
100
AcDbLine
 10
-26.40234642165451
 20
61.3120162632255
 30
0.0
 11
-32.97781055879141
 21
61.3120162632255
 31
0.0
  0
LINE
  5
C32
330
443
100
AcDbEntity
  8
0
100
AcDbLine
 10
-34.90571700161078
 20
66.26201626267999
 30
0.0
 11
-34.90571700161078
 21
63.7190573030156
 31
0.0
  0
ARC
  5
C33
330
443
100
AcDbEntity
  8
0
100
AcDbCircle
 10
-26.40234642165453
 20
66.84270349651447
 30
0.0
 40
3.0
100
AcDbArc
 50
0.0
 51
15.91347419772272
  0
LINE
  5
C34
330
443
100
AcDbEntity
  8
0
100
AcDbLine
 10
-23.40234642165453
 20
66.8427034965145
 30
0.0
 11
-23.4023464216545
 21
64.3120162632255
 31
0.0
  0
LINE
  5
C35
330
443
100
AcDbEntity
  8
2
100
AcDbLine
 10
49.49324477559542
 20
12.83195706345472
 30
0.0
 11
49.49324477559542
 21
9.831957063454609
 31
0.0
  0
LINE
  5
C36
330
443
100
AcDbEntity
  8
2
100
AcDbLine
 10
46.99324477559531
 20
-11.86804293654532
 30
0.0
 11
46.99324477559542
 21
13.8319570634546
 31
0.0
  0
ARC
  5
C37
330
443
100
AcDbEntity
  8
0
100
AcDbCircle
 10
34.06289694124279
 20
12.49957324755482
 30
0.0
 40
3.0
100
AcDbArc
 50
180.0
 51
222.644279164525
  0
LINE
  5
C38
330
443
100
AcDbEntity
  8
2
100
AcDbLine
 10
48.94024477559532
 20
-12.16804293654539
 30
0.0
 11
50.94024477559543
 21
-10.16804293654539
 31
0.0
  0
LINE
  5
C39
330
443
100
AcDbEntity
  8
2
100
AcDbLine
 10
49.99324477559532
 20
-11.11504293654539
 30
0.0
 11
49.99324477559532
 21
9.831957063454609
 31
0.0
  0
LINE
  5
C3A
330
443
100
AcDbEntity
  8
0
100
AcDbLine
 10
39.99324477559543
 20
0.8512992207505192
 30
0.0
 11
39.99324477559543
 21
-10.86804293654532
 31
0.0
  0
LINE
  5
C3B
330
443
100
AcDbEntity
  8
0
100
AcDbLine
 10
40.99324477559543
 20
-11.86804293654532
 30
0.0
 11
39.99324477559543
 21
-10.86804293654532
 31
0.0
  0
LINE
  5
C3C
330
443
100
AcDbEntity
  8
0
100
AcDbLine
 10
46.99324477559531
 20
-11.86804293654532
 30
0.0
 11
46.99324477559531
 21
-12.16804293654527
 31
0.0
  0
ARC
  5
C3D
330
443
100
AcDbEntity
  8
0
100
AcDbCircle
 10
37.99324477559542
 20
0.8512992207505192
 30
0.0
 40
2.0
100
AcDbArc
 50
0.0
 51
42.64427916452505
  0
LINE
  5
C3E
330
443
100
AcDbEntity
  8
0
100
AcDbLine
 10
31.85617564337173
 20
10.46723933957568
 30
0.0
 11
39.46439230750951
 21
2.206188492736572
 31
0.0
  0
LINE
  5
C3F
330
443
100
AcDbEntity
  8
2
100
AcDbLine
 10
50.94024477559543
 20
-10.16804293654539
 30
0.0
 11
50.94024477559543
 21
9.831957063454609
 31
0.0
  0
LINE
  5
C40
330
443
100
AcDbEntity
  8
0
100
AcDbLine
 10
40.77791322889289
 20
22.83195706345472
 30
0.0
 11
34.06289694124279
 21
22.83195706345472
 31
0.0
  0
LINE
  5
C41
330
443
100
AcDbEntity
  8
0
100
AcDbLine
 10
32.44154256961337
 20
11.32858648349847
 30
0.0
 11
40.3685992462739
 21
11.32858648349847
 31
0.0
  0
ARC
  5
C42
330
443
100
AcDbEntity
  8
0
100
AcDbCircle
 10
34.06289694124279
 20
19.83195706345472
 30
0.0
 40
3.0
100
AcDbArc
 50
90.0
 51
180.0
  0
LINE
  5
C43
330
443
100
AcDbEntity
  8
0
100
AcDbLine
 10
31.0628969412428
 20
19.83195706345472
 30
0.0
 11
31.06289694124285
 21
12.49957538003545
 31
0.0
  0
LINE
  5
C44
330
443
100
AcDbEntity
  8
0
100
AcDbLine
 10
41.36859924627759
 20
21.74273963320487
 30
0.0
 11
41.36859924627754
 21
12.32858648349665
 31
0.0
  0
ARC
  5
C45
330
443
100
AcDbEntity
  8
2
100
AcDbCircle
 10
46.99324477559542
 20
16.3319570634546
 30
0.0
 40
0.5
100
AcDbArc
 50
0.0
 51
90.0
  0
LINE
  5
C46
330
443
100
AcDbEntity
  8
2
100
AcDbLine
 10
45.49324477559543
 20
17.83195706345461
 30
0.0
 11
53.57346186117519
 21
17.83195706345472
 31
0.0
  0
LINE
  5
C47
330
443
100
AcDbEntity
  8
2
100
AcDbLine
 10
45.49324477559543
 20
17.83195706345461
 30
0.0
 11
45.49324477559543
 21
16.8319570634546
 31
0.0
  0
LINE
  5
C48
330
443
100
AcDbEntity
  8
2
100
AcDbLine
 10
47.49324477559542
 20
16.3319570634546
 30
0.0
 11
47.49324477559532
 21
12.83195706345461
 31
0.0
  0
ARC
  5
C49
330
443
100
AcDbEntity
  8
0
100
AcDbCircle
 10
40.77791322889289
 20
19.83195706345472
 30
0.0
 40
3.0
100
AcDbArc
 50
67.72242294524279
 51
90.0
  0
ARC
  5
C4A
330
443
100
AcDbEntity
  8
0
100
AcDbCircle
 10
25.61585310940671
 20
98.54264536214415
 30
0.0
 40
15.0
100
AcDbArc
 50
343.5000000000004
 51
16.49999999999958
  0
ARC
  5
C4B
330
443
100
AcDbEntity
  8
0
100
AcDbCircle
 10
24.68440772022046
 20
98.54264542320093
 30
0.0
 40
15.0
100
AcDbArc
 50
343.5000000000004
 51
16.49999999999958
  0
LINE
  5
C4C
330
443
100
AcDbEntity
  8
0
100
AcDbLine
 10
32.52038088779414
 20
69.03789267044666
 30
0.0
 11
39.9981491324296
 21
94.28241519158527
 31
0.0
  0
LINE
  5
C4D
330
443
100
AcDbEntity
  8
0
100
AcDbLine
 10
31.65358870776282
 20
69.25615824664252
 30
0.0
 11
39.06670374324335
 21
94.2824152526421
 31
0.0
  0
ARC
  5
C4E
330
443
100
AcDbEntity
  8
0
100
AcDbCircle
 10
40.72706261408455
 20
64.83888174127284
 30
0.0
 40
2.0
100
AcDbArc
 50
245.6317626078978
 51
316.4999999999992
  0
ARC
  5
C4F
330
443
100
AcDbEntity
  8
0
100
AcDbCircle
 10
40.62410786684489
 20
64.88570505735541
 30
0.0
 40
3.0
100
AcDbArc
 50
245.4566199041983
 51
316.5000000000002
  0
ARC
  5
C50
330
443
100
AcDbEntity
  8
0
100
AcDbCircle
 10
55.99324477559531
 20
98.54264536214381
 30
0.0
 40
39.0
100
AcDbArc
 50
234.3682373921021
 51
245.6317626078978
  0
ARC
  5
C51
330
443
100
AcDbEntity
  8
0
100
AcDbCircle
 10
55.99324477559531
 20
98.54264536214381
 30
0.0
 40
40.0
100
AcDbArc
 50
234.5433800958025
 51
245.4566199041983
  0
ARC
  5
C52
330
443
100
AcDbEntity
  8
0
100
AcDbCircle
 10
34.53004791236736
 20
68.40411221253074
 30
0.0
 40
3.0
100
AcDbArc
 50
163.5000000000004
 51
234.5433800958026
  0
ARC
  5
C53
330
443
100
AcDbEntity
  8
0
100
AcDbCircle
 10
34.43802035753054
 20
68.46986198103881
 30
0.0
 40
2.0
100
AcDbArc
 50
163.5000000000004
 51
234.3682373921021
  0
LINE
  5
C54
330
443
100
AcDbEntity
  8
0
100
AcDbLine
 10
32.52038088779443
 20
128.0473980538408
 30
0.0
 11
39.9981491324296
 21
102.8028755327029
 31
0.0
  0
LINE
  5
C55
330
443
100
AcDbEntity
  8
0
100
AcDbLine
 10
31.65358870776305
 20
127.829132477645
 30
0.0
 11
39.06670374324335
 21
102.8028755937597
 31
0.0
  0
ARC
  5
C56
330
443
100
AcDbEntity
  8
0
100
AcDbCircle
 10
40.7270626140845
 20
132.246408983015
 30
0.0
 40
2.0
100
AcDbArc
 50
43.49999999999965
 51
114.3682373921022
  0
ARC
  5
C57
330
443
100
AcDbEntity
  8
0
100
AcDbCircle
 10
40.62410786684518
 20
132.1995856669321
 30
0.0
 40
3.0
100
AcDbArc
 50
43.49999999999979
 51
114.5433800958026
  0
ARC
  5
C58
330
443
100
AcDbEntity
  8
0
100
AcDbCircle
 10
34.53004791236764
 20
128.6811785117567
 30
0.0
 40
3.0
100
AcDbArc
 50
125.4566199041983
 51
196.5000000000006
  0
ARC
  5
C59
330
443
100
AcDbEntity
  8
0
100
AcDbCircle
 10
34.43802035753077
 20
128.6154287432487
 30
0.0
 40
2.0
100
AcDbArc
 50
125.6317626078978
 51
196.4999999999995
  0
ARC
  5
C5A
330
443
100
AcDbEntity
  8
0
100
AcDbCircle
 10
55.99324477559554
 20
98.54264536214381
 30
0.0
 40
39.0
100
AcDbArc
 50
114.3682373921021
 51
125.6317626078978
  0
ARC
  5
C5B
330
443
100
AcDbEntity
  8
0
100
AcDbCircle
 10
55.99324477559554
 20
98.54264536214381
 30
0.0
 40
40.0
100
AcDbArc
 50
114.5433800958017
 51
125.4566199041975
  0
LINE
  5
C5C
330
443
100
AcDbEntity
  8
0
100
AcDbLine
 10
154.6270967520331
 20
110.6575840006927
 30
0.0
 11
144.7831667980281
 21
103.9789481818797
 31
0.0
  0
LINE
  5
C5D
330
443
100
AcDbEntity
  8
0
100
AcDbLine
 10
151.9528821389258
 20
110.0516848888606
 30
0.0
 11
144.051750133318
 21
104.6911445895716
 31
0.0
  0
LINE
  5
C5E
330
443
100
AcDbEntity
  8
0
100
AcDbLine
 10
133.7733810940524
 20
103.3280954471722
 30
0.0
 11
139.548458850223
 21
110.794521415819
 31
0.0
  0
LINE
  5
C5F
330
443
100
AcDbEntity
  8
0
100
AcDbLine
 10
166.8463798256065
 20
82.54264536214359
 30
0.0
 11
166.8463798256066
 21
114.5426453621435
 31
0.0
  0
LINE
  5
C60
330
443
100
AcDbEntity
  8
0
100
AcDbLine
 10
138.1463798256066
 20
111.7926453621435
 30
0.0
 11
138.1463798256066
 21
108.9818152183473
 31
0.0
  0
LINE
  5
C61
330
443
100
AcDbEntity
  8
0
100
AcDbLine
 10
167.8463798256066
 20
113.5426453621436
 30
0.0
 11
167.8463798256066
 21
83.54264536214358
 31
0.0
  0
ARC
  5
C62
330
443
100
AcDbEntity
  8
0
100
AcDbCircle
 10
92.99324477559554
 20
13.35211203402568
 30
0.0
 40
3.0
100
AcDbArc
 50
291.9999999999996
 51
0.0
  0
LINE
  5
C63
330
443
100
AcDbEntity
  8
2
100
AcDbLine
 10
62.49324477559543
 20
12.83195706345472
 30
0.0
 11
62.49324477559543
 21
9.831957063454723
 31
0.0
  0
LINE
  5
C64
330
443
100
AcDbEntity
  8
2
100
AcDbLine
 10
64.99324477559532
 20
-11.86804293654532
 30
0.0
 11
64.99324477559532
 21
13.83195706345472
 31
0.0
  0
LINE
  5
C65
330
443
100
AcDbEntity
  8
0
100
AcDbLine
 10
69.54420321407411
 20
2.260282158456078
 30
0.0
 11
93.55515466571938
 21
11.96133625217552
 31
0.0
  0
LINE
  5
C66
330
443
100
AcDbEntity
  8
1
100
AcDbLine
 10
55.99324477559543
 20
22.83195706345472
 30
0.0
 11
55.99324477559543
 21
-17.16804293654527
 31
0.0
  0
LINE
  5
C67
330
443
100
AcDbEntity
  8
0
100
AcDbLine
 10
71.33644425852953
 20
1.366592429417977
 30
0.0
 11
94.11706687471536
 21
10.57056140721041
 31
0.0
  0
LINE
  5
C68
330
443
100
AcDbEntity
  8
2
100
AcDbLine
 10
61.99324477559532
 20
-11.11504293654539
 30
0.0
 11
61.99324477559532
 21
9.831957063454723
 31
0.0
  0
LINE
  5
C69
330
443
100
AcDbEntity
  8
0
100
AcDbLine
 10
71.99324477559542
 20
0.2829434682914495
 30
0.0
 11
71.99324477559542
 21
-10.86804293654532
 31
0.0
  0
LINE
  5
C6A
330
443
100
AcDbEntity
  8
2
100
AcDbLine
 10
63.04624477559542
 20
-12.16804293654539
 30
0.0
 11
61.04624477559543
 21
-10.16804293654539
 31
0.0
  0
LINE
  5
C6B
330
443
100
AcDbEntity
  8
0
100
AcDbLine
 10
64.99324477559532
 20
-11.86804293654532
 30
0.0
 11
64.99324477559532
 21
-12.16804293654527
 31
0.0
  0
LINE
  5
C6C
330
443
100
AcDbEntity
  8
0
100
AcDbLine
 10
71.99324477559542
 20
-10.86804293654532
 30
0.0
 11
70.99324477559543
 21
-11.86804293654532
 31
0.0
  0
LINE
  5
C6D
330
443
100
AcDbEntity
  8
0
100
AcDbLine
 10
64.50935401544308
 20
2.710651277111509
 30
0.0
 11
69.35950554680568
 21
1.272002812863632
 31
0.0
  0
LINE
  5
C6E
330
443
100
AcDbEntity
  8
2
100
AcDbLine
 10
61.04624477559543
 20
-10.16804293654539
 30
0.0
 11
61.04624477559543
 21
9.831957063454723
 31
0.0
  0
ARC
  5
C6F
330
443
100
AcDbEntity
  8
0
100
AcDbCircle
 10
60.87720311266076
 20
4.930816611944663
 30
0.0
 40
3.0
100
AcDbArc
 50
243.4410804172067
 51
292.7339029440626
  0
LINE
  5
C70
330
443
100
AcDbEntity
  8
0
100
AcDbLine
 10
62.03655868404172
 20
2.163887870703291
 30
0.0
 11
63.16770434687163
 21
2.637842984435991
 31
0.0
  0
ARC
  5
C71
330
443
100
AcDbEntity
  8
0
100
AcDbCircle
 10
63.94060806112571
 20
0.793223823608372
 30
0.0
 40
2.0
100
AcDbArc
 50
73.47862792962978
 51
112.7339029440625
  0
ARC
  5
C72
330
443
100
AcDbEntity
  8
0
100
AcDbCircle
 10
73.99324477559543
 20
0.2829400297698328
 30
0.0
 40
2.0
100
AcDbArc
 50
111.9999999999996
 51
180.0
  0
ARC
  5
C73
330
443
100
AcDbEntity
  8
0
100
AcDbCircle
 10
70.21262447828184
 20
4.148143993118395
 30
0.0
 40
3.0
100
AcDbArc
 50
253.4786279296297
 51
291.9999999999995
  0
LINE
  5
C74
330
443
100
AcDbEntity
  8
0
100
AcDbLine
 10
92.21678764028792
 20
22.72973454232189
 30
0.0
 11
63.58092685624928
 21
15.05677877066872
 31
0.0
  0
LINE
  5
C75
330
443
100
AcDbEntity
  8
0
100
AcDbLine
 10
92.60501620794167
 20
21.28084580288825
 30
0.0
 11
65.87263865607991
 21
14.11792682610311
 31
0.0
  0
LINE
  5
C76
330
443
100
AcDbEntity
  8
0
100
AcDbLine
 10
70.23537031699589
 20
16.83983152205425
 30
0.0
 11
69.24324477559543
 21
17.83195706345472
 31
0.0
  0
LINE
  5
C77
330
443
100
AcDbEntity
  8
0
100
AcDbLine
 10
70.20598243742
 20
16.83195706345472
 30
0.0
 11
56.01443438415464
 21
16.83195706345472
 31
0.0
  0
ARC
  5
C78
330
443
100
AcDbEntity
  8
0
100
AcDbCircle
 10
62.02801258563415
 20
20.85233372840306
 30
0.0
 40
6.0
100
AcDbArc
 50
247.7224229452428
 51
285.0000000000003
  0
LINE
  5
C79
330
443
100
AcDbEntity
  8
2
100
AcDbLine
 10
64.49324477559532
 20
16.33195706345472
 30
0.0
 11
64.49324477559532
 21
12.83195706345472
 31
0.0
  0
ARC
  5
C7A
330
443
100
AcDbEntity
  8
0
100
AcDbCircle
 10
64.31972438546478
 20
19.91348178383745
 30
0.0
 40
6.0
100
AcDbArc
 50
247.7224229452428
 51
285.0000000000003
  0
ARC
  5
C7B
330
443
100
AcDbEntity
  8
2
100
AcDbCircle
 10
64.99324477559532
 20
16.33195706345472
 30
0.0
 40
0.5
100
AcDbArc
 50
89.9999999999992
 51
180.0
  0
LINE
  5
C7C
330
443
100
AcDbEntity
  8
2
100
AcDbLine
 10
66.49324477559531
 20
17.83195706345461
 30
0.0
 11
66.49324477559543
 21
16.8319570634546
 31
0.0
  0
ARC
  5
C7D
330
443
100
AcDbEntity
  8
0
100
AcDbCircle
 10
92.99324477559668
 20
19.83195706345472
 30
0.0
 40
3.0
100
AcDbArc
 50
359.9999484834828
 51
105.0000430944503
  0
LINE
  5
C7E
330
443
100
AcDbEntity
  8
0
100
AcDbLine
 10
95.99324477559553
 20
19.83195436605635
 30
0.0
 11
95.99324477559553
 21
13.35210969801013
 31
0.0
  0
LINE
  5
C7F
330
443
100
AcDbEntity
  8
2
100
AcDbLine
 10
167.8463798256066
 20
89.54264536214358
 30
0.0
 11
142.1463798256066
 21
89.54264536214358
 31
0.0
  0
LINE
  5
C80
330
443
100
AcDbEntity
  8
2
100
AcDbLine
 10
167.8463798256066
 20
107.5426453621435
 30
0.0
 11
142.1463798256066
 21
107.5426453621435
 31
0.0
  0
LINE
  5
C81
330
443
100
AcDbEntity
  8
2
100
AcDbLine
 10
143.1463798256066
 20
105.0426453621435
 30
0.0
 11
146.1463798256066
 21
105.0426453621435
 31
0.0
  0
LINE
  5
C82
330
443
100
AcDbEntity
  8
2
100
AcDbLine
 10
143.1463798256066
 20
92.04264536214358
 30
0.0
 11
146.1463798256066
 21
92.04264536214358
 31
0.0
  0
LINE
  5
C83
330
443
100
AcDbEntity
  8
0
100
AcDbLine
 10
154.6270967520331
 20
86.42770672359446
 30
0.0
 11
144.7831667972683
 21
93.10634254292299
 31
0.0
  0
LINE
  5
C84
330
443
100
AcDbEntity
  8
0
100
AcDbLine
 10
151.9528821389258
 20
87.03360583542664
 30
0.0
 11
144.0517501322869
 21
92.39414613541518
 31
0.0
  0
LINE
  5
C85
330
443
100
AcDbEntity
  8
0
100
AcDbLine
 10
152.3310804989788
 20
81.74073835429837
 30
0.0
 11
144.0862694675397
 21
63.68884450370657
 31
0.0
  0
LINE
  5
C86
330
443
100
AcDbEntity
  8
1
100
AcDbLine
 10
128.1463798256065
 20
98.54264536214358
 30
0.0
 11
173.1463798256066
 21
98.54264536214358
 31
0.0
  0
ARC
  5
C87
330
443
100
AcDbEntity
  8
0
100
AcDbCircle
 10
142.7218439627435
 20
64.31201626322543
 30
0.0
 40
3.0
100
AcDbArc
 50
270.0
 51
335.4524777551071
  0
LINE
  5
C88
330
443
100
AcDbEntity
  8
0
100
AcDbLine
 10
153.8124167810912
 20
81.37354104150208
 30
0.0
 11
145.4506949723358
 21
63.06567274418782
 31
0.0
  0
LINE
  5
C89
330
443
100
AcDbEntity
  8
2
100
AcDbLine
 10
168.1463798256066
 20
105.5956453621435
 30
0.0
 11
166.1463798256066
 21
103.5956453621435
 31
0.0
  0
LINE
  5
C8A
330
443
100
AcDbEntity
  8
2
100
AcDbLine
 10
168.1463798256066
 20
91.48964536214348
 30
0.0
 11
166.1463798256066
 21
93.48964536214358
 31
0.0
  0
LINE
  5
C8B
330
443
100
AcDbEntity
  8
2
100
AcDbLine
 10
167.0933798256067
 20
92.54264536214359
 30
0.0
 11
146.1463798256066
 21
92.54264536214359
 31
0.0
  0
LINE
  5
C8C
330
443
100
AcDbEntity
  8
2
100
AcDbLine
 10
167.0933798256067
 20
104.5426453621435
 30
0.0
 11
146.1463798256066
 21
104.5426453621435
 31
0.0
  0
LINE
  5
C8D
330
443
100
AcDbEntity
  8
0
100
AcDbLine
 10
155.6316507874861
 20
82.54264536214359
 30
0.0
 11
166.8463798256066
 21
82.54264536214359
 31
0.0
  0
LINE
  5
C8E
330
443
100
AcDbEntity
  8
0
100
AcDbLine
 10
168.1463798256065
 20
107.5426453621434
 30
0.0
 11
168.1463798256065
 21
89.54264536214347
 31
0.0
  0
LINE
  5
C8F
330
443
100
AcDbEntity
  8
0
100
AcDbLine
 10
167.8463798256066
 20
83.54264536214358
 30
0.0
 11
166.8463798256066
 21
82.54264536214359
 31
0.0
  0
LINE
  5
C90
330
443
100
AcDbEntity
  8
0
100
AcDbLine
 10
167.8463798256066
 20
89.54264536214347
 30
0.0
 11
168.1463798256065
 21
89.54264536214347
 31
0.0
  0
LINE
  5
C91
330
443
100
AcDbEntity
  8
0
100
AcDbLine
 10
167.8463798256066
 20
107.5426453621434
 30
0.0
 11
168.1463798256065
 21
107.5426453621434
 31
0.0
  0
LINE
  5
C92
330
443
100
AcDbEntity
  8
2
100
AcDbLine
 10
166.1463798256066
 20
103.5956453621435
 30
0.0
 11
166.1463798256066
 21
93.48964536214358
 31
0.0
  0
LINE
  5
C93
330
443
100
AcDbEntity
  8
2
100
AcDbLine
 10
146.1463798256066
 20
105.0426453621435
 30
0.0
 11
146.1463798256066
 21
92.04264536214358
 31
0.0
  0
LINE
  5
C94
330
443
100
AcDbEntity
  8
0
100
AcDbLine
 10
154.3463798256065
 20
109.2587033432374
 30
0.0
 11
154.3463798256065
 21
87.82658738104974
 31
0.0
  0
LINE
  5
C95
330
443
100
AcDbEntity
  8
2
100
AcDbLine
 10
166.1463798256066
 20
93.48964536214358
 30
0.0
 11
146.1463798256066
 21
93.48964536214358
 31
0.0
  0
ARC
  5
C96
330
443
100
AcDbEntity
  8
0
100
AcDbCircle
 10
154.5287168955703
 20
83.85553925841517
 30
0.0
 40
2.0
100
AcDbArc
 50
157.6194913225448
 51
188.2046477917989
  0
ARC
  5
C97
330
443
100
AcDbEntity
  8
0
100
AcDbCircle
 10
149.6022294893865
 20
82.98708187333598
 30
0.0
 40
3.0
100
AcDbArc
 50
335.4524777551071
 51
8.204647791798871
  0
LINE
  5
C98
330
443
100
AcDbEntity
  8
0
100
AcDbLine
 10
152.5715234624754
 20
83.41520954281994
 30
0.0
 11
152.5491875801776
 21
83.57012081209253
 31
0.0
  0
ARC
  5
C99
330
443
100
AcDbEntity
  8
0
100
AcDbCircle
 10
155.6316507874861
 20
80.54264536214358
 30
0.0
 40
2.0
100
AcDbArc
 50
90.0
 51
155.4524777551071
  0
ARC
  5
C9A
330
443
100
AcDbEntity
  8
0
100
AcDbCircle
 10
150.8300144332198
 20
85.3785625986854
 30
0.0
 40
2.0
100
AcDbArc
 50
337.6194913225457
 51
55.84498366966258
  0
LINE
  5
C9B
330
443
100
AcDbEntity
  8
2
100
AcDbLine
 10
166.1463798256066
 20
103.5956453621435
 30
0.0
 11
146.1463798256066
 21
103.5956453621435
 31
0.0
  0
LINE
  5
C9C
330
443
100
AcDbEntity
  8
0
100
AcDbLine
 10
141.9723163834841
 20
84.45799792296018
 30
0.0
 11
134.7389185473462
 21
64.83071921308962
 31
0.0
  0
LINE
  5
C9D
330
443
100
AcDbEntity
  8
0
100
AcDbLine
 10
139.9903826751897
 20
83.41791332223712
 30
0.0
 11
133.3314572690858
 21
65.3494221629538
 31
0.0
  0
ARC
  5
C9E
330
443
100
AcDbEntity
  8
0
100
AcDbCircle
 10
136.1463798256065
 20
64.31201626322543
 30
0.0
 40
3.0
100
AcDbArc
 50
159.7691731705751
 51
269.9999635723241
  0
LINE
  5
C9F
330
443
100
AcDbEntity
  8
0
100
AcDbLine
 10
136.1463779182578
 20
61.31201626322544
 30
0.0
 11
142.7218439627435
 21
61.31201626322544
 31
0.0
  0
LINE
  5
CA0
330
443
100
AcDbEntity
  8
2
100
AcDbLine
 10
142.1463798256066
 20
107.5426453621435
 30
0.0
 11
142.1463798256066
 21
89.54264536214358
 31
0.0
  0
LINE
  5
CA1
330
443
100
AcDbEntity
  8
2
100
AcDbLine
 10
143.1463798256066
 20
107.0426453621435
 30
0.0
 11
143.1463798256066
 21
90.04264536214359
 31
0.0
  0
LINE
  5
CA2
330
443
100
AcDbEntity
  8
2
100
AcDbLine
 10
139.1463798256066
 20
109.0426453621435
 30
0.0
 11
139.1463798256058
 21
88.04264536214359
 31
0.0
  0
ARC
  5
CA3
330
443
100
AcDbEntity
  8
0
100
AcDbCircle
 10
141.6497504055629
 20
95.59264536361782
 30
0.0
 40
3.0
100
AcDbArc
 50
270.0
 51
0.0
  0
ARC
  5
CA4
330
443
100
AcDbEntity
  8
0
100
AcDbCircle
 10
136.1463798256065
 20
95.59264536361782
 30
0.0
 40
3.0
100
AcDbArc
 50
180.0
 51
270.0
  0
LINE
  5
CA5
330
443
100
AcDbEntity
  8
0
100
AcDbLine
 10
133.7733810940524
 20
93.75719527711508
 30
0.0
 11
139.548458850223
 21
86.29076930846824
 31
0.0
  0
LINE
  5
CA6
330
443
100
AcDbEntity
  8
0
100
AcDbLine
 10
138.1463798256066
 20
88.10347550594006
 30
0.0
 11
138.1463798256066
 21
85.2926453621437
 31
0.0
  0
LINE
  5
CA7
330
443
100
AcDbEntity
  8
0
100
AcDbLine
 10
139.1463798256066
 20
84.29264536214359
 30
0.0
 11
140.1710464077505
 21
84.29264536214359
 31
0.0
  0
ARC
  5
CA8
330
443
100
AcDbEntity
  8
0
100
AcDbCircle
 10
137.175460118669
 20
84.45531922196547
 30
0.0
 40
3.0
100
AcDbArc
 50
339.7692415312995
 51
37.72097811209479
  0
LINE
  5
CA9
330
443
100
AcDbEntity
  8
0
100
AcDbLine
 10
139.1463798256066
 20
86.81060529987755
 30
0.0
 11
139.1463798256066
 21
84.29264536214359
 31
0.0
  0
LINE
  5
CAA
330
443
100
AcDbEntity
  8
0
100
AcDbLine
 10
139.1463798256066
 20
84.29264536214359
 30
0.0
 11
138.1463798256066
 21
85.29264536214359
 31
0.0
  0
LINE
  5
CAB
330
443
100
AcDbEntity
  8
2
100
AcDbLine
 10
139.6463798256066
 20
90.04264536214359
 30
0.0
 11
143.1463798256066
 21
90.04264536214359
 31
0.0
  0
LINE
  5
CAC
330
443
100
AcDbEntity
  8
0
100
AcDbLine
 10
136.1463798256065
 20
92.59264536361783
 30
0.0
 11
141.6497504055629
 21
92.59264536361783
 31
0.0
  0
LINE
  5
CAD
330
443
100
AcDbEntity
  8
2
100
AcDbLine
 10
138.1463798256066
 20
88.04264536214359
 30
0.0
 11
139.1463798256066
 21
88.04264536214359
 31
0.0
  0
ARC
  5
CAE
330
443
100
AcDbEntity
  8
2
100
AcDbCircle
 10
139.6463798256066
 20
89.54264536214358
 30
0.0
 40
0.5
100
AcDbArc
 50
90.0
 51
180.0
  0
ARC
  5
CAF
330
443
100
AcDbEntity
  8
0
100
AcDbCircle
 10
136.1463798256065
 20
101.4926453621433
 30
0.0
 40
3.0
100
AcDbArc
 50
90.0
 51
180.0
  0
ARC
  5
CB0
330
443
100
AcDbEntity
  8
0
100
AcDbCircle
 10
141.6497504055628
 20
101.4926453621433
 30
0.0
 40
3.0
100
AcDbArc
 50
0.0
 51
90.0
  0
LINE
  5
CB1
330
443
100
AcDbEntity
  8
0
100
AcDbLine
 10
144.6497504055629
 20
95.59264536361784
 30
0.0
 11
144.6497504055629
 21
101.4926453621434
 31
0.0
  0
LINE
  5
CB2
330
443
100
AcDbEntity
  8
2
100
AcDbLine
 10
139.6463798256066
 20
107.0426453621435
 30
0.0
 11
143.1463798256066
 21
107.0426453621435
 31
0.0
  0
LINE
  5
CB3
330
443
100
AcDbEntity
  8
0
100
AcDbLine
 10
136.1463798256065
 20
104.4926453621433
 30
0.0
 11
141.6497504055629
 21
104.4926453621433
 31
0.0
  0
LINE
  5
CB4
330
443
100
AcDbEntity
  8
2
100
AcDbLine
 10
138.1463798256066
 20
109.0426453621435
 30
0.0
 11
139.1463798256066
 21
109.0426453621435
 31
0.0
  0
ARC
  5
CB5
330
443
100
AcDbEntity
  8
2
100
AcDbCircle
 10
139.6463798256066
 20
107.5426453621435
 30
0.0
 40
0.5
100
AcDbArc
 50
179.9999999999991
 51
270.0
  0
LINE
  5
CB6
330
443
100
AcDbEntity
  8
0
100
AcDbLine
 10
133.1463798256065
 20
95.59264536361784
 30
0.0
 11
133.1463798256065
 21
101.4926453621434
 31
0.0
  0
LINE
  5
CB7
330
443
100
AcDbEntity
  8
0
100
AcDbLine
 10
152.3310804989788
 20
115.3445523699888
 30
0.0
 11
144.0862694675397
 21
133.3964462205806
 31
0.0
  0
ARC
  5
CB8
330
443
100
AcDbEntity
  8
0
100
AcDbCircle
 10
142.7218439627435
 20
132.7732744610618
 30
0.0
 40
3.0
100
AcDbArc
 50
24.54752224489291
 51
90.0
  0
LINE
  5
CB9
330
443
100
AcDbEntity
  8
0
100
AcDbLine
 10
155.6316507874861
 20
114.5426453621435
 30
0.0
 11
166.8463798256066
 21
114.5426453621435
 31
0.0
  0
LINE
  5
CBA
330
443
100
AcDbEntity
  8
0
100
AcDbLine
 10
166.8463798256066
 20
114.5426453621435
 30
0.0
 11
167.8463798256066
 21
113.5426453621436
 31
0.0
  0
LINE
  5
CBB
330
443
100
AcDbEntity
  8
0
100
AcDbLine
 10
153.8124167810912
 20
115.7117496827853
 30
0.0
 11
145.4506949723358
 21
134.0196179800994
 31
0.0
  0
ARC
  5
CBC
330
443
100
AcDbEntity
  8
0
100
AcDbCircle
 10
154.5287168955703
 20
113.2297514658721
 30
0.0
 40
2.0
100
AcDbArc
 50
171.7953522082011
 51
202.380508677455
  0
ARC
  5
CBD
330
443
100
AcDbEntity
  8
0
100
AcDbCircle
 10
150.8300144332198
 20
111.7067281256017
 30
0.0
 40
2.0
100
AcDbArc
 50
304.1550163303374
 51
22.38050867745425
  0
LINE
  5
CBE
330
443
100
AcDbEntity
  8
0
100
AcDbLine
 10
152.5715234624754
 20
113.6700811814672
 30
0.0
 11
152.5491875801776
 21
113.5151699121947
 31
0.0
  0
ARC
  5
CBF
330
443
100
AcDbEntity
  8
0
100
AcDbCircle
 10
149.6022294893865
 20
114.0982088509511
 30
0.0
 40
3.0
100
AcDbArc
 50
351.7953522082011
 51
24.54752224489291
  0
ARC
  5
CC0
330
443
100
AcDbEntity
  8
0
100
AcDbCircle
 10
155.6316507874861
 20
116.5426453621436
 30
0.0
 40
2.0
100
AcDbArc
 50
204.5475222448928
 51
270.0
  0
LINE
  5
CC1
330
443
100
AcDbEntity
  8
0
100
AcDbLine
 10
139.9903826751897
 20
113.6673774020501
 30
0.0
 11
133.3314572690858
 21
131.7358685613335
 31
0.0
  0
LINE
  5
CC2
330
443
100
AcDbEntity
  8
0
100
AcDbLine
 10
141.9723163834841
 20
112.6272928013271
 30
0.0
 11
134.7389185473462
 21
132.2545715111976
 31
0.0
  0
ARC
  5
CC3
330
443
100
AcDbEntity
  8
0
100
AcDbCircle
 10
137.175460118669
 20
112.6299715023217
 30
0.0
 40
3.0
100
AcDbArc
 50
322.2790218879052
 51
20.2307584687004
  0
LINE
  5
CC4
330
443
100
AcDbEntity
  8
0
100
AcDbLine
 10
139.1463798256066
 20
112.7926453621437
 30
0.0
 11
140.1710464077505
 21
112.7926453621437
 31
0.0
  0
LINE
  5
CC5
330
443
100
AcDbEntity
  8
0
100
AcDbLine
 10
139.1463798256066
 20
112.792645362143
 30
0.0
 11
139.1463798256066
 21
110.2746854244098
 31
0.0
  0
LINE
  5
CC6
330
443
100
AcDbEntity
  8
0
100
AcDbLine
 10
139.1463798256066
 20
112.792645362143
 30
0.0
 11
138.1463798256066
 21
111.7926453621435
 31
0.0
  0
ARC
  5
CC7
330
443
100
AcDbEntity
  8
0
100
AcDbCircle
 10
136.1463798256065
 20
132.7732744610618
 30
0.0
 40
3.0
100
AcDbArc
 50
90.00003642767584
 51
200.2308268294249
  0
LINE
  5
CC8
330
443
100
AcDbEntity
  8
0
100
AcDbLine
 10
136.1463779182578
 20
135.7732744610618
 30
0.0
 11
142.7218439627435
 21
135.7732744610618
 31
0.0
  0
ARC
  5
CC9
330
443
100
AcDbEntity
  8
0
100
AcDbCircle
 10
55.99324477559543
 20
98.54264536214365
 30
0.0
 40
40.0
100
AcDbArc
 50
354.5433800958018
 51
5.456619904198172
  0
ARC
  5
CCA
330
443
100
AcDbEntity
  8
0
100
AcDbCircle
 10
55.99324477559543
 20
98.54264536214365
 30
0.0
 40
39.0
100
AcDbArc
 50
354.3682373921023
 51
5.631762607897639
  0
LINE
  5
CCB
330
443
100
AcDbEntity
  8
1
100
AcDbLine
 10
55.99324477559543
 20
136.5943157324768
 30
0.0
 11
55.99324477559543
 21
61.20362401613826
 31
0.0
  0
LINE
  5
CCC
330
443
100
AcDbEntity
  8
0
100
AcDbLine
 10
93.52591463914137
 20
92.10712844577527
 30
0.0
 11
68.14598464884835
 21
86.01394634816548
 31
0.0
  0
LINE
  5
CCD
330
443
100
AcDbEntity
  8
0
100
AcDbLine
 10
93.28154208288305
 20
92.96692528158208
 30
0.0
 11
67.68026015085087
 21
86.82060128447957
 31
0.0
  0
ARC
  5
CCE
330
443
100
AcDbEntity
  8
0
100
AcDbCircle
 10
71.64766330328262
 20
71.42839710924127
 30
0.0
 40
15.0
100
AcDbArc
 50
103.5
 51
136.5000000000001
  0
ARC
  5
CCF
330
443
100
AcDbEntity
  8
0
100
AcDbCircle
 10
71.18194060868944
 20
72.23505247851446
 30
0.0
 40
15.0
100
AcDbArc
 50
103.5
 51
136.5000000000001
  0
ARC
  5
CD0
330
443
100
AcDbEntity
  8
0
100
AcDbCircle
 10
92.82557854757369
 20
95.02423820696824
 30
0.0
 40
3.0
100
AcDbArc
 50
283.5
 51
354.5433800958018
  0
ARC
  5
CD1
330
443
100
AcDbEntity
  8
0
100
AcDbCircle
 10
92.81465135517128
 20
94.91166512237734
 30
0.0
 40
2.0
100
AcDbArc
 50
283.4999999999992
 51
354.3682373921023
  0
LINE
  5
CD2
330
443
100
AcDbEntity
  8
0
100
AcDbLine
 10
93.52591463914137
 20
104.978162278512
 30
0.0
 11
68.14598284544473
 21
111.0713448090807
 31
0.0
  0
LINE
  5
CD3
330
443
100
AcDbEntity
  8
0
100
AcDbLine
 10
93.28154208288305
 20
104.1183654427052
 30
0.0
 11
67.68026015085144
 21
110.2646894398075
 31
0.0
  0
ARC
  5
CD4
330
443
100
AcDbEntity
  8
0
100
AcDbCircle
 10
71.64766330328331
 20
125.6568936150458
 30
0.0
 40
15.0
100
AcDbArc
 50
223.4999999999998
 51
256.4999999999999
  0
ARC
  5
CD5
330
443
100
AcDbEntity
  8
0
100
AcDbCircle
 10
71.18194060869012
 20
124.8502382457727
 30
0.0
 40
15.0
100
AcDbArc
 50
223.4999999999998
 51
256.4999999999999
  0
ARC
  5
CD6
330
443
100
AcDbEntity
  8
0
100
AcDbCircle
 10
92.82557854757369
 20
102.0610525173189
 30
0.0
 40
3.0
100
AcDbArc
 50
5.456619904198172
 51
76.50000000000074
  0
ARC
  5
CD7
330
443
100
AcDbEntity
  8
0
100
AcDbCircle
 10
92.81465135517118
 20
102.1736256019098
 30
0.0
 40
2.0
100
AcDbArc
 50
5.631762607897639
 51
76.50000000000074
  0
ENDSEC
  0
SECTION
  2
OBJECTS
  0
DICTIONARY
  5
431
330
0
100
AcDbDictionary
281
     1
  3
ACAD_GROUP
350
432
  3
ACAD_LAYOUT
350
43E
  3
ACAD_MLINESTYLE
350
43B
  3
ACAD_PLOTSETTINGS
350
43D
  3
ACAD_PLOTSTYLENAME
350
433
  3
AcDbVariableDictionary
350
86D
  3
AcmDictionary
350
828
  3
AMG
350
76D
  3
AMGSNAPSETTINGS
350
870
  3
DWGPROPS
350
ACE
  3
MAPISURF_MODULE
350
7FA
  0
DICTIONARY
  5
866
330
443
100
AcDbDictionary
280
     1
281
     1
  3
ACAD_INDEX
360
867
  0
DICTIONARY
  5
432
102
{ACAD_REACTORS
330
431
102
}
330
431
100
AcDbDictionary
281
     1
  0
DICTIONARY
  5
43E
102
{ACAD_REACTORS
330
431
102
}
330
431
100
AcDbDictionary
281
     1
  3
Model
350
446
  3
ﾚｲｱｳﾄ1
350
442
  0
DICTIONARY
  5
43B
102
{ACAD_REACTORS
330
431
102
}
330
431
100
AcDbDictionary
281
     1
  3
Standard
350
43C
  0
DICTIONARY
  5
43D
102
{ACAD_REACTORS
330
431
102
}
330
431
100
AcDbDictionary
281
     1
  0
ACDBDICTIONARYWDFLT
  5
433
102
{ACAD_REACTORS
330
431
102
}
330
431
100
AcDbDictionary
281
     1
  3
Normal
350
434
100
AcDbDictionaryWithDefault
340
434
  0
DICTIONARY
  5
86D
102
{ACAD_REACTORS
330
431
102
}
330
431
100
AcDbDictionary
281
     1
  3
DIMASSOC
350
86F
  3
INDEXCTL
350
86E
  0
DICTIONARY
  5
828
102
{ACAD_REACTORS
330
431
102
}
330
431
100
AcDbDictionary
281
     1
  3
AcmBOMDATA
350
829
  3
AcmStdDictionary
350
837
  0
DICTIONARY
  5
76D
102
{ACAD_REACTORS
330
431
102
}
330
431
100
AcDbDictionary
281
     1
  3
AcMgSettings
350
76E
  3
AMGLAYCFG
350
839
  0
DICTIONARY
  5
870
102
{ACAD_REACTORS
330
431
102
}
330
431
100
AcDbDictionary
281
     1
  3
DIMENSION
350
875
  3
FEA
350
874
  3
HATCH (1)
350
871
  3
HATCH (2)
350
872
  3
SIMPLE WELD
350
876
  3
SYMBOLS
350
873
  0
XRECORD
  5
ACE
102
{ACAD_REACTORS
330
431
102
}
330
431
100
AcDbXrecord
280
     1
  1
DWGPROPS COOKIE
  2

  3

  4

  6

  7

  8

  9

300
AmdtFileType=84
301
=
302
=
303
=
304
=
305
=
306
=
307
=
308
=
309
=
 40
0.0442769097222222
 41
2452125.683722997
 42
2454700.617091643
  1

 90
        1
  0
DICTIONARY
  5
867
102
{ACAD_REACTORS
330
866
102
}
330
866
100
AcDbDictionary
281
     1
  3
*A1
350
868
  0
LAYOUT
  5
446
102
{ACAD_REACTORS
330
43E
102
}
330
43E
100
AcDbPlotSettings
  1

  2
EPSON PM-3700C
  4

  6

 40
0.0
 41
0.0
 42
0.0
 43
0.0
 44
0.0
 45
0.0
 46
0.0
 47
0.0
 48
0.0
 49
0.0
140
0.0
141
0.0
142
1.0
143
1.0
 70
  1712
 72
     0
 73
     0
 74
     0
  7

 75
     0
147
1.0
148
0.0
149
0.0
100
AcDbLayout
  1
Model
 70
     1
 71
     0
 10
0.0
 20
0.0
 11
12.0
 21
9.0
 12
0.0
 22
0.0
 32
0.0
 14
0.0
 24
0.0
 34
0.0
 15
0.0
 25
0.0
 35
0.0
146
0.0
 13
0.0
 23
0.0
 33
0.0
 16
1.0
 26
0.0
 36
0.0
 17
0.0
 27
1.0
 37
0.0
 76
     0
330
443
  0
LAYOUT
  5
442
102
{ACAD_REACTORS
330
43E
102
}
330
43E
100
AcDbPlotSettings
  1

  2
EPSON PM-3700C
  4

  6

 40
0.0
 41
0.0
 42
0.0
 43
0.0
 44
0.0
 45
0.0
 46
0.0
 47
0.0
 48
0.0
 49
0.0
140
0.0
141
0.0
142
1.0
143
1.0
 70
   688
 72
     0
 73
     0
 74
     5
  7

 75
    16
147
1.0
148
0.0
149
0.0
100
AcDbLayout
  1
ﾚｲｱｳﾄ1
 70
     1
 71
     1
 10
0.0
 20
0.0
 11
420.0
 21
297.0
 12
0.0
 22
0.0
 32
0.0
 14
1.000000000000000E+20
 24
1.000000000000000E+20
 34
1.000000000000000E+20
 15
-1.000000000000000E+20
 25
-1.000000000000000E+20
 35
-1.000000000000000E+20
146
0.0
 13
0.0
 23
0.0
 33
0.0
 16
1.0
 26
0.0
 36
0.0
 17
0.0
 27
1.0
 37
0.0
 76
     0
330
43F
  0
MLINESTYLE
  5
43C
102
{ACAD_REACTORS
330
43B
102
}
330
43B
100
AcDbMlineStyle
  2
STANDARD
 70
     0
  3

 62
   256
 51
90.0
 52
90.0
 71
     2
 49
0.5
 62
   256
  6
BYLAYER
 49
-0.5
 62
   256
  6
BYLAYER
  0
ACDBPLACEHOLDER
  5
434
102
{ACAD_REACTORS
330
433
102
}
330
433
  0
DICTIONARYVAR
  5
86F
102
{ACAD_REACTORS
330
86D
102
}
330
86D
100
DictionaryVariables
280
     0
  1
1
  0
DICTIONARYVAR
  5
86E
102
{ACAD_REACTORS
330
86D
102
}
330
86D
100
DictionaryVariables
280
     0
  1
1
  0
ACMDATADICTIONARY
  5
829
102
{ACAD_REACTORS
330
828
102
}
330
828
100
AcDbDictionary
281
     1
  3
*A1
350
82A
100
AcmDataDictionary
  0
DICTIONARY
  5
837
102
{ACAD_REACTORS
330
828
102
}
330
828
100
AcDbDictionary
281
     1
  3
ANSI
350
838
  0
DICTIONARY
  5
76E
102
{ACAD_REACTORS
330
76D
102
}
330
76D
100
AcDbDictionary
281
     1
  3
DWGSETTINGS
350
76F
  3
TRANSSETTINGS
350
773
  0
ACAMGFILTERDAT
  5
875
102
{ACAD_REACTORS
330
870
102
}
330
870
100
AcAmgFilterDat
 70
    15
  1
DIMENSION,AMDT_*_DIM
  2
*
  3
*
  4
*
  5
*
290
     1
  0
ACAMGFILTERDAT
  5
874
102
{ACAD_REACTORS
330
870
102
}
330
870
100
AcAmgFilterDat
 70
    15
  1
*
  2
AM_FEA-AM_*
  3
*
  4
*
  5
*
290
     1
  0
ACAMGFILTERDAT
  5
871
102
{ACAD_REACTORS
330
870
102
}
330
870
100
AcAmgFilterDat
 70
    15
  1
HATCH
  2
*
  3
*
  4
*
  5
*
290
     1
  0
ACAMGFILTERDAT
  5
872
102
{ACAD_REACTORS
330
870
102
}
330
870
100
AcAmgFilterDat
 70
    15
  1
LINE
  2
8,8N,*-8,*-8N,AM_8,AM_8N,*-AM_8,*-AM_8N
  3
*
  4
*
  5
INSERT,STDPART2D
290
     1
  0
ACAMGFILTERDAT
  5
876
102
{ACAD_REACTORS
330
870
102
}
330
870
100
AcAmgFilterDat
 70
    15
  1
ARC
  2
AM_5
  3
*
  4
2
  5
INSERT
290
     0
  0
ACAMGFILTERDAT
  5
873
102
{ACAD_REACTORS
330
870
102
}
330
870
100
AcAmgFilterDat
 70
    15
  1
ACMFCFRAME,ACMDATUMTARGET,ACMDATUMID,ACMWELDSYM,ACMSURFSYM,ACMFEATID,ACMPARTREF,ACMBALLOON,AMDTEDGESYM,AMGSCREWCALCTABLE
  2
*
  3
*
  4
*
  5
*
290
     1
  0
LAYER_INDEX
  5
868
102
{ACAD_REACTORS
330
867
102
}
330
867
100
AcDbIndex
 40
2454700.618106191
100
AcDbLayerIndex
  8
0
360
869
 90
      188
  8
1
360
86A
 90
        5
  8
DEFPOINTS
360
86B
 90
        0
  8
3
360
AA7
 90
        1
  8
2
360
AA8
 90
       64
  0
ACMDATAENTRYBLOCK
  5
82A
102
{ACAD_REACTORS
330
829
102
}
330
829
100
AcmDataEntry
100
AcmDataEntryBlock
  0
IDBUFFER
  5
869
330
0
100
AcDbIdBuffer
330
CD6
330
CD7
330
BD6
330
BD8
330
BD9
330
BDB
330
BDC
330
BDD
330
BDE
330
BDF
330
BE0
330
BE4
330
BE7
330
BE8
330
BE9
330
BEA
330
BEB
330
BEC
330
BED
330
BEE
330
BEF
330
BF0
330
BF1
330
BF2
330
BF3
330
BF4
330
BF5
330
BF6
330
BF7
330
BFC
330
BFD
330
BFF
330
C00
330
C01
330
C06
330
C07
330
C08
330
C09
330
C0A
330
C0D
330
C0F
330
C10
330
C12
330
C13
330
C14
330
C15
330
C16
330
C17
330
C18
330
C19
330
C1B
330
C1C
330
C1D
330
C1E
330
C1F
330
C22
330
C23
330
C27
330
C2A
330
C2B
330
C2C
330
C2D
330
C2F
330
C30
330
C31
330
C32
330
C33
330
C34
330
C37
330
C3A
330
C3B
330
C3C
330
C3D
330
C3E
330
C40
330
C41
330
C42
330
C43
330
C44
330
C49
330
C4A
330
C4B
330
C4C
330
C4D
330
C4E
330
C4F
330
C50
330
C51
330
C52
330
C53
330
C54
330
C55
330
C56
330
C57
330
C58
330
C59
330
C5A
330
C5B
330
C5C
330
C5D
330
C5E
330
C5F
330
C60
330
C61
330
C62
330
C65
330
C67
330
C69
330
C6B
330
C6C
330
C6D
330
C6F
330
C70
330
C71
330
C72
330
C73
330
C74
330
C75
330
C76
330
C77
330
C78
330
C7A
330
C7D
330
C7E
330
C83
330
C84
330
C85
330
C87
330
C88
330
C8D
330
C8E
330
C8F
330
C90
330
C91
330
C94
330
C96
330
C97
330
C98
330
C99
330
C9A
330
C9C
330
C9D
330
C9E
330
C9F
330
CA3
330
CA4
330
CA5
330
CA6
330
CA7
330
CA8
330
CA9
330
CAA
330
CAC
330
CAF
330
CB0
330
CB1
330
CB3
330
CB6
330
CB7
330
CB8
330
CB9
330
CBA
330
CBB
330
CBC
330
CBD
330
CBE
330
CBF
330
CC0
330
CC1
330
CC2
330
CC3
330
CC4
330
CC5
330
CC6
330
CC7
330
CC8
330
CC9
330
CCA
330
CCC
330
CCD
330
CCE
330
CCF
330
CD0
330
CD1
330
CD2
330
CD3
330
CD4
330
CD5
  0
IDBUFFER
  5
86A
330
0
100
AcDbIdBuffer
330
BDA
330
BFE
330
C66
330
C86
330
CCB
  0
IDBUFFER
  5
86B
330
0
100
AcDbIdBuffer
  0
IDBUFFER
  5
AA7
330
0
100
AcDbIdBuffer
330
BD7
  0
IDBUFFER
  5
AA8
330
0
100
AcDbIdBuffer
330
CA1
330
CA2
330
CAB
330
CAD
330
CAE
330
CB2
330
CB4
330
CB5
330
BE1
330
BE2
330
BE3
330
BE5
330
BE6
330
BF8
330
BF9
330
BFA
330
BFB
330
C02
330
C03
330
C04
330
C05
330
C0B
330
C0C
330
C0E
330
C11
330
C1A
330
C20
330
C21
330
C24
330
C25
330
C26
330
C28
330
C29
330
C2E
330
C35
330
C36
330
C38
330
C39
330
C3F
330
C45
330
C46
330
C47
330
C48
330
C63
330
C64
330
C68
330
C6A
330
C6E
330
C79
330
C7B
330
C7C
330
C7F
330
C80
330
C81
330
C82
330
C89
330
C8A
330
C8B
330
C8C
330
C92
330
C93
330
C95
330
C9B
330
CA0
  0
ENDSEC
  0
EOF
