  0
SECTION
  2
HEADER
  9
$ACADVER
  1
AC1015
  9
$ACADMAINTVER
 70
    13
  9
$DWGCODEPAGE
  3
ANSI_932
  9
$INSBASE
 10
0.0
 20
0.0
 30
0.0
  9
$EXTMIN
 10
-58.34156501256277
 20
-43.59286947606922
 30
0.0
  9
$EXTMAX
 10
189.97495439485
 20
193.7569908347633
 30
0.0
  9
$LIMMIN
 10
0.0
 20
0.0
  9
$LIMMAX
 10
200.0
 20
150.0
  9
$ORTHOMODE
 70
     1
  9
$REGENMODE
 70
     1
  9
$FILLMODE
 70
     1
  9
$QTEXTMODE
 70
     0
  9
$MIRRTEXT
 70
     1
  9
$LTSCALE
 40
1.0
  9
$ATTMODE
 70
     1
  9
$TEXTSIZE
 40
2.5
  9
$TRACEWID
 40
1.0
  9
$TEXTSTYLE
  7
STANDARD
  9
$CLAYER
  8
0
  9
$CELTYPE
  6
ByLayer
  9
$CECOLOR
 62
   256
  9
$CELTSCALE
 40
1.0
  9
$DISPSILH
 70
     0
  9
$DIMSCALE
 40
1.0
  9
$DIMASZ
 40
2.5
  9
$DIMEXO
 40
0.625
  9
$DIMDLI
 40
3.75
  9
$DIMRND
 40
0.0
  9
$DIMDLE
 40
0.0
  9
$DIMEXE
 40
1.25
  9
$DIMTP
 40
0.0
  9
$DIMTM
 40
0.0
  9
$DIMTXT
 40
2.5
  9
$DIMCEN
 40
2.5
  9
$DIMTSZ
 40
0.0
  9
$DIMTOL
 70
     0
  9
$DIMLIM
 70
     0
  9
$DIMTIH
 70
     0
  9
$DIMTOH
 70
     0
  9
$DIMSE1
 70
     0
  9
$DIMSE2
 70
     0
  9
$DIMTAD
 70
     1
  9
$DIMZIN
 70
     8
  9
$DIMBLK
  1

  9
$DIMASO
 70
     1
  9
$DIMSHO
 70
     1
  9
$DIMPOST
  1

  9
$DIMAPOST
  1

  9
$DIMALT
 70
     0
  9
$DIMALTD
 70
     4
  9
$DIMALTF
 40
0.0394
  9
$DIMLFAC
 40
1.0
  9
$DIMTOFL
 70
     1
  9
$DIMTVP
 40
0.0
  9
$DIMTIX
 70
     0
  9
$DIMSOXD
 70
     0
  9
$DIMSAH
 70
     0
  9
$DIMBLK1
  1

  9
$DIMBLK2
  1

  9
$DIMSTYLE
  2
STANDARD
  9
$DIMCLRD
 70
     0
  9
$DIMCLRE
 70
     0
  9
$DIMCLRT
 70
     0
  9
$DIMTFAC
 40
1.0
  9
$DIMGAP
 40
0.625
  9
$DIMJUST
 70
     0
  9
$DIMSD1
 70
     0
  9
$DIMSD2
 70
     0
  9
$DIMTOLJ
 70
     1
  9
$DIMTZIN
 70
     0
  9
$DIMALTZ
 70
     0
  9
$DIMALTTZ
 70
     0
  9
$DIMUPT
 70
     0
  9
$DIMDEC
 70
     4
  9
$DIMTDEC
 70
     4
  9
$DIMALTU
 70
     2
  9
$DIMALTTD
 70
     2
  9
$DIMTXSTY
  7
STANDARD
  9
$DIMAUNIT
 70
     0
  9
$DIMADEC
 70
     0
  9
$DIMALTRND
 40
0.0
  9
$DIMAZIN
 70
     0
  9
$DIMDSEP
 70
    46
  9
$DIMATFIT
 70
     3
  9
$DIMFRAC
 70
     0
  9
$DIMLDRBLK
  1

  9
$DIMLUNIT
 70
     2
  9
$DIMLWD
 70
    -2
  9
$DIMLWE
 70
    -2
  9
$DIMTMOVE
 70
     0
  9
$LUNITS
 70
     2
  9
$LUPREC
 70
     4
  9
$SKETCHINC
 40
1.0
  9
$FILLETRAD
 40
1.0
  9
$AUNITS
 70
     0
  9
$AUPREC
 70
     0
  9
$MENU
  1
.
  9
$ELEVATION
 40
0.0
  9
$PELEVATION
 40
0.0
  9
$THICKNESS
 40
0.0
  9
$LIMCHECK
 70
     0
  9
$CHAMFERA
 40
10.0
  9
$CHAMFERB
 40
10.0
  9
$CHAMFERC
 40
0.0
  9
$CHAMFERD
 40
0.0
  9
$SKPOLY
 70
     0
  9
$TDCREATE
 40
2452125.683722997
  9
$TDUCREATE
 40
2452125.308722997
  9
$TDUPDATE
 40
2454700.614625648
  9
$TDUUPDATE
 40
2454700.239625648
  9
$TDINDWG
 40
0.0441683912
  9
$TDUSRTIMER
 40
0.0441680324
  9
$USRTIMER
 70
     1
  9
$ANGBASE
 50
0.0
  9
$ANGDIR
 70
     0
  9
$PDMODE
 70
     0
  9
$PDSIZE
 40
0.0
  9
$PLINEWID
 40
0.0
  9
$SPLFRAME
 70
     0
  9
$SPLINETYPE
 70
     6
  9
$SPLINESEGS
 70
     8
  9
$HANDSEED
  5
AAB
  9
$SURFTAB1
 70
     6
  9
$SURFTAB2
 70
     6
  9
$SURFTYPE
 70
     6
  9
$SURFU
 70
     6
  9
$SURFV
 70
     6
  9
$UCSBASE
  2

  9
$UCSNAME
  2

  9
$UCSORG
 10
0.0
 20
0.0
 30
0.0
  9
$UCSXDIR
 10
1.0
 20
0.0
 30
0.0
  9
$UCSYDIR
 10
0.0
 20
1.0
 30
0.0
  9
$UCSORTHOREF
  2

  9
$UCSORTHOVIEW
 70
     0
  9
$UCSORGTOP
 10
0.0
 20
0.0
 30
0.0
  9
$UCSORGBOTTOM
 10
0.0
 20
0.0
 30
0.0
  9
$UCSORGLEFT
 10
0.0
 20
0.0
 30
0.0
  9
$UCSORGRIGHT
 10
0.0
 20
0.0
 30
0.0
  9
$UCSORGFRONT
 10
0.0
 20
0.0
 30
0.0
  9
$UCSORGBACK
 10
0.0
 20
0.0
 30
0.0
  9
$PUCSBASE
  2

  9
$PUCSNAME
  2

  9
$PUCSORG
 10
0.0
 20
0.0
 30
0.0
  9
$PUCSXDIR
 10
1.0
 20
0.0
 30
0.0
  9
$PUCSYDIR
 10
0.0
 20
1.0
 30
0.0
  9
$PUCSORTHOREF
  2

  9
$PUCSORTHOVIEW
 70
     0
  9
$PUCSORGTOP
 10
0.0
 20
0.0
 30
0.0
  9
$PUCSORGBOTTOM
 10
0.0
 20
0.0
 30
0.0
  9
$PUCSORGLEFT
 10
0.0
 20
0.0
 30
0.0
  9
$PUCSORGRIGHT
 10
0.0
 20
0.0
 30
0.0
  9
$PUCSORGFRONT
 10
0.0
 20
0.0
 30
0.0
  9
$PUCSORGBACK
 10
0.0
 20
0.0
 30
0.0
  9
$USERI1
 70
     0
  9
$USERI2
 70
     0
  9
$USERI3
 70
     0
  9
$USERI4
 70
     0
  9
$USERI5
 70
     0
  9
$USERR1
 40
0.0
  9
$USERR2
 40
0.0
  9
$USERR3
 40
0.0
  9
$USERR4
 40
0.0
  9
$USERR5
 40
0.0
  9
$WORLDVIEW
 70
     1
  9
$SHADEDGE
 70
     3
  9
$SHADEDIF
 70
    70
  9
$TILEMODE
 70
     1
  9
$MAXACTVP
 70
    48
  9
$PINSBASE
 10
0.0
 20
0.0
 30
0.0
  9
$PLIMCHECK
 70
     0
  9
$PEXTMIN
 10
1.000000000000000E+20
 20
1.000000000000000E+20
 30
1.000000000000000E+20
  9
$PEXTMAX
 10
-1.000000000000000E+20
 20
-1.000000000000000E+20
 30
-1.000000000000000E+20
  9
$PLIMMIN
 10
0.0
 20
0.0
  9
$PLIMMAX
 10
420.0
 20
297.0
  9
$UNITMODE
 70
     0
  9
$VISRETAIN
 70
     1
  9
$PLINEGEN
 70
     0
  9
$PSLTSCALE
 70
     1
  9
$TREEDEPTH
 70
  3020
  9
$CMLSTYLE
  2
Standard
  9
$CMLJUST
 70
     0
  9
$CMLSCALE
 40
1.0
  9
$PROXYGRAPHICS
 70
     1
  9
$MEASUREMENT
 70
     0
  9
$CELWEIGHT
370
    -1
  9
$ENDCAPS
280
     0
  9
$JOINSTYLE
280
     0
  9
$LWDISPLAY
290
     0
  9
$INSUNITS
 70
     0
  9
$HYPERLINKBASE
  1

  9
$STYLESHEET
  1

  9
$XEDIT
290
     1
  9
$CEPSNTYPE
380
     0
  9
$PSTYLEMODE
290
     1
  9
$FINGERPRINTGUID
  2
{A10496DF-95F9-45CE-9E69-95AC451A2C1D}
  9
$VERSIONGUID
  2
{82309C71-1CC1-4EAA-A227-C6EFFCA4BFE2}
  9
$EXTNAMES
290
     1
  9
$PSVPSCALE
 40
0.0
  9
$OLESTARTUP
290
     0
  0
ENDSEC
  0
SECTION
  2
CLASSES
  0
CLASS
  1
ACDBDICTIONARYWDFLT
  2
AcDbDictionaryWithDefault
  3
AutoCAD 2000
 90
        0
280
     0
281
     0
  0
CLASS
  1
ACDBPLACEHOLDER
  2
AcDbPlaceHolder
  3
AutoCAD 2000
 90
        0
280
     0
281
     0
  0
CLASS
  1
LAYOUT
  2
AcDbLayout
  3
AutoCAD 2000
 90
        0
280
     0
281
     0
  0
CLASS
  1
AMGSETTINGSOBJ
  2
AmgSettingsObj
  3
"AcadM|Product Description: AutoCAD Mechanical 2000|Company: Autodesk"
 90
        0
280
     0
281
     0
  0
CLASS
  1
ACME_DOCUMENT
  2
AcMeDbDoc
  3
AcMeServices
 90
        0
280
     0
281
     0
  0
CLASS
  1
ACMESCOPE
  2
AcMeScope
  3
AcMeServices
 90
        0
280
     0
281
     0
  0
CLASS
  1
ACMECOMMANDHISTORY
  2
AcMeCommandHistory
  3
AcMeServices
 90
        0
280
     0
281
     0
  0
CLASS
  1
ACIMSYSVARMAN
  2
AcImSysVarManager
  3
AcMeServices
 90
        0
280
     0
281
     0
  0
CLASS
  1
ACIMREALSYSVAR
  2
AcImRealSysVar
  3
AcMeServices
 90
        0
280
     0
281
     0
  0
CLASS
  1
ACIMINTSYSVAR
  2
AcImIntSysVar
  3
AcMeServices
 90
        0
280
     0
281
     0
  0
CLASS
  1
ACMEDRAWINGMAN
  2
AcMeDrawingMan
  3
AcMeServices
 90
        0
280
     0
281
     0
  0
CLASS
  1
ACMEVIEW
  2
AcMeView
  3
AcMeServices
 90
        0
280
     0
281
     0
  0
CLASS
  1
ACDBENTITYCACHE
  2
AcMeEntityCache
  3
AcMeServices
 90
        0
280
     0
281
     0
  0
CLASS
  1
GSMANAGER
  2
AcMeGSManager
  3
AcMeServices
 90
        0
280
     0
281
     0
  0
CLASS
  1
AMDTINTERNALREACTOR
  2
AmdtInternalReactor
  3
AcMeServices
 90
        0
280
     0
281
     0
  0
CLASS
  1
ACMESTATEMGR
  2
AcMeStateMgr
  3
AcMeServices
 90
        0
280
     0
281
     0
  0
CLASS
  1
ACGREFMASTER
  2
AcGrefMaster
  3
AcAttribServices
 90
        0
280
     0
281
     0
  0
CLASS
  1
AM_DRAWING_MGR
  2
AcDmDwgMgr
  3
AcMechDwgViewMgmt
 90
        0
280
     0
281
     0
  0
CLASS
  1
AM_DWG_DOCUMENT
  2
AcDmDwgDocument
  3
AcMechDwgViewMgmt
 90
        0
280
     0
281
     0
  0
CLASS
  1
AM_DWG_SHEET
  2
AcDmSheet
  3
AcMechDwgViewMgmt
 90
        0
280
     0
281
     0
  0
CLASS
  1
AM_VIEWDIMPARMAP
  2
AcDmViewDimParMap
  3
AcMechDwgViewMgmt
 90
        0
280
     0
281
     0
  0
CLASS
  1
AM_DWGMGR_NAME
  2
AcDmDwgMgrName
  3
AcMechDwgViewMgmt
 90
        0
280
     0
281
     0
  0
CLASS
  1
ACME_DATABASE
  2
AcMeDbDatabase
  3
AcMeServices
 90
        0
280
     0
281
     0
  0
CLASS
  1
ACRFINSADJUSTERMGR
  2
AcRfInsAdjusterMgr
  3
AcMeServices
 90
        0
280
     0
281
     0
  0
CLASS
  1
ACGREFACADMASTER
  2
AcGrefacadMaster
  3
AcGrefServices
 90
        0
280
     0
281
     0
  0
CLASS
  1
AMDTMENUSTATEMGR
  2
AmdtMenuStateMgr
  3
McadcomServices
 90
        0
280
     0
281
     0
  0
CLASS
  1
AMDTMCOMMENUSTATE
  2
AmdtMcomMenuState
  3
McadcomServices
 90
        0
280
     0
281
     0
  0
CLASS
  1
AMIMASTER
  2
AmiMaster
  3
AmiServices
 90
        0
280
     0
281
     0
  0
CLASS
  1
ASAPP
  2
AcAsAppObject
  3
AutoSurfServices
 90
        0
280
     0
281
     0
  0
CLASS
  1
IM_STATIC_MAN
  2
AcImStaticVarManager
  3
AcMeServices
 90
        0
280
     0
281
     0
  0
CLASS
  1
ACIMSTRSYSVAR
  2
AcImStrSysVar
  3
AcMeServices
 90
        0
280
     0
281
     0
  0
CLASS
  1
ACIMDBLSTATICVAR
  2
AcImDblStaticVar
  3
AcMeServices
 90
        0
280
     0
281
     0
  0
CLASS
  1
ACIMSTRSTATICVAR
  2
AcImStrStaticVar
  3
AcMeServices
 90
        0
280
     0
281
     0
  0
CLASS
  1
ACIMINTSTATICVAR
  2
AcImIntStaticVar
  3
AcMeServices
 90
        0
280
     0
281
     0
  0
CLASS
  1
ACASGREFMASTER
  2
AcAsGrefMaster
  3
AutoSurfResolverServices
 90
        0
280
     0
281
     0
  0
CLASS
  1
ACADGREFMODULE
  2
AcAdGrefModule
  3
AdGrefServices
 90
        0
280
     0
281
     0
  0
CLASS
  1
AMDTMAPISURFMOUDULE
  2
AmdtMApiSurfModule
  3
MApiSurfServices
 90
        0
280
     0
281
     0
  0
CLASS
  1
MAPIAMMOUDLE
  2
MApiAmModule
  3
MApiAmServices
 90
        0
280
     0
281
     0
  0
CLASS
  1
AMDTADMENUSTATE
  2
AmdtAdMenuState
  3
DesignerServices
 90
        0
280
     0
281
     0
  0
CLASS
  1
ADAPPL
  2
AcAdAppl
  3
DesignerServices
 90
        0
280
     0
281
     0
  0
CLASS
  1
DEPMGR
  2
AcAdDepMgr
  3
DesignerServices
 90
        0
280
     0
281
     0
  0
CLASS
  1
PARAMMGR
  2
AcAdParamMgr
  3
DesignerServices
 90
        0
280
     0
281
     0
  0
CLASS
  1
PARAMSCOPE
  2
AcAdParamScope
  3
DesignerServices
 90
        0
280
     0
281
     0
  0
CLASS
  1
NAMEDAPPL
  2
AcAdNamedAppl
  3
DesignerServices
 90
        0
280
     0
281
     0
  0
CLASS
  1
AMDTDMMENUSTATE
  2
AmdtDmMenuState
  3
AcMechDwgViewMgmt
 90
        0
280
     0
281
     0
  0
CLASS
  1
MAPIADMODULE
  2
MApiAdModule
  3
MApiAdServices
 90
        0
280
     0
281
     0
  0
CLASS
  1
AMDTAMMENUSTATE
  2
AmdtAmMenuState
  3
DesignerAssemblies
 90
        0
280
     0
281
     0
  0
CLASS
  1
ACAMPROJECT
  2
AcAmProject
  3
DesignerAssemblies
 90
        0
280
     0
281
     0
  0
CLASS
  1
ACAMGRCOMPDEF
  2
AcAmGrCompDef
  3
DesignerAssemblies
 90
        0
280
     0
281
     0
  0
CLASS
  1
ACCMCONTEXT
  2
AcCmContext
  3
DesignerAssemblies
 90
        0
280
     0
281
     0
  0
CLASS
  1
ACAMCOMPDEF
  2
AcAmCompDef
  3
DesignerAssemblies
 90
        0
280
     0
281
     0
  0
CLASS
  1
ACAMCOMPDEFMGR
  2
AcAmCompDefMgr
  3
DesignerAssemblies
 90
        0
280
     0
281
     0
  0
CLASS
  1
AMCONTEXTMGR
  2
AcAmContextMgr
  3
DesignerAssemblies
 90
        0
280
     0
281
     0
  0
CLASS
  1
ACAMCONTEXTMODELER
  2
AcAmContextModeler
  3
DesignerAssemblies
 90
        0
280
     0
281
     0
  0
CLASS
  1
ACMDATADICTIONARY
  2
AcmDataDictionary
  3
"AcmSymBB|Product Description: AutoCAD Mechanical 2000|Company: Autodesk"
 90
        0
280
     0
281
     0
  0
CLASS
  1
ACMDATAENTRYBLOCK
  2
AcmDataEntryBlock
  3
"AcmSymBB|Product Description: AutoCAD Mechanical 2000|Company: Autodesk"
 90
        0
280
     0
281
     0
  0
CLASS
  1
CATALOGSTATE
  2
AcAmCatalogState
  3
DesignerAssemblies
 90
        0
280
     0
281
     0
  0
CLASS
  1
ACAMGRCOMPDEFSET
  2
AcAmGrCompDefSet
  3
DesignerAssemblies
 90
        0
280
     0
281
     0
  0
CLASS
  1
AMDTBROWSERDBTAB
  2
AmdtBrowserDbTab
  3
McadcomServices
 90
        0
280
     0
281
     0
  0
CLASS
  1
CBROWSERAPPOBJECT
  2
CBrowserAppObject
  3
McadcomServices
 90
        0
280
     0
281
     0
  0
CLASS
  1
DM_PLACEHOLDER
  2
AcDmSelsetPlaceholder
  3
AcMechDwgViewMgmt
 90
        0
280
     0
281
     0
  0
CLASS
  1
ACMSTANDARDANSI
  2
AcmStandardANSI
  3
"Amdt_StdImp|Product Description: AutoCAD Mechanical 2000|Company: Autodesk"
 90
        0
280
     0
281
     0
  0
CLASS
  1
AMGOBJPROPCFG
  2
AmgObjPropCfg
  3
"AmgLay|Product Description: AutoCAD Mechanical 2000|Company: Autodesk"
 90
        1
280
     0
281
     0
  0
CLASS
  1
ACMSURFSTANDARDANSI
  2
AcmSurfTextStdANSI
  3
"Amdt_StdImp|Product Description: AutoCAD Mechanical 2000|Company: Autodesk"
 90
        0
280
     0
281
     0
  0
CLASS
  1
ACMFCFSTANDARDANSI
  2
AcmFCFStdANSI
  3
"Amdt_StdImp|Product Description: AutoCAD Mechanical 2000|Company: Autodesk"
 90
        0
280
     0
281
     0
  0
CLASS
  1
ACMWELDSTANDARDANSI
  2
AcmWeldingStdANSI
  3
"Amdt_StdImp|Product Description: AutoCAD Mechanical 2000|Company: Autodesk"
 90
        0
280
     0
281
     0
  0
CLASS
  1
ACMIDSTANDARDANSI
  2
AcmIdStdANSI
  3
"Amdt_StdImp|Product Description: AutoCAD Mechanical 2000|Company: Autodesk"
 90
        0
280
     0
281
     0
  0
CLASS
  1
ACMDATUMSTANDARDANSI
  2
AcmDatumStdANSI
  3
"Amdt_StdImp|Product Description: AutoCAD Mechanical 2000|Company: Autodesk"
 90
        0
280
     0
281
     0
  0
CLASS
  1
ACMBOMSTANDARDANSI
  2
AcmBOMStdANSI
  3
"Amdt_StdImp|Product Description: AutoCAD Mechanical 2000|Company: Autodesk"
 90
        0
280
     0
281
     0
  0
CLASS
  1
ACMDETAILSTANDARDANSI
  2
AmdtDetailSymStdANSI
  3
"Amdt_StdImp|Product Description: AutoCAD Mechanical 2000|Company: Autodesk"
 90
        0
280
     0
281
     0
  0
CLASS
  1
ACMSECTIONSTANDARDANSI
  2
AmdtSectionSymStdANSI
  3
"Amdt_StdImp|Product Description: AutoCAD Mechanical 2000|Company: Autodesk"
 90
        0
280
     0
281
     0
  0
CLASS
  1
ACMCENTERLINESTANDARDANSI
  2
AmdtCenterLineStdANSI
  3
"Amdt_StdImp|Product Description: AutoCAD Mechanical 2000|Company: Autodesk"
 90
        0
280
     0
281
     0
  0
CLASS
  1
ACMTHREADLINESTANDARDANSI
  2
AmdtThreadLineStdANSI
  3
"Amdt_StdImp|Product Description: AutoCAD Mechanical 2000|Company: Autodesk"
 90
        0
280
     0
281
     0
  0
CLASS
  1
ACMNOTESTANDARDANSI
  2
AmdtNoteStdANSI
  3
"Amdt_StdImp|Product Description: AutoCAD Mechanical 2000|Company: Autodesk"
 90
        0
280
     0
281
     0
  0
CLASS
  1
ACAMGLAYSTD
  2
AcAmgLayStd
  3
"AcAmgLayStd|Product Description: AutoCAD Mechanical 2000|Company: Autodesk"
 90
        0
280
     0
281
     0
  0
CLASS
  1
ACAMGDIMSTD
  2
AcAmgDimStd
  3
"AcAmgDimStd|Product Description: AutoCAD Mechanical 2000|Company: Autodesk"
 90
        0
280
     0
281
     0
  0
CLASS
  1
ACAMGHOLECHARTSTDANSI
  2
AcAmgHoleChartStdANSI
  3
ACMSYMBB_MODULE_NAME
 90
        0
280
     0
281
     0
  0
CLASS
  1
ACAMGTITLESTD
  2
AcAmgTitleStd
  3
"TITLEAPP"
 90
        0
280
     0
281
     0
  0
CLASS
  1
LAYER_INDEX
  2
AcDbLayerIndex
  3
AutoCAD 2000
 90
        0
280
     0
281
     0
  0
CLASS
  1
IDBUFFER
  2
AcDbIdBuffer
  3
AutoCAD 2000
 90
        0
280
     0
281
     0
  0
CLASS
  1
DICTIONARYVAR
  2
AcDbDictionaryVar
  3
AutoCAD 2000
 90
        0
280
     0
281
     0
  0
CLASS
  1
ACAMGFILTERDAT
  2
AcAmgFilterDat
  3
"AcadM|Product Description: AutoCAD Mechanical 2000|Company: Autodesk"
 90
        0
280
     0
281
     0
  0
CLASS
  1
AMDTFORMULAUPDATEDISPATCHER
  2
AmdtFormulaUpdateDispatcher
  3
AcMeServices
 90
        0
280
     0
281
     0
  0
ENDSEC
  0
SECTION
  2
TABLES
  0
TABLE
  2
VPORT
  5
42D
330
0
100
AcDbSymbolTable
 70
     8
  0
VPORT
  5
AAA
330
42D
100
AcDbSymbolTableRecord
100
AcDbViewportTableRecord
  2
*Active
 70
     0
 10
0.0
 20
0.0
 11
1.0
 21
1.0
 12
0.0
 22
0.0
 13
0.0
 23
0.0
 14
0.5
 24
0.5
 15
1.0
 25
1.0
 16
0.0
 26
0.0
 36
1.0
 17
113.7736169056603
 27
75.0
 37
0.0
 40
300.0644662059283
 41
1.516981132075471
 42
50.0
 43
0.0
 44
0.0
 50
0.0
 51
0.0
 71
     0
 72
   100
 73
     1
 74
     1
 75
     0
 76
     0
 77
     0
 78
     0
281
     0
 65
     0
110
0.0
120
0.0
130
0.0
111
1.0
121
0.0
131
0.0
112
0.0
122
1.0
132
0.0
 79
     0
146
0.0
  0
ENDTAB
  0
TABLE
  2
LTYPE
  5
42A
330
0
100
AcDbSymbolTable
 70
    18
  0
LTYPE
  5
438
330
42A
100
AcDbSymbolTableRecord
100
AcDbLinetypeTableRecord
  2
ByBlock
 70
     0
  3

 72
    65
 73
     0
 40
0.0
  0
LTYPE
  5
439
330
42A
100
AcDbSymbolTableRecord
100
AcDbLinetypeTableRecord
  2
ByLayer
 70
     0
  3

 72
    65
 73
     0
 40
0.0
  0
LTYPE
  5
43A
330
42A
100
AcDbSymbolTableRecord
100
AcDbLinetypeTableRecord
  2
CONTINUOUS
 70
     0
  3
Solid line
 72
    65
 73
     0
 40
0.0
  0
LTYPE
  5
448
330
42A
100
AcDbSymbolTableRecord
100
AcDbLinetypeTableRecord
  2
CENTER
 70
     0
  3
____ _ ____ _ ____ _ ____ _ ____ _ ____ _ ____
 72
    65
 73
     4
 40
2.0
 49
1.25
 74
     0
 49
-0.25
 74
     0
 49
0.25
 74
     0
 49
-0.25
 74
     0
  0
LTYPE
  5
792
330
42A
100
AcDbSymbolTableRecord
100
AcDbLinetypeTableRecord
  2
HIDDEN
 70
     0
  3
Hidden __ __ __ __ __ __ __ __ __ __ __ __ __ _
 72
    65
 73
     2
 40
0.375
 49
0.25
 74
     0
 49
-0.125
 74
     0
  0
LTYPE
  5
793
330
42A
100
AcDbSymbolTableRecord
100
AcDbLinetypeTableRecord
  2
PHANTOM2
 70
     0
  3
Phantom (.5x) ___ _ _ ___ _ _ ___ _ _ ___ _ _
 72
    65
 73
     6
 40
1.25
 49
0.625
 74
     0
 49
-0.125
 74
     0
 49
0.125
 74
     0
 49
-0.125
 74
     0
 49
0.125
 74
     0
 49
-0.125
 74
     0
  0
LTYPE
  5
7F5
330
42A
100
AcDbSymbolTableRecord
100
AcDbLinetypeTableRecord
  2
ASULTYPE
 70
     0
  3
実線
 72
    65
 73
     2
 40
3.0
 49
2.5
 74
     0
 49
0.5
 74
     0
  0
LTYPE
  5
7F6
330
42A
100
AcDbSymbolTableRecord
100
AcDbLinetypeTableRecord
  2
ASVLTYPE
 70
     0
  3
__ __ __ __ __ __ __ __ __ __ __ __ __ __ __ __ __ __ __ __ __
 72
    65
 73
     2
 40
0.75
 49
0.5
 74
     0
 49
-0.25
 74
     0
  0
LTYPE
  5
83A
330
42A
100
AcDbSymbolTableRecord
100
AcDbLinetypeTableRecord
  2
AM_ISO02W050
 70
     0
  3
__ __ __ __ __ __ __ __ __ __ __ __ __ __ __
 72
    65
 73
     2
 40
7.5
 49
6.0
 74
     0
 49
-1.5
 74
     0
  0
LTYPE
  5
83B
330
42A
100
AcDbSymbolTableRecord
100
AcDbLinetypeTableRecord
  2
AM_ISO08W050
 70
     0
  3
____ . ____ . ____ . ____ . ____ . ____ . ____
 72
    65
 73
     4
 40
18.0
 49
12.0
 74
     0
 49
-1.5
 74
     0
 49
3.0
 74
     0
 49
-1.5
 74
     0
  0
LTYPE
  5
83C
330
42A
100
AcDbSymbolTableRecord
100
AcDbLinetypeTableRecord
  2
AM_ISO09W050
 70
     0
  3
_____ . . _____ . . _____ . . ____ .. ____
 72
    65
 73
     6
 40
22.5
 49
12.0
 74
     0
 49
-1.5
 74
     0
 49
3.0
 74
     0
 49
-1.5
 74
     0
 49
3.0
 74
     0
 49
-1.5
 74
     0
  0
LTYPE
  5
83D
330
42A
100
AcDbSymbolTableRecord
100
AcDbLinetypeTableRecord
  2
Amconstr
 70
     0
  3
_______________________
 72
    65
 73
     2
 40
9999.0
 49
9999.0
 74
     0
 49
0.0
 74
     0
  0
LTYPE
  5
83E
330
42A
100
AcDbSymbolTableRecord
100
AcDbLinetypeTableRecord
  2
AM_ISO08W050x2
 70
     0
  3
__ . __ . __ . __ . __ . __
 72
    65
 73
     4
 40
9.0
 49
6.0
 74
     0
 49
-0.75
 74
     0
 49
1.5
 74
     0
 49
-0.75
 74
     0
  0
LTYPE
  5
83F
330
42A
100
AcDbSymbolTableRecord
100
AcDbLinetypeTableRecord
  2
AM_ISO02W050x2
 70
     0
  3
 _ _ _ _ _ _ _ _ _ _ _ _
 72
    65
 73
     2
 40
3.75
 49
3.0
 74
     0
 49
-0.75
 74
     0
  0
LTYPE
  5
842
330
42A
100
AcDbSymbolTableRecord
100
AcDbLinetypeTableRecord
  2
Amzigzag
 70
     0
  3
/\/-/\/-/\/-/\/-/\/-/\/
 72
    65
 73
     2
 40
11.00009999999999
 49
0.0001
 74
     4
 75
   135
340
841
 46
0.04
 50
0.0
 44
0.0
 45
0.0
 49
-11.0
 74
     0
  0
LTYPE
  5
843
330
42A
100
AcDbSymbolTableRecord
100
AcDbLinetypeTableRecord
  2
CENTER2
 70
     0
  3
Center (.5x) ___ _ ___ _ ___ _ ___ _ ___ _ ___
 72
    65
 73
     4
 40
1.125
 49
0.75
 74
     0
 49
-0.125
 74
     0
 49
0.125
 74
     0
 49
-0.125
 74
     0
  0
LTYPE
  5
844
330
42A
100
AcDbSymbolTableRecord
100
AcDbLinetypeTableRecord
  2
HIDDEN2
 70
     0
  3
Hidden (.5x) _ _ _ _ _ _ _ _ _ _ _ _ _ _ _ _ _
 72
    65
 73
     2
 40
0.1875
 49
0.125
 74
     0
 49
-0.0625
 74
     0
  0
LTYPE
  5
845
330
42A
100
AcDbSymbolTableRecord
100
AcDbLinetypeTableRecord
  2
Amzigzag2
 70
     0
  3
/\/-/\/-/\/-/\/-/\/-/\/
 72
    65
 73
     2
 40
0.4401
 49
0.0001
 74
     4
 75
   135
340
841
 46
0.0016
 50
0.0
 44
0.0
 45
0.0
 49
-0.4400000000000001
 74
     0
  0
LTYPE
  5
853
330
42A
100
AcDbSymbolTableRecord
100
AcDbLinetypeTableRecord
  2
ACANSTGB
 70
     0
  3
__ . . __ . .
 72
    65
 73
     6
 40
0.35433070866
 49
0.15748031496
 74
     0
 49
-0.03937007874
 74
     0
 49
0.03937007874
 74
     0
 49
-0.03937007874
 74
     0
 49
0.03937007874
 74
     0
 49
-0.03937007874
 74
     0
  0
LTYPE
  5
854
330
42A
100
AcDbSymbolTableRecord
100
AcDbLinetypeTableRecord
  2
ACANSTGL
 70
     0
  3
_ _ _ _ _
 72
    65
 73
     2
 40
0.11811023622
 49
0.07874015748
 74
     0
 49
-0.03937007874
 74
     0
  0
ENDTAB
  0
TABLE
  2
LAYER
  5
427
330
0
100
AcDbSymbolTable
 70
     5
  0
LAYER
  5
435
330
427
100
AcDbSymbolTableRecord
100
AcDbLayerTableRecord
  2
0
 70
     0
 62
     7
  6
CONTINUOUS
370
    -3
390
434
  0
LAYER
  5
449
330
427
100
AcDbSymbolTableRecord
100
AcDbLayerTableRecord
  2
1
 70
     0
 62
     1
  6
CENTER
370
    -3
390
434
  0
LAYER
  5
44A
330
427
100
AcDbSymbolTableRecord
100
AcDbLayerTableRecord
  2
DEFPOINTS
 70
     0
 62
     7
  6
CONTINUOUS
290
     0
370
    -3
390
434
  0
LAYER
  5
8AE
330
427
100
AcDbSymbolTableRecord
100
AcDbLayerTableRecord
  2
3
 70
     0
 62
     3
  6
CONTINUOUS
370
    -3
390
434
  0
LAYER
  5
8AF
330
427
100
AcDbSymbolTableRecord
100
AcDbLayerTableRecord
  2
2
 70
     0
 62
     2
  6
HIDDEN
370
    -3
390
434
  0
ENDTAB
  0
TABLE
  2
STYLE
  5
428
330
0
100
AcDbSymbolTable
 70
     6
  0
STYLE
  5
436
330
428
100
AcDbSymbolTableRecord
100
AcDbTextStyleTableRecord
  2
STANDARD
 70
     0
 40
0.0
 41
1.0
 50
0.0
 71
     0
 42
2.5
  3
txt
  4

  0
STYLE
  5
44B
330
428
100
AcDbSymbolTableRecord
100
AcDbTextStyleTableRecord
  2
BIGFONT
 70
     0
 40
10.0
 41
0.8
 50
0.0
 71
     0
 42
10.0
  3
txt.shx
  4
bigfont
  0
STYLE
  5
841
330
428
100
AcDbSymbolTableRecord
100
AcDbTextStyleTableRecord
  2

 70
     1
 40
0.0
 41
1.0
 50
0.0
 71
     0
 42
2.5
  3
ltypeshp.shx
  4

  0
STYLE
  5
846
330
428
100
AcDbSymbolTableRecord
100
AcDbTextStyleTableRecord
  2
ACANSTS
 70
     0
 40
1.0
 41
1.0
 50
0.0
 71
     0
 42
2.5
  3
romans.shx
  4
extfont.shx
  0
STYLE
  5
852
330
428
100
AcDbSymbolTableRecord
100
AcDbTextStyleTableRecord
  2
ACANSGDT
 70
     0
 40
0.0
 41
1.0
 50
0.0
 71
     0
 42
2.5
  3
amgdtans.shx
  4

  0
STYLE
  5
8B0
330
428
100
AcDbSymbolTableRecord
100
AcDbTextStyleTableRecord
  2
04500
 70
     0
 40
0.0
 41
0.45
 50
0.0
 71
     0
 42
4.000000000000048
  3
ROMANS
  4
EXTFONT
  0
ENDTAB
  0
TABLE
  2
VIEW
  5
42B
330
0
100
AcDbSymbolTable
 70
     0
  0
ENDTAB
  0
TABLE
  2
UCS
  5
42C
330
0
100
AcDbSymbolTable
 70
     0
  0
ENDTAB
  0
TABLE
  2
APPID
  5
42E
330
0
100
AcDbSymbolTable
 70
    13
  0
APPID
  5
437
330
42E
100
AcDbSymbolTableRecord
100
AcDbRegAppTableRecord
  2
ACAD
 70
     0
  0
APPID
  5
770
330
42E
100
AcDbSymbolTableRecord
100
AcDbRegAppTableRecord
  2
GENIUS_GENDIM_13
 70
     0
  0
APPID
  5
771
330
42E
100
AcDbSymbolTableRecord
100
AcDbRegAppTableRecord
  2
GENIUS_GENDTOL_13
 70
     0
  0
APPID
  5
772
330
42E
100
AcDbSymbolTableRecord
100
AcDbRegAppTableRecord
  2
GENIUS_GE3DTOL_13
 70
     0
  0
APPID
  5
775
330
42E
100
AcDbSymbolTableRecord
100
AcDbRegAppTableRecord
  2
MCAD_NO_VIS
 70
     0
  0
APPID
  5
776
330
42E
100
AcDbSymbolTableRecord
100
AcDbRegAppTableRecord
  2
ACAD_TEMP_GRAPHIC
 70
     0
  0
APPID
  5
7A8
330
42E
100
AcDbSymbolTableRecord
100
AcDbRegAppTableRecord
  2
AD_DRAW
 70
     0
  0
APPID
  5
7AB
330
42E
100
AcDbSymbolTableRecord
100
AcDbRegAppTableRecord
  2
ACATTRIBSERVICES
 70
     0
  0
APPID
  5
7F7
330
42E
100
AcDbSymbolTableRecord
100
AcDbRegAppTableRecord
  2
ASURF_PCURVE_APPNAME
 70
     0
  0
APPID
  5
7FC
330
42E
100
AcDbSymbolTableRecord
100
AcDbRegAppTableRecord
  2
AMG_3D2D_5.0
 70
     0
  0
APPID
  5
827
330
42E
100
AcDbSymbolTableRecord
100
AcDbRegAppTableRecord
  2
DESIGNERASSEMBLIES
 70
     0
  0
APPID
  5
82F
330
42E
100
AcDbSymbolTableRecord
100
AcDbRegAppTableRecord
  2
ACADM_DIM_EDIT
 70
     0
  0
APPID
  5
830
330
42E
100
AcDbSymbolTableRecord
100
AcDbRegAppTableRecord
  2
AMDT_DM_ADJ
 70
     0
  0
ENDTAB
  0
TABLE
  2
DIMSTYLE
  5
42F
330
0
100
AcDbSymbolTable
 70
     7
100
AcDbDimStyleTable
 71
     1
340
44C
  0
DIMSTYLE
105
44C
330
42F
100
AcDbSymbolTableRecord
100
AcDbDimStyleTableRecord
  2
STANDARD
 70
     0
274
     4
279
     2
284
     8
285
     8
286
     8
340
436
  0
DIMSTYLE
105
859
330
42F
100
AcDbSymbolTableRecord
100
AcDbDimStyleTableRecord
  2
AM_ANSI
 70
     0
  4
mm
 41
0.1
 42
0.05
 43
0.5
 44
0.1
 47
0.1
 48
0.1
 78
     7
 79
     2
140
0.12
141
0.0
146
0.71
147
0.06
176
   256
177
   256
178
     2
274
     4
284
     7
340
436
371
    -1
372
    -1
  0
DIMSTYLE
105
85A
330
42F
100
AcDbSymbolTableRecord
100
AcDbDimStyleTableRecord
  2
AM_ANSI$3
 70
     0
  4
mm
 41
0.1
 42
0.05
 43
0.5
 44
0.1
 47
0.1
 48
0.1
 78
     7
 79
     2
140
0.12
141
0.0
146
0.71
147
0.06
176
   256
177
   256
178
     2
274
     4
284
     7
288
     1
289
     0
340
436
371
    -1
372
    -1
  0
DIMSTYLE
105
85B
330
42F
100
AcDbSymbolTableRecord
100
AcDbDimStyleTableRecord
  2
AM_ANSI$4
 70
     0
  4
mm
 41
0.1
 42
0.05
 43
0.5
 44
0.1
 47
0.1
 48
0.1
 78
     7
 79
     2
140
0.12
141
0.0
146
0.71
147
0.06
176
   256
177
   256
178
     2
274
     4
284
     7
288
     1
289
     0
340
436
371
    -1
372
    -1
  0
DIMSTYLE
105
85C
330
42F
100
AcDbSymbolTableRecord
100
AcDbDimStyleTableRecord
  2
AM_ANSI$7
 70
     0
  4
mm
 41
0.1
 42
0.05
 43
0.5
 44
0.1
 47
0.1
 48
0.1
 78
     7
 79
     2
140
0.24
141
0.0
146
0.71
147
0.06
176
   256
177
   256
178
     2
274
     4
284
     7
340
436
371
    -1
372
    -1
  0
DIMSTYLE
105
85D
330
42F
100
AcDbSymbolTableRecord
100
AcDbDimStyleTableRecord
  2
AM_ANSI$SF
 70
     0
  4
mm
 41
0.1
 42
0.05
 43
0.5
 44
0.1
 47
0.1
 48
0.1
 75
     1
 76
     1
 78
     7
 79
     2
140
0.12
141
0.0
146
0.71
147
0.06
176
   256
177
   256
178
     2
274
     4
284
     7
340
436
371
    -1
372
    -1
  0
DIMSTYLE
105
862
330
42F
100
AcDbSymbolTableRecord
100
AcDbDimStyleTableRecord
  2
AM_ANSI$SH
 70
     0
  4
mm
 41
0.1
 42
0.05
 43
0.5
 44
0.1
 47
0.1
 48
0.1
 75
     1
 76
     1
 78
     7
 79
     2
140
0.12
141
0.0
146
0.71
147
0.06
173
     1
176
   256
177
   256
178
     2
274
     4
284
     7
340
436
343
85E
371
    -1
372
    -1
  0
ENDTAB
  0
TABLE
  2
BLOCK_RECORD
  5
426
330
0
100
AcDbSymbolTable
 70
     7
  0
BLOCK_RECORD
  5
443
102
{ACAD_XDICTIONARY
360
866
102
}
330
426
100
AcDbSymbolTableRecord
100
AcDbBlockTableRecord
  2
*Model_Space
340
446
  0
BLOCK_RECORD
  5
43F
330
426
100
AcDbSymbolTableRecord
100
AcDbBlockTableRecord
  2
*Paper_Space
340
442
  0
BLOCK_RECORD
  5
44F
330
426
100
AcDbSymbolTableRecord
100
AcDbBlockTableRecord
  2
$MODEL_SPACE
340
0
  0
BLOCK_RECORD
  5
452
330
426
100
AcDbSymbolTableRecord
100
AcDbBlockTableRecord
  2
$PAPER_SPACE
340
0
  0
BLOCK_RECORD
  5
455
330
426
100
AcDbSymbolTableRecord
100
AcDbBlockTableRecord
  2
A$C0C13436D
340
0
  0
BLOCK_RECORD
  5
81E
330
426
100
AcDbSymbolTableRecord
100
AcDbBlockTableRecord
  2
*U3
340
0
  0
BLOCK_RECORD
  5
85E
330
426
100
AcDbSymbolTableRecord
100
AcDbBlockTableRecord
  2
GENAXEH
340
0
  0
ENDTAB
  0
ENDSEC
  0
SECTION
  2
BLOCKS
  0
BLOCK
  5
444
330
443
100
AcDbEntity
  8
0
100
AcDbBlockBegin
  2
*Model_Space
 70
     0
 10
0.0
 20
0.0
 30
0.0
  3
*Model_Space
  1

  0
ENDBLK
  5
445
330
443
100
AcDbEntity
  8
0
100
AcDbBlockEnd
  0
BLOCK
  5
440
330
43F
100
AcDbEntity
 67
     1
  8
0
100
AcDbBlockBegin
  2
*Paper_Space
 70
     0
 10
0.0
 20
0.0
 30
0.0
  3
*Paper_Space
  1

  0
ENDBLK
  5
441
330
43F
100
AcDbEntity
 67
     1
  8
0
100
AcDbBlockEnd
  0
BLOCK
  5
450
330
44F
100
AcDbEntity
  8
0
100
AcDbBlockBegin
  2
$MODEL_SPACE
 70
     0
 10
0.0
 20
0.0
 30
0.0
  3
$MODEL_SPACE
  1

  0
ENDBLK
  5
451
330
44F
100
AcDbEntity
  8
0
100
AcDbBlockEnd
  0
BLOCK
  5
453
330
452
100
AcDbEntity
  8
0
100
AcDbBlockBegin
  2
$PAPER_SPACE
 70
     0
 10
0.0
 20
0.0
 30
0.0
  3
$PAPER_SPACE
  1

  0
ENDBLK
  5
454
330
452
100
AcDbEntity
  8
0
100
AcDbBlockEnd
  0
BLOCK
  5
456
330
455
100
AcDbEntity
  8
0
100
AcDbBlockBegin
  2
A$C0C13436D
 70
     0
 10
0.0
 20
0.0
 30
0.0
  3
A$C0C13436D
  1

  0
ARC
  5
457
330
455
100
AcDbEntity
  8
0
100
AcDbCircle
 10
55.0
 20
38.004234
 30
0.0
 40
1.0
100
AcDbArc
 50
180.0
 51
285.0428009999999
  0
LINE
  5
458
330
455
100
AcDbEntity
  8
0
100
AcDbLine
 10
54.73933399999999
 20
55.69962
 30
0.0
 11
102.7393339999999
 21
68.65961999999999
 31
0.0
  0
LINE
  5
459
330
455
100
AcDbEntity
  8
1
100
AcDbLine
 10
8.0
 20
70.5
 30
0.0
 11
8.0
 21
0.0
 31
0.0
  0
LINE
  5
45A
330
455
100
AcDbEntity
  8
0
100
AcDbLine
 10
14.0
 20
33.5
 30
0.0
 11
14.0
 21
37.26708099999999
 31
0.0
  0
LINE
  5
45B
330
455
100
AcDbEntity
  8
0
100
AcDbLine
 10
2.0
 20
33.5
 30
0.0
 11
2.0
 21
37.26708099999999
 31
0.0
  0
LINE
  5
45C
330
455
100
AcDbEntity
  8
0
100
AcDbLine
 10
5.0
 20
33.5
 30
0.0
 11
5.0
 21
4.0
 31
0.0
  0
LINE
  5
45D
330
455
100
AcDbEntity
  8
0
100
AcDbLine
 10
5.5
 20
3.5
 30
0.0
 11
5.5
 21
32.5
 31
0.0
  0
LINE
  5
45E
330
455
100
AcDbEntity
  8
0
100
AcDbLine
 10
10.5
 20
3.5
 30
0.0
 11
10.5
 21
32.5
 31
0.0
  0
LINE
  5
45F
330
455
100
AcDbEntity
  8
0
100
AcDbLine
 10
11.0
 20
33.5
 30
0.0
 11
11.0
 21
4.0
 31
0.0
  0
LINE
  5
460
330
455
100
AcDbEntity
  8
0
100
AcDbLine
 10
10.5
 20
3.5
 30
0.0
 11
8.0
 21
3.5
 31
0.0
  0
LINE
  5
461
330
455
100
AcDbEntity
  8
0
100
AcDbLine
 10
11.0
 20
4.0
 30
0.0
 11
8.0
 21
4.0
 31
0.0
  0
LINE
  5
462
330
455
100
AcDbEntity
  8
0
100
AcDbLine
 10
5.5
 20
3.5
 30
0.0
 11
8.0
 21
3.5
 31
0.0
  0
LINE
  5
463
330
455
100
AcDbEntity
  8
0
100
AcDbLine
 10
5.0
 20
4.0
 30
0.0
 11
8.0
 21
4.0
 31
0.0
  0
LINE
  5
464
330
455
100
AcDbEntity
  8
0
100
AcDbLine
 10
5.0
 20
4.0
 30
0.0
 11
5.5
 21
3.5
 31
0.0
  0
LINE
  5
465
330
455
100
AcDbEntity
  8
0
100
AcDbLine
 10
11.0
 20
4.0
 30
0.0
 11
10.5
 21
3.5
 31
0.0
  0
LINE
  5
466
330
455
100
AcDbEntity
  8
0
100
AcDbLine
 10
11.0
 20
32.5
 30
0.0
 11
8.0
 21
32.5
 31
0.0
  0
LINE
  5
467
330
455
100
AcDbEntity
  8
0
100
AcDbLine
 10
8.0
 20
33.5
 30
0.0
 11
14.0
 21
33.5
 31
0.0
  0
LINE
  5
468
330
455
100
AcDbEntity
  8
0
100
AcDbLine
 10
8.0
 20
33.5
 30
0.0
 11
2.0
 21
33.5
 31
0.0
  0
LINE
  5
469
330
455
100
AcDbEntity
  8
0
100
AcDbLine
 10
5.0
 20
32.5
 30
0.0
 11
8.0
 21
32.5
 31
0.0
  0
LINE
  5
46A
330
455
100
AcDbEntity
  8
0
100
AcDbLine
 10
16.0
 20
38.5
 30
0.0
 11
16.0
 21
57.5
 31
0.0
  0
ARC
  5
46B
330
455
100
AcDbEntity
  8
0
100
AcDbCircle
 10
8.0
 20
65.0
 30
0.0
 40
8.5
100
AcDbArc
 50
241.9275129999999
 51
298.072487
  0
POLYLINE
  5
46C
330
455
100
AcDbEntity
  8
0
100
AcDb3dPolyline
 66
     1
 10
0.0
 20
0.0
 30
0.0
 70
     8
  0
VERTEX
  5
46D
330
46C
100
AcDbEntity
  8
0
100
AcDbVertex
100
AcDb3dPolylineVertex
 10
0.267585
 20
58.0129
 30
0.0
 70
    32
  0
VERTEX
  5
46E
330
46C
100
AcDbEntity
  8
0
100
AcDbVertex
100
AcDb3dPolylineVertex
 10
0.212081
 20
57.9575
 30
0.0
 70
    32
  0
VERTEX
  5
46F
330
46C
100
AcDbEntity
  8
0
100
AcDbVertex
100
AcDb3dPolylineVertex
 10
0.162945
 20
57.9016
 30
0.0
 70
    32
  0
VERTEX
  5
470
330
46C
100
AcDbEntity
  8
0
100
AcDbVertex
100
AcDb3dPolylineVertex
 10
0.120218
 20
57.84539999999999
 30
0.0
 70
    32
  0
VERTEX
  5
471
330
46C
100
AcDbEntity
  8
0
100
AcDbVertex
100
AcDb3dPolylineVertex
 10
0.0839342
 20
57.789
 30
0.0
 70
    32
  0
VERTEX
  5
472
330
46C
100
AcDbEntity
  8
0
100
AcDbVertex
100
AcDb3dPolylineVertex
 10
0.0541232
 20
57.7323
 30
0.0
 70
    32
  0
VERTEX
  5
473
330
46C
100
AcDbEntity
  8
0
100
AcDbVertex
100
AcDb3dPolylineVertex
 10
0.0308095
 20
57.6754
 30
0.0
 70
    32
  0
VERTEX
  5
474
330
46C
100
AcDbEntity
  8
0
100
AcDbVertex
100
AcDb3dPolylineVertex
 10
0.0140121
 20
57.61829999999999
 30
0.0
 70
    32
  0
VERTEX
  5
475
330
46C
100
AcDbEntity
  8
0
100
AcDbVertex
100
AcDb3dPolylineVertex
 10
0.00374481
 20
57.5612
 30
0.0
 70
    32
  0
VERTEX
  5
476
330
46C
100
AcDbEntity
  8
0
100
AcDbVertex
100
AcDb3dPolylineVertex
 10
0.0000160367
 20
57.50399999999999
 30
0.0
 70
    32
  0
VERTEX
  5
477
330
46C
100
AcDbEntity
  8
0
100
AcDbVertex
100
AcDb3dPolylineVertex
 10
0.00282881
 20
57.4468
 30
0.0
 70
    32
  0
VERTEX
  5
478
330
46C
100
AcDbEntity
  8
0
100
AcDbVertex
100
AcDb3dPolylineVertex
 10
0.0121808
 20
57.3897
 30
0.0
 70
    32
  0
VERTEX
  5
479
330
46C
100
AcDbEntity
  8
0
100
AcDbVertex
100
AcDb3dPolylineVertex
 10
0.0280644
 20
57.3326
 30
0.0
 70
    32
  0
VERTEX
  5
47A
330
46C
100
AcDbEntity
  8
0
100
AcDbVertex
100
AcDb3dPolylineVertex
 10
0.0504667
 20
57.2757
 30
0.0
 70
    32
  0
VERTEX
  5
47B
330
46C
100
AcDbEntity
  8
0
100
AcDbVertex
100
AcDb3dPolylineVertex
 10
0.0793692
 20
57.219
 30
0.0
 70
    32
  0
VERTEX
  5
47C
330
46C
100
AcDbEntity
  8
0
100
AcDbVertex
100
AcDb3dPolylineVertex
 10
0.114748
 20
57.1625
 30
0.0
 70
    32
  0
VERTEX
  5
47D
330
46C
100
AcDbEntity
  8
0
100
AcDbVertex
100
AcDb3dPolylineVertex
 10
0.156575
 20
57.1062
 30
0.0
 70
    32
  0
VERTEX
  5
47E
330
46C
100
AcDbEntity
  8
0
100
AcDbVertex
100
AcDb3dPolylineVertex
 10
0.204816
 20
57.0503
 30
0.0
 70
    32
  0
VERTEX
  5
47F
330
46C
100
AcDbEntity
  8
0
100
AcDbVertex
100
AcDb3dPolylineVertex
 10
0.25943
 20
56.9948
 30
0.0
 70
    32
  0
VERTEX
  5
480
330
46C
100
AcDbEntity
  8
0
100
AcDbVertex
100
AcDb3dPolylineVertex
 10
0.320374
 20
56.9397
 30
0.0
 70
    32
  0
VERTEX
  5
481
330
46C
100
AcDbEntity
  8
0
100
AcDbVertex
100
AcDb3dPolylineVertex
 10
0.387598
 20
56.885
 30
0.0
 70
    32
  0
VERTEX
  5
482
330
46C
100
AcDbEntity
  8
0
100
AcDbVertex
100
AcDb3dPolylineVertex
 10
0.461046
 20
56.83089999999999
 30
0.0
 70
    32
  0
VERTEX
  5
483
330
46C
100
AcDbEntity
  8
0
100
AcDbVertex
100
AcDb3dPolylineVertex
 10
0.540659
 20
56.7772
 30
0.0
 70
    32
  0
VERTEX
  5
484
330
46C
100
AcDbEntity
  8
0
100
AcDbVertex
100
AcDb3dPolylineVertex
 10
0.626371
 20
56.7242
 30
0.0
 70
    32
  0
VERTEX
  5
485
330
46C
100
AcDbEntity
  8
0
100
AcDbVertex
100
AcDb3dPolylineVertex
 10
0.718112
 20
56.6718
 30
0.0
 70
    32
  0
VERTEX
  5
486
330
46C
100
AcDbEntity
  8
0
100
AcDbVertex
100
AcDb3dPolylineVertex
 10
0.8158079999999999
 20
56.6201
 30
0.0
 70
    32
  0
VERTEX
  5
487
330
46C
100
AcDbEntity
  8
0
100
AcDbVertex
100
AcDb3dPolylineVertex
 10
0.9193789999999999
 20
56.56909999999999
 30
0.0
 70
    32
  0
VERTEX
  5
488
330
46C
100
AcDbEntity
  8
0
100
AcDbVertex
100
AcDb3dPolylineVertex
 10
1.028739999999999
 20
56.5189
 30
0.0
 70
    32
  0
VERTEX
  5
489
330
46C
100
AcDbEntity
  8
0
100
AcDbVertex
100
AcDb3dPolylineVertex
 10
1.143799999999999
 20
56.4695
 30
0.0
 70
    32
  0
VERTEX
  5
48A
330
46C
100
AcDbEntity
  8
0
100
AcDbVertex
100
AcDb3dPolylineVertex
 10
1.264469999999999
 20
56.4209
 30
0.0
 70
    32
  0
VERTEX
  5
48B
330
46C
100
AcDbEntity
  8
0
100
AcDbVertex
100
AcDb3dPolylineVertex
 10
1.390639999999999
 20
56.37319999999999
 30
0.0
 70
    32
  0
VERTEX
  5
48C
330
46C
100
AcDbEntity
  8
0
100
AcDbVertex
100
AcDb3dPolylineVertex
 10
1.52222
 20
56.3264
 30
0.0
 70
    32
  0
VERTEX
  5
48D
330
46C
100
AcDbEntity
  8
0
100
AcDbVertex
100
AcDb3dPolylineVertex
 10
1.6591
 20
56.2806
 30
0.0
 70
    32
  0
VERTEX
  5
48E
330
46C
100
AcDbEntity
  8
0
100
AcDbVertex
100
AcDb3dPolylineVertex
 10
1.801159999999999
 20
56.2357
 30
0.0
 70
    32
  0
VERTEX
  5
48F
330
46C
100
AcDbEntity
  8
0
100
AcDbVertex
100
AcDb3dPolylineVertex
 10
1.94829
 20
56.19189999999999
 30
0.0
 70
    32
  0
VERTEX
  5
490
330
46C
100
AcDbEntity
  8
0
100
AcDbVertex
100
AcDb3dPolylineVertex
 10
2.100359999999999
 20
56.1492
 30
0.0
 70
    32
  0
VERTEX
  5
491
330
46C
100
AcDbEntity
  8
0
100
AcDbVertex
100
AcDb3dPolylineVertex
 10
2.25727
 20
56.10759999999999
 30
0.0
 70
    32
  0
VERTEX
  5
492
330
46C
100
AcDbEntity
  8
0
100
AcDbVertex
100
AcDb3dPolylineVertex
 10
2.41886
 20
56.0671
 30
0.0
 70
    32
  0
VERTEX
  5
493
330
46C
100
AcDbEntity
  8
0
100
AcDbVertex
100
AcDb3dPolylineVertex
 10
2.58502
 20
56.0278
 30
0.0
 70
    32
  0
VERTEX
  5
494
330
46C
100
AcDbEntity
  8
0
100
AcDbVertex
100
AcDb3dPolylineVertex
 10
2.755609999999999
 20
55.9897
 30
0.0
 70
    32
  0
VERTEX
  5
495
330
46C
100
AcDbEntity
  8
0
100
AcDbVertex
100
AcDb3dPolylineVertex
 10
2.93049
 20
55.9528
 30
0.0
 70
    32
  0
VERTEX
  5
496
330
46C
100
AcDbEntity
  8
0
100
AcDbVertex
100
AcDb3dPolylineVertex
 10
3.109509999999999
 20
55.9172
 30
0.0
 70
    32
  0
VERTEX
  5
497
330
46C
100
AcDbEntity
  8
0
100
AcDbVertex
100
AcDb3dPolylineVertex
 10
3.29254
 20
55.8829
 30
0.0
 70
    32
  0
VERTEX
  5
498
330
46C
100
AcDbEntity
  8
0
100
AcDbVertex
100
AcDb3dPolylineVertex
 10
3.479409999999999
 20
55.8499
 30
0.0
 70
    32
  0
VERTEX
  5
499
330
46C
100
AcDbEntity
  8
0
100
AcDbVertex
100
AcDb3dPolylineVertex
 10
3.669969999999999
 20
55.8183
 30
0.0
 70
    32
  0
VERTEX
  5
49A
330
46C
100
AcDbEntity
  8
0
100
AcDbVertex
100
AcDb3dPolylineVertex
 10
3.86408
 20
55.788
 30
0.0
 70
    32
  0
VERTEX
  5
49B
330
46C
100
AcDbEntity
  8
0
100
AcDbVertex
100
AcDb3dPolylineVertex
 10
4.061569999999999
 20
55.75919999999999
 30
0.0
 70
    32
  0
VERTEX
  5
49C
330
46C
100
AcDbEntity
  8
0
100
AcDbVertex
100
AcDb3dPolylineVertex
 10
4.26228
 20
55.7317
 30
0.0
 70
    32
  0
VERTEX
  5
49D
330
46C
100
AcDbEntity
  8
0
100
AcDbVertex
100
AcDb3dPolylineVertex
 10
4.46605
 20
55.7057
 30
0.0
 70
    32
  0
VERTEX
  5
49E
330
46C
100
AcDbEntity
  8
0
100
AcDbVertex
100
AcDb3dPolylineVertex
 10
4.672709999999999
 20
55.6812
 30
0.0
 70
    32
  0
VERTEX
  5
49F
330
46C
100
AcDbEntity
  8
0
100
AcDbVertex
100
AcDb3dPolylineVertex
 10
4.88208
 20
55.65809999999999
 30
0.0
 70
    32
  0
VERTEX
  5
4A0
330
46C
100
AcDbEntity
  8
0
100
AcDbVertex
100
AcDb3dPolylineVertex
 10
5.094009999999999
 20
55.6366
 30
0.0
 70
    32
  0
VERTEX
  5
4A1
330
46C
100
AcDbEntity
  8
0
100
AcDbVertex
100
AcDb3dPolylineVertex
 10
5.308309999999999
 20
55.61659999999999
 30
0.0
 70
    32
  0
VERTEX
  5
4A2
330
46C
100
AcDbEntity
  8
0
100
AcDbVertex
100
AcDb3dPolylineVertex
 10
5.52482
 20
55.5981
 30
0.0
 70
    32
  0
VERTEX
  5
4A3
330
46C
100
AcDbEntity
  8
0
100
AcDbVertex
100
AcDb3dPolylineVertex
 10
5.74335
 20
55.5812
 30
0.0
 70
    32
  0
VERTEX
  5
4A4
330
46C
100
AcDbEntity
  8
0
100
AcDbVertex
100
AcDb3dPolylineVertex
 10
5.963719999999999
 20
55.56589999999999
 30
0.0
 70
    32
  0
VERTEX
  5
4A5
330
46C
100
AcDbEntity
  8
0
100
AcDbVertex
100
AcDb3dPolylineVertex
 10
6.18576
 20
55.5521
 30
0.0
 70
    32
  0
VERTEX
  5
4A6
330
46C
100
AcDbEntity
  8
0
100
AcDbVertex
100
AcDb3dPolylineVertex
 10
6.409279999999999
 20
55.5399
 30
0.0
 70
    32
  0
VERTEX
  5
4A7
330
46C
100
AcDbEntity
  8
0
100
AcDbVertex
100
AcDb3dPolylineVertex
 10
6.6341
 20
55.5294
 30
0.0
 70
    32
  0
VERTEX
  5
4A8
330
46C
100
AcDbEntity
  8
0
100
AcDbVertex
100
AcDb3dPolylineVertex
 10
6.860039999999999
 20
55.5204
 30
0.0
 70
    32
  0
VERTEX
  5
4A9
330
46C
100
AcDbEntity
  8
0
100
AcDbVertex
100
AcDb3dPolylineVertex
 10
7.08691
 20
55.5131
 30
0.0
 70
    32
  0
VERTEX
  5
4AA
330
46C
100
AcDbEntity
  8
0
100
AcDbVertex
100
AcDb3dPolylineVertex
 10
7.31453
 20
55.5074
 30
0.0
 70
    32
  0
VERTEX
  5
4AB
330
46C
100
AcDbEntity
  8
0
100
AcDbVertex
100
AcDb3dPolylineVertex
 10
7.54271
 20
55.5033
 30
0.0
 70
    32
  0
VERTEX
  5
4AC
330
46C
100
AcDbEntity
  8
0
100
AcDbVertex
100
AcDb3dPolylineVertex
 10
7.77126
 20
55.5008
 30
0.0
 70
    32
  0
VERTEX
  5
4AD
330
46C
100
AcDbEntity
  8
0
100
AcDbVertex
100
AcDb3dPolylineVertex
 10
8.0
 20
55.5
 30
0.0
 70
    32
  0
VERTEX
  5
4AE
330
46C
100
AcDbEntity
  8
0
100
AcDbVertex
100
AcDb3dPolylineVertex
 10
8.22874
 20
55.5008
 30
0.0
 70
    32
  0
VERTEX
  5
4AF
330
46C
100
AcDbEntity
  8
0
100
AcDbVertex
100
AcDb3dPolylineVertex
 10
8.457289999999998
 20
55.5033
 30
0.0
 70
    32
  0
VERTEX
  5
4B0
330
46C
100
AcDbEntity
  8
0
100
AcDbVertex
100
AcDb3dPolylineVertex
 10
8.68547
 20
55.5074
 30
0.0
 70
    32
  0
VERTEX
  5
4B1
330
46C
100
AcDbEntity
  8
0
100
AcDbVertex
100
AcDb3dPolylineVertex
 10
8.913089999999998
 20
55.5131
 30
0.0
 70
    32
  0
VERTEX
  5
4B2
330
46C
100
AcDbEntity
  8
0
100
AcDbVertex
100
AcDb3dPolylineVertex
 10
9.13996
 20
55.5204
 30
0.0
 70
    32
  0
VERTEX
  5
4B3
330
46C
100
AcDbEntity
  8
0
100
AcDbVertex
100
AcDb3dPolylineVertex
 10
9.365899999999999
 20
55.5294
 30
0.0
 70
    32
  0
VERTEX
  5
4B4
330
46C
100
AcDbEntity
  8
0
100
AcDbVertex
100
AcDb3dPolylineVertex
 10
9.590719999999999
 20
55.5399
 30
0.0
 70
    32
  0
VERTEX
  5
4B5
330
46C
100
AcDbEntity
  8
0
100
AcDbVertex
100
AcDb3dPolylineVertex
 10
9.814239999999999
 20
55.5521
 30
0.0
 70
    32
  0
VERTEX
  5
4B6
330
46C
100
AcDbEntity
  8
0
100
AcDbVertex
100
AcDb3dPolylineVertex
 10
10.0363
 20
55.56589999999999
 30
0.0
 70
    32
  0
VERTEX
  5
4B7
330
46C
100
AcDbEntity
  8
0
100
AcDbVertex
100
AcDb3dPolylineVertex
 10
10.2567
 20
55.5812
 30
0.0
 70
    32
  0
VERTEX
  5
4B8
330
46C
100
AcDbEntity
  8
0
100
AcDbVertex
100
AcDb3dPolylineVertex
 10
10.4752
 20
55.5981
 30
0.0
 70
    32
  0
VERTEX
  5
4B9
330
46C
100
AcDbEntity
  8
0
100
AcDbVertex
100
AcDb3dPolylineVertex
 10
10.6917
 20
55.61659999999999
 30
0.0
 70
    32
  0
VERTEX
  5
4BA
330
46C
100
AcDbEntity
  8
0
100
AcDbVertex
100
AcDb3dPolylineVertex
 10
10.906
 20
55.6366
 30
0.0
 70
    32
  0
VERTEX
  5
4BB
330
46C
100
AcDbEntity
  8
0
100
AcDbVertex
100
AcDb3dPolylineVertex
 10
11.1179
 20
55.65809999999999
 30
0.0
 70
    32
  0
VERTEX
  5
4BC
330
46C
100
AcDbEntity
  8
0
100
AcDbVertex
100
AcDb3dPolylineVertex
 10
11.3273
 20
55.6812
 30
0.0
 70
    32
  0
VERTEX
  5
4BD
330
46C
100
AcDbEntity
  8
0
100
AcDbVertex
100
AcDb3dPolylineVertex
 10
11.53389999999999
 20
55.7057
 30
0.0
 70
    32
  0
VERTEX
  5
4BE
330
46C
100
AcDbEntity
  8
0
100
AcDbVertex
100
AcDb3dPolylineVertex
 10
11.73769999999999
 20
55.7317
 30
0.0
 70
    32
  0
VERTEX
  5
4BF
330
46C
100
AcDbEntity
  8
0
100
AcDbVertex
100
AcDb3dPolylineVertex
 10
11.9384
 20
55.75919999999999
 30
0.0
 70
    32
  0
VERTEX
  5
4C0
330
46C
100
AcDbEntity
  8
0
100
AcDbVertex
100
AcDb3dPolylineVertex
 10
12.13589999999999
 20
55.788
 30
0.0
 70
    32
  0
VERTEX
  5
4C1
330
46C
100
AcDbEntity
  8
0
100
AcDbVertex
100
AcDb3dPolylineVertex
 10
12.33
 20
55.8183
 30
0.0
 70
    32
  0
VERTEX
  5
4C2
330
46C
100
AcDbEntity
  8
0
100
AcDbVertex
100
AcDb3dPolylineVertex
 10
12.5206
 20
55.8499
 30
0.0
 70
    32
  0
VERTEX
  5
4C3
330
46C
100
AcDbEntity
  8
0
100
AcDbVertex
100
AcDb3dPolylineVertex
 10
12.7075
 20
55.8829
 30
0.0
 70
    32
  0
VERTEX
  5
4C4
330
46C
100
AcDbEntity
  8
0
100
AcDbVertex
100
AcDb3dPolylineVertex
 10
12.8905
 20
55.9172
 30
0.0
 70
    32
  0
VERTEX
  5
4C5
330
46C
100
AcDbEntity
  8
0
100
AcDbVertex
100
AcDb3dPolylineVertex
 10
13.0695
 20
55.9528
 30
0.0
 70
    32
  0
VERTEX
  5
4C6
330
46C
100
AcDbEntity
  8
0
100
AcDbVertex
100
AcDb3dPolylineVertex
 10
13.2444
 20
55.9897
 30
0.0
 70
    32
  0
VERTEX
  5
4C7
330
46C
100
AcDbEntity
  8
0
100
AcDbVertex
100
AcDb3dPolylineVertex
 10
13.41499999999999
 20
56.0278
 30
0.0
 70
    32
  0
VERTEX
  5
4C8
330
46C
100
AcDbEntity
  8
0
100
AcDbVertex
100
AcDb3dPolylineVertex
 10
13.58109999999999
 20
56.0671
 30
0.0
 70
    32
  0
VERTEX
  5
4C9
330
46C
100
AcDbEntity
  8
0
100
AcDbVertex
100
AcDb3dPolylineVertex
 10
13.7427
 20
56.10759999999999
 30
0.0
 70
    32
  0
VERTEX
  5
4CA
330
46C
100
AcDbEntity
  8
0
100
AcDbVertex
100
AcDb3dPolylineVertex
 10
13.8996
 20
56.1492
 30
0.0
 70
    32
  0
VERTEX
  5
4CB
330
46C
100
AcDbEntity
  8
0
100
AcDbVertex
100
AcDb3dPolylineVertex
 10
14.0517
 20
56.19189999999999
 30
0.0
 70
    32
  0
VERTEX
  5
4CC
330
46C
100
AcDbEntity
  8
0
100
AcDbVertex
100
AcDb3dPolylineVertex
 10
14.1988
 20
56.2357
 30
0.0
 70
    32
  0
VERTEX
  5
4CD
330
46C
100
AcDbEntity
  8
0
100
AcDbVertex
100
AcDb3dPolylineVertex
 10
14.3409
 20
56.2806
 30
0.0
 70
    32
  0
VERTEX
  5
4CE
330
46C
100
AcDbEntity
  8
0
100
AcDbVertex
100
AcDb3dPolylineVertex
 10
14.4778
 20
56.3264
 30
0.0
 70
    32
  0
VERTEX
  5
4CF
330
46C
100
AcDbEntity
  8
0
100
AcDbVertex
100
AcDb3dPolylineVertex
 10
14.6094
 20
56.37319999999999
 30
0.0
 70
    32
  0
VERTEX
  5
4D0
330
46C
100
AcDbEntity
  8
0
100
AcDbVertex
100
AcDb3dPolylineVertex
 10
14.7355
 20
56.4209
 30
0.0
 70
    32
  0
VERTEX
  5
4D1
330
46C
100
AcDbEntity
  8
0
100
AcDbVertex
100
AcDb3dPolylineVertex
 10
14.85619999999999
 20
56.4695
 30
0.0
 70
    32
  0
VERTEX
  5
4D2
330
46C
100
AcDbEntity
  8
0
100
AcDbVertex
100
AcDb3dPolylineVertex
 10
14.9713
 20
56.5189
 30
0.0
 70
    32
  0
VERTEX
  5
4D3
330
46C
100
AcDbEntity
  8
0
100
AcDbVertex
100
AcDb3dPolylineVertex
 10
15.0806
 20
56.56909999999999
 30
0.0
 70
    32
  0
VERTEX
  5
4D4
330
46C
100
AcDbEntity
  8
0
100
AcDbVertex
100
AcDb3dPolylineVertex
 10
15.1842
 20
56.6201
 30
0.0
 70
    32
  0
VERTEX
  5
4D5
330
46C
100
AcDbEntity
  8
0
100
AcDbVertex
100
AcDb3dPolylineVertex
 10
15.2819
 20
56.6718
 30
0.0
 70
    32
  0
VERTEX
  5
4D6
330
46C
100
AcDbEntity
  8
0
100
AcDbVertex
100
AcDb3dPolylineVertex
 10
15.3736
 20
56.7242
 30
0.0
 70
    32
  0
VERTEX
  5
4D7
330
46C
100
AcDbEntity
  8
0
100
AcDbVertex
100
AcDb3dPolylineVertex
 10
15.4593
 20
56.7772
 30
0.0
 70
    32
  0
VERTEX
  5
4D8
330
46C
100
AcDbEntity
  8
0
100
AcDbVertex
100
AcDb3dPolylineVertex
 10
15.539
 20
56.83089999999999
 30
0.0
 70
    32
  0
VERTEX
  5
4D9
330
46C
100
AcDbEntity
  8
0
100
AcDbVertex
100
AcDb3dPolylineVertex
 10
15.61239999999999
 20
56.885
 30
0.0
 70
    32
  0
VERTEX
  5
4DA
330
46C
100
AcDbEntity
  8
0
100
AcDbVertex
100
AcDb3dPolylineVertex
 10
15.6796
 20
56.9397
 30
0.0
 70
    32
  0
VERTEX
  5
4DB
330
46C
100
AcDbEntity
  8
0
100
AcDbVertex
100
AcDb3dPolylineVertex
 10
15.7406
 20
56.9948
 30
0.0
 70
    32
  0
VERTEX
  5
4DC
330
46C
100
AcDbEntity
  8
0
100
AcDbVertex
100
AcDb3dPolylineVertex
 10
15.7952
 20
57.0503
 30
0.0
 70
    32
  0
VERTEX
  5
4DD
330
46C
100
AcDbEntity
  8
0
100
AcDbVertex
100
AcDb3dPolylineVertex
 10
15.8434
 20
57.1062
 30
0.0
 70
    32
  0
VERTEX
  5
4DE
330
46C
100
AcDbEntity
  8
0
100
AcDbVertex
100
AcDb3dPolylineVertex
 10
15.8853
 20
57.1625
 30
0.0
 70
    32
  0
VERTEX
  5
4DF
330
46C
100
AcDbEntity
  8
0
100
AcDbVertex
100
AcDb3dPolylineVertex
 10
15.9206
 20
57.219
 30
0.0
 70
    32
  0
VERTEX
  5
4E0
330
46C
100
AcDbEntity
  8
0
100
AcDbVertex
100
AcDb3dPolylineVertex
 10
15.9495
 20
57.2757
 30
0.0
 70
    32
  0
VERTEX
  5
4E1
330
46C
100
AcDbEntity
  8
0
100
AcDbVertex
100
AcDb3dPolylineVertex
 10
15.9719
 20
57.3326
 30
0.0
 70
    32
  0
VERTEX
  5
4E2
330
46C
100
AcDbEntity
  8
0
100
AcDbVertex
100
AcDb3dPolylineVertex
 10
15.9878
 20
57.3897
 30
0.0
 70
    32
  0
VERTEX
  5
4E3
330
46C
100
AcDbEntity
  8
0
100
AcDbVertex
100
AcDb3dPolylineVertex
 10
15.9972
 20
57.4468
 30
0.0
 70
    32
  0
VERTEX
  5
4E4
330
46C
100
AcDbEntity
  8
0
100
AcDbVertex
100
AcDb3dPolylineVertex
 10
16.0
 20
57.50399999999999
 30
0.0
 70
    32
  0
VERTEX
  5
4E5
330
46C
100
AcDbEntity
  8
0
100
AcDbVertex
100
AcDb3dPolylineVertex
 10
15.9963
 20
57.5612
 30
0.0
 70
    32
  0
VERTEX
  5
4E6
330
46C
100
AcDbEntity
  8
0
100
AcDbVertex
100
AcDb3dPolylineVertex
 10
15.986
 20
57.61829999999999
 30
0.0
 70
    32
  0
VERTEX
  5
4E7
330
46C
100
AcDbEntity
  8
0
100
AcDbVertex
100
AcDb3dPolylineVertex
 10
15.9692
 20
57.6754
 30
0.0
 70
    32
  0
VERTEX
  5
4E8
330
46C
100
AcDbEntity
  8
0
100
AcDbVertex
100
AcDb3dPolylineVertex
 10
15.9459
 20
57.7323
 30
0.0
 70
    32
  0
VERTEX
  5
4E9
330
46C
100
AcDbEntity
  8
0
100
AcDbVertex
100
AcDb3dPolylineVertex
 10
15.9161
 20
57.789
 30
0.0
 70
    32
  0
VERTEX
  5
4EA
330
46C
100
AcDbEntity
  8
0
100
AcDbVertex
100
AcDb3dPolylineVertex
 10
15.87979999999999
 20
57.84539999999999
 30
0.0
 70
    32
  0
VERTEX
  5
4EB
330
46C
100
AcDbEntity
  8
0
100
AcDbVertex
100
AcDb3dPolylineVertex
 10
15.83709999999999
 20
57.9016
 30
0.0
 70
    32
  0
VERTEX
  5
4EC
330
46C
100
AcDbEntity
  8
0
100
AcDbVertex
100
AcDb3dPolylineVertex
 10
15.7879
 20
57.9575
 30
0.0
 70
    32
  0
VERTEX
  5
4ED
330
46C
100
AcDbEntity
  8
0
100
AcDbVertex
100
AcDb3dPolylineVertex
 10
15.7324
 20
58.0129
 30
0.0
 70
    32
  0
SEQEND
  5
4EE
330
46C
100
AcDbEntity
  8
0
  0
LINE
  5
4EF
330
455
100
AcDbEntity
  8
0
100
AcDbLine
 10
0.0
 20
38.5
 30
0.0
 11
0.0
 21
57.5
 31
0.0
  0
POLYLINE
  5
4F0
330
455
100
AcDbEntity
  8
0
100
AcDb3dPolyline
 66
     1
 10
0.0
 20
0.0
 30
0.0
 70
     8
  0
VERTEX
  5
4F1
330
4F0
100
AcDbEntity
  8
0
100
AcDbVertex
100
AcDb3dPolylineVertex
 10
0.0
 20
38.5
 30
0.0
 70
    32
  0
VERTEX
  5
4F2
330
4F0
100
AcDbEntity
  8
0
100
AcDbVertex
100
AcDb3dPolylineVertex
 10
0.00240945
 20
38.4543
 30
0.0
 70
    32
  0
VERTEX
  5
4F3
330
4F0
100
AcDbEntity
  8
0
100
AcDbVertex
100
AcDb3dPolylineVertex
 10
0.00963635
 20
38.40849999999999
 30
0.0
 70
    32
  0
VERTEX
  5
4F4
330
4F0
100
AcDbEntity
  8
0
100
AcDbVertex
100
AcDb3dPolylineVertex
 10
0.0216763
 20
38.3629
 30
0.0
 70
    32
  0
VERTEX
  5
4F5
330
4F0
100
AcDbEntity
  8
0
100
AcDbVertex
100
AcDb3dPolylineVertex
 10
0.0385222
 20
38.3173
 30
0.0
 70
    32
  0
VERTEX
  5
4F6
330
4F0
100
AcDbEntity
  8
0
100
AcDbVertex
100
AcDb3dPolylineVertex
 10
0.0601637
 20
38.2718
 30
0.0
 70
    32
  0
VERTEX
  5
4F7
330
4F0
100
AcDbEntity
  8
0
100
AcDbVertex
100
AcDb3dPolylineVertex
 10
0.0865879
 20
38.2265
 30
0.0
 70
    32
  0
VERTEX
  5
4F8
330
4F0
100
AcDbEntity
  8
0
100
AcDbVertex
100
AcDb3dPolylineVertex
 10
0.117779
 20
38.1813
 30
0.0
 70
    32
  0
VERTEX
  5
4F9
330
4F0
100
AcDbEntity
  8
0
100
AcDbVertex
100
AcDb3dPolylineVertex
 10
0.153718
 20
38.1364
 30
0.0
 70
    32
  0
VERTEX
  5
4FA
330
4F0
100
AcDbEntity
  8
0
100
AcDbVertex
100
AcDb3dPolylineVertex
 10
0.194383
 20
38.0916
 30
0.0
 70
    32
  0
VERTEX
  5
4FB
330
4F0
100
AcDbEntity
  8
0
100
AcDbVertex
100
AcDb3dPolylineVertex
 10
0.23975
 20
38.0471
 30
0.0
 70
    32
  0
VERTEX
  5
4FC
330
4F0
100
AcDbEntity
  8
0
100
AcDbVertex
100
AcDb3dPolylineVertex
 10
0.2897909999999999
 20
38.0028
 30
0.0
 70
    32
  0
VERTEX
  5
4FD
330
4F0
100
AcDbEntity
  8
0
100
AcDbVertex
100
AcDb3dPolylineVertex
 10
0.344477
 20
37.95889999999999
 30
0.0
 70
    32
  0
VERTEX
  5
4FE
330
4F0
100
AcDbEntity
  8
0
100
AcDbVertex
100
AcDb3dPolylineVertex
 10
0.403775
 20
37.9153
 30
0.0
 70
    32
  0
VERTEX
  5
4FF
330
4F0
100
AcDbEntity
  8
0
100
AcDbVertex
100
AcDb3dPolylineVertex
 10
0.4676470000000001
 20
37.872
 30
0.0
 70
    32
  0
VERTEX
  5
500
330
4F0
100
AcDbEntity
  8
0
100
AcDbVertex
100
AcDb3dPolylineVertex
 10
0.5360580000000001
 20
37.8292
 30
0.0
 70
    32
  0
VERTEX
  5
501
330
4F0
100
AcDbEntity
  8
0
100
AcDbVertex
100
AcDb3dPolylineVertex
 10
0.6089640000000001
 20
37.7867
 30
0.0
 70
    32
  0
VERTEX
  5
502
330
4F0
100
AcDbEntity
  8
0
100
AcDbVertex
100
AcDb3dPolylineVertex
 10
0.686322
 20
37.74459999999999
 30
0.0
 70
    32
  0
VERTEX
  5
503
330
4F0
100
AcDbEntity
  8
0
100
AcDbVertex
100
AcDb3dPolylineVertex
 10
0.768086
 20
37.703
 30
0.0
 70
    32
  0
VERTEX
  5
504
330
4F0
100
AcDbEntity
  8
0
100
AcDbVertex
100
AcDb3dPolylineVertex
 10
0.8542059999999999
 20
37.6619
 30
0.0
 70
    32
  0
VERTEX
  5
505
330
4F0
100
AcDbEntity
  8
0
100
AcDbVertex
100
AcDb3dPolylineVertex
 10
0.9446299999999999
 20
37.62129999999999
 30
0.0
 70
    32
  0
VERTEX
  5
506
330
4F0
100
AcDbEntity
  8
0
100
AcDbVertex
100
AcDb3dPolylineVertex
 10
1.039299999999999
 20
37.5812
 30
0.0
 70
    32
  0
VERTEX
  5
507
330
4F0
100
AcDbEntity
  8
0
100
AcDbVertex
100
AcDb3dPolylineVertex
 10
1.13817
 20
37.5417
 30
0.0
 70
    32
  0
VERTEX
  5
508
330
4F0
100
AcDbEntity
  8
0
100
AcDbVertex
100
AcDb3dPolylineVertex
 10
1.24117
 20
37.5028
 30
0.0
 70
    32
  0
VERTEX
  5
509
330
4F0
100
AcDbEntity
  8
0
100
AcDbVertex
100
AcDb3dPolylineVertex
 10
1.348239999999999
 20
37.46439999999999
 30
0.0
 70
    32
  0
VERTEX
  5
50A
330
4F0
100
AcDbEntity
  8
0
100
AcDbVertex
100
AcDb3dPolylineVertex
 10
1.45932
 20
37.42669999999999
 30
0.0
 70
    32
  0
VERTEX
  5
50B
330
4F0
100
AcDbEntity
  8
0
100
AcDbVertex
100
AcDb3dPolylineVertex
 10
1.57434
 20
37.3896
 30
0.0
 70
    32
  0
VERTEX
  5
50C
330
4F0
100
AcDbEntity
  8
0
100
AcDbVertex
100
AcDb3dPolylineVertex
 10
1.693229999999999
 20
37.3532
 30
0.0
 70
    32
  0
VERTEX
  5
50D
330
4F0
100
AcDbEntity
  8
0
100
AcDbVertex
100
AcDb3dPolylineVertex
 10
1.81592
 20
37.3175
 30
0.0
 70
    32
  0
VERTEX
  5
50E
330
4F0
100
AcDbEntity
  8
0
100
AcDbVertex
100
AcDb3dPolylineVertex
 10
1.942329999999999
 20
37.2825
 30
0.0
 70
    32
  0
VERTEX
  5
50F
330
4F0
100
AcDbEntity
  8
0
100
AcDbVertex
100
AcDb3dPolylineVertex
 10
2.072389999999999
 20
37.24819999999999
 30
0.0
 70
    32
  0
VERTEX
  5
510
330
4F0
100
AcDbEntity
  8
0
100
AcDbVertex
100
AcDb3dPolylineVertex
 10
2.20602
 20
37.2147
 30
0.0
 70
    32
  0
VERTEX
  5
511
330
4F0
100
AcDbEntity
  8
0
100
AcDbVertex
100
AcDb3dPolylineVertex
 10
2.34315
 20
37.182
 30
0.0
 70
    32
  0
VERTEX
  5
512
330
4F0
100
AcDbEntity
  8
0
100
AcDbVertex
100
AcDb3dPolylineVertex
 10
2.48368
 20
37.14999999999999
 30
0.0
 70
    32
  0
VERTEX
  5
513
330
4F0
100
AcDbEntity
  8
0
100
AcDbVertex
100
AcDb3dPolylineVertex
 10
2.62753
 20
37.11889999999999
 30
0.0
 70
    32
  0
VERTEX
  5
514
330
4F0
100
AcDbEntity
  8
0
100
AcDbVertex
100
AcDb3dPolylineVertex
 10
2.77462
 20
37.0886
 30
0.0
 70
    32
  0
VERTEX
  5
515
330
4F0
100
AcDbEntity
  8
0
100
AcDbVertex
100
AcDb3dPolylineVertex
 10
2.92485
 20
37.0591
 30
0.0
 70
    32
  0
VERTEX
  5
516
330
4F0
100
AcDbEntity
  8
0
100
AcDbVertex
100
AcDb3dPolylineVertex
 10
3.078149999999999
 20
37.0305
 30
0.0
 70
    32
  0
VERTEX
  5
517
330
4F0
100
AcDbEntity
  8
0
100
AcDbVertex
100
AcDb3dPolylineVertex
 10
3.23441
 20
37.0028
 30
0.0
 70
    32
  0
VERTEX
  5
518
330
4F0
100
AcDbEntity
  8
0
100
AcDbVertex
100
AcDb3dPolylineVertex
 10
3.39353
 20
36.97599999999999
 30
0.0
 70
    32
  0
VERTEX
  5
519
330
4F0
100
AcDbEntity
  8
0
100
AcDbVertex
100
AcDb3dPolylineVertex
 10
3.555439999999999
 20
36.95009999999999
 30
0.0
 70
    32
  0
VERTEX
  5
51A
330
4F0
100
AcDbEntity
  8
0
100
AcDbVertex
100
AcDb3dPolylineVertex
 10
3.720019999999999
 20
36.9252
 30
0.0
 70
    32
  0
VERTEX
  5
51B
330
4F0
100
AcDbEntity
  8
0
100
AcDbVertex
100
AcDb3dPolylineVertex
 10
3.88718
 20
36.9012
 30
0.0
 70
    32
  0
VERTEX
  5
51C
330
4F0
100
AcDbEntity
  8
0
100
AcDbVertex
100
AcDb3dPolylineVertex
 10
4.056809999999999
 20
36.8782
 30
0.0
 70
    32
  0
VERTEX
  5
51D
330
4F0
100
AcDbEntity
  8
0
100
AcDbVertex
100
AcDb3dPolylineVertex
 10
4.22883
 20
36.8561
 30
0.0
 70
    32
  0
VERTEX
  5
51E
330
4F0
100
AcDbEntity
  8
0
100
AcDbVertex
100
AcDb3dPolylineVertex
 10
4.403109999999999
 20
36.835
 30
0.0
 70
    32
  0
VERTEX
  5
51F
330
4F0
100
AcDbEntity
  8
0
100
AcDbVertex
100
AcDb3dPolylineVertex
 10
4.579559999999999
 20
36.81499999999999
 30
0.0
 70
    32
  0
VERTEX
  5
520
330
4F0
100
AcDbEntity
  8
0
100
AcDbVertex
100
AcDb3dPolylineVertex
 10
4.75807
 20
36.7959
 30
0.0
 70
    32
  0
VERTEX
  5
521
330
4F0
100
AcDbEntity
  8
0
100
AcDbVertex
100
AcDb3dPolylineVertex
 10
4.93853
 20
36.7779
 30
0.0
 70
    32
  0
VERTEX
  5
522
330
4F0
100
AcDbEntity
  8
0
100
AcDbVertex
100
AcDb3dPolylineVertex
 10
5.12084
 20
36.7609
 30
0.0
 70
    32
  0
VERTEX
  5
523
330
4F0
100
AcDbEntity
  8
0
100
AcDbVertex
100
AcDb3dPolylineVertex
 10
5.30488
 20
36.745
 30
0.0
 70
    32
  0
VERTEX
  5
524
330
4F0
100
AcDbEntity
  8
0
100
AcDbVertex
100
AcDb3dPolylineVertex
 10
5.490549999999999
 20
36.7301
 30
0.0
 70
    32
  0
VERTEX
  5
525
330
4F0
100
AcDbEntity
  8
0
100
AcDbVertex
100
AcDb3dPolylineVertex
 10
5.677719999999999
 20
36.71629999999999
 30
0.0
 70
    32
  0
VERTEX
  5
526
330
4F0
100
AcDbEntity
  8
0
100
AcDbVertex
100
AcDb3dPolylineVertex
 10
5.866299999999999
 20
36.7035
 30
0.0
 70
    32
  0
VERTEX
  5
527
330
4F0
100
AcDbEntity
  8
0
100
AcDbVertex
100
AcDb3dPolylineVertex
 10
6.05616
 20
36.69189999999999
 30
0.0
 70
    32
  0
VERTEX
  5
528
330
4F0
100
AcDbEntity
  8
0
100
AcDbVertex
100
AcDb3dPolylineVertex
 10
6.247189999999999
 20
36.6813
 30
0.0
 70
    32
  0
VERTEX
  5
529
330
4F0
100
AcDbEntity
  8
0
100
AcDbVertex
100
AcDb3dPolylineVertex
 10
6.43928
 20
36.6718
 30
0.0
 70
    32
  0
VERTEX
  5
52A
330
4F0
100
AcDbEntity
  8
0
100
AcDbVertex
100
AcDb3dPolylineVertex
 10
6.632299999999999
 20
36.6634
 30
0.0
 70
    32
  0
VERTEX
  5
52B
330
4F0
100
AcDbEntity
  8
0
100
AcDbVertex
100
AcDb3dPolylineVertex
 10
6.82616
 20
36.6562
 30
0.0
 70
    32
  0
VERTEX
  5
52C
330
4F0
100
AcDbEntity
  8
0
100
AcDbVertex
100
AcDb3dPolylineVertex
 10
7.02071
 20
36.65
 30
0.0
 70
    32
  0
VERTEX
  5
52D
330
4F0
100
AcDbEntity
  8
0
100
AcDbVertex
100
AcDb3dPolylineVertex
 10
7.21586
 20
36.645
 30
0.0
 70
    32
  0
VERTEX
  5
52E
330
4F0
100
AcDbEntity
  8
0
100
AcDbVertex
100
AcDb3dPolylineVertex
 10
7.41148
 20
36.6411
 30
0.0
 70
    32
  0
VERTEX
  5
52F
330
4F0
100
AcDbEntity
  8
0
100
AcDbVertex
100
AcDb3dPolylineVertex
 10
7.60746
 20
36.63819999999999
 30
0.0
 70
    32
  0
VERTEX
  5
530
330
4F0
100
AcDbEntity
  8
0
100
AcDbVertex
100
AcDb3dPolylineVertex
 10
7.803669999999999
 20
36.6366
 30
0.0
 70
    32
  0
VERTEX
  5
531
330
4F0
100
AcDbEntity
  8
0
100
AcDbVertex
100
AcDb3dPolylineVertex
 10
8.0
 20
36.636
 30
0.0
 70
    32
  0
VERTEX
  5
532
330
4F0
100
AcDbEntity
  8
0
100
AcDbVertex
100
AcDb3dPolylineVertex
 10
8.196329999999999
 20
36.6366
 30
0.0
 70
    32
  0
VERTEX
  5
533
330
4F0
100
AcDbEntity
  8
0
100
AcDbVertex
100
AcDb3dPolylineVertex
 10
8.392539999999998
 20
36.63819999999999
 30
0.0
 70
    32
  0
VERTEX
  5
534
330
4F0
100
AcDbEntity
  8
0
100
AcDbVertex
100
AcDb3dPolylineVertex
 10
8.588519999999999
 20
36.6411
 30
0.0
 70
    32
  0
VERTEX
  5
535
330
4F0
100
AcDbEntity
  8
0
100
AcDbVertex
100
AcDb3dPolylineVertex
 10
8.784139999999998
 20
36.645
 30
0.0
 70
    32
  0
VERTEX
  5
536
330
4F0
100
AcDbEntity
  8
0
100
AcDbVertex
100
AcDb3dPolylineVertex
 10
8.979289999999998
 20
36.65
 30
0.0
 70
    32
  0
VERTEX
  5
537
330
4F0
100
AcDbEntity
  8
0
100
AcDbVertex
100
AcDb3dPolylineVertex
 10
9.17384
 20
36.6562
 30
0.0
 70
    32
  0
VERTEX
  5
538
330
4F0
100
AcDbEntity
  8
0
100
AcDbVertex
100
AcDb3dPolylineVertex
 10
9.367699999999999
 20
36.6634
 30
0.0
 70
    32
  0
VERTEX
  5
539
330
4F0
100
AcDbEntity
  8
0
100
AcDbVertex
100
AcDb3dPolylineVertex
 10
9.560719999999999
 20
36.6718
 30
0.0
 70
    32
  0
VERTEX
  5
53A
330
4F0
100
AcDbEntity
  8
0
100
AcDbVertex
100
AcDb3dPolylineVertex
 10
9.75281
 20
36.6813
 30
0.0
 70
    32
  0
VERTEX
  5
53B
330
4F0
100
AcDbEntity
  8
0
100
AcDbVertex
100
AcDb3dPolylineVertex
 10
9.943839999999999
 20
36.69189999999999
 30
0.0
 70
    32
  0
VERTEX
  5
53C
330
4F0
100
AcDbEntity
  8
0
100
AcDbVertex
100
AcDb3dPolylineVertex
 10
10.13369999999999
 20
36.7035
 30
0.0
 70
    32
  0
VERTEX
  5
53D
330
4F0
100
AcDbEntity
  8
0
100
AcDbVertex
100
AcDb3dPolylineVertex
 10
10.32229999999999
 20
36.71629999999999
 30
0.0
 70
    32
  0
VERTEX
  5
53E
330
4F0
100
AcDbEntity
  8
0
100
AcDbVertex
100
AcDb3dPolylineVertex
 10
10.5095
 20
36.7301
 30
0.0
 70
    32
  0
VERTEX
  5
53F
330
4F0
100
AcDbEntity
  8
0
100
AcDbVertex
100
AcDb3dPolylineVertex
 10
10.69509999999999
 20
36.745
 30
0.0
 70
    32
  0
VERTEX
  5
540
330
4F0
100
AcDbEntity
  8
0
100
AcDbVertex
100
AcDb3dPolylineVertex
 10
10.8792
 20
36.7609
 30
0.0
 70
    32
  0
VERTEX
  5
541
330
4F0
100
AcDbEntity
  8
0
100
AcDbVertex
100
AcDb3dPolylineVertex
 10
11.0615
 20
36.7779
 30
0.0
 70
    32
  0
VERTEX
  5
542
330
4F0
100
AcDbEntity
  8
0
100
AcDbVertex
100
AcDb3dPolylineVertex
 10
11.2419
 20
36.7959
 30
0.0
 70
    32
  0
VERTEX
  5
543
330
4F0
100
AcDbEntity
  8
0
100
AcDbVertex
100
AcDb3dPolylineVertex
 10
11.4204
 20
36.81499999999999
 30
0.0
 70
    32
  0
VERTEX
  5
544
330
4F0
100
AcDbEntity
  8
0
100
AcDbVertex
100
AcDb3dPolylineVertex
 10
11.5969
 20
36.835
 30
0.0
 70
    32
  0
VERTEX
  5
545
330
4F0
100
AcDbEntity
  8
0
100
AcDbVertex
100
AcDb3dPolylineVertex
 10
11.7712
 20
36.8561
 30
0.0
 70
    32
  0
VERTEX
  5
546
330
4F0
100
AcDbEntity
  8
0
100
AcDbVertex
100
AcDb3dPolylineVertex
 10
11.9432
 20
36.8782
 30
0.0
 70
    32
  0
VERTEX
  5
547
330
4F0
100
AcDbEntity
  8
0
100
AcDbVertex
100
AcDb3dPolylineVertex
 10
12.1128
 20
36.9012
 30
0.0
 70
    32
  0
VERTEX
  5
548
330
4F0
100
AcDbEntity
  8
0
100
AcDbVertex
100
AcDb3dPolylineVertex
 10
12.27999999999999
 20
36.9252
 30
0.0
 70
    32
  0
VERTEX
  5
549
330
4F0
100
AcDbEntity
  8
0
100
AcDbVertex
100
AcDb3dPolylineVertex
 10
12.4446
 20
36.95009999999999
 30
0.0
 70
    32
  0
VERTEX
  5
54A
330
4F0
100
AcDbEntity
  8
0
100
AcDbVertex
100
AcDb3dPolylineVertex
 10
12.6065
 20
36.97599999999999
 30
0.0
 70
    32
  0
VERTEX
  5
54B
330
4F0
100
AcDbEntity
  8
0
100
AcDbVertex
100
AcDb3dPolylineVertex
 10
12.76559999999999
 20
37.0028
 30
0.0
 70
    32
  0
VERTEX
  5
54C
330
4F0
100
AcDbEntity
  8
0
100
AcDbVertex
100
AcDb3dPolylineVertex
 10
12.9219
 20
37.0305
 30
0.0
 70
    32
  0
VERTEX
  5
54D
330
4F0
100
AcDbEntity
  8
0
100
AcDbVertex
100
AcDb3dPolylineVertex
 10
13.0751
 20
37.0591
 30
0.0
 70
    32
  0
VERTEX
  5
54E
330
4F0
100
AcDbEntity
  8
0
100
AcDbVertex
100
AcDb3dPolylineVertex
 10
13.2254
 20
37.0886
 30
0.0
 70
    32
  0
VERTEX
  5
54F
330
4F0
100
AcDbEntity
  8
0
100
AcDbVertex
100
AcDb3dPolylineVertex
 10
13.3725
 20
37.11889999999999
 30
0.0
 70
    32
  0
VERTEX
  5
550
330
4F0
100
AcDbEntity
  8
0
100
AcDbVertex
100
AcDb3dPolylineVertex
 10
13.5163
 20
37.14999999999999
 30
0.0
 70
    32
  0
VERTEX
  5
551
330
4F0
100
AcDbEntity
  8
0
100
AcDbVertex
100
AcDb3dPolylineVertex
 10
13.6569
 20
37.182
 30
0.0
 70
    32
  0
VERTEX
  5
552
330
4F0
100
AcDbEntity
  8
0
100
AcDbVertex
100
AcDb3dPolylineVertex
 10
13.794
 20
37.2147
 30
0.0
 70
    32
  0
VERTEX
  5
553
330
4F0
100
AcDbEntity
  8
0
100
AcDbVertex
100
AcDb3dPolylineVertex
 10
13.92759999999999
 20
37.24819999999999
 30
0.0
 70
    32
  0
VERTEX
  5
554
330
4F0
100
AcDbEntity
  8
0
100
AcDbVertex
100
AcDb3dPolylineVertex
 10
14.0577
 20
37.2825
 30
0.0
 70
    32
  0
VERTEX
  5
555
330
4F0
100
AcDbEntity
  8
0
100
AcDbVertex
100
AcDb3dPolylineVertex
 10
14.1841
 20
37.3175
 30
0.0
 70
    32
  0
VERTEX
  5
556
330
4F0
100
AcDbEntity
  8
0
100
AcDbVertex
100
AcDb3dPolylineVertex
 10
14.3068
 20
37.3532
 30
0.0
 70
    32
  0
VERTEX
  5
557
330
4F0
100
AcDbEntity
  8
0
100
AcDbVertex
100
AcDb3dPolylineVertex
 10
14.4257
 20
37.3896
 30
0.0
 70
    32
  0
VERTEX
  5
558
330
4F0
100
AcDbEntity
  8
0
100
AcDbVertex
100
AcDb3dPolylineVertex
 10
14.54069999999999
 20
37.42669999999999
 30
0.0
 70
    32
  0
VERTEX
  5
559
330
4F0
100
AcDbEntity
  8
0
100
AcDbVertex
100
AcDb3dPolylineVertex
 10
14.6518
 20
37.46439999999999
 30
0.0
 70
    32
  0
VERTEX
  5
55A
330
4F0
100
AcDbEntity
  8
0
100
AcDbVertex
100
AcDb3dPolylineVertex
 10
14.7588
 20
37.5028
 30
0.0
 70
    32
  0
VERTEX
  5
55B
330
4F0
100
AcDbEntity
  8
0
100
AcDbVertex
100
AcDb3dPolylineVertex
 10
14.8618
 20
37.5417
 30
0.0
 70
    32
  0
VERTEX
  5
55C
330
4F0
100
AcDbEntity
  8
0
100
AcDbVertex
100
AcDb3dPolylineVertex
 10
14.9607
 20
37.5812
 30
0.0
 70
    32
  0
VERTEX
  5
55D
330
4F0
100
AcDbEntity
  8
0
100
AcDbVertex
100
AcDb3dPolylineVertex
 10
15.0554
 20
37.62129999999999
 30
0.0
 70
    32
  0
VERTEX
  5
55E
330
4F0
100
AcDbEntity
  8
0
100
AcDbVertex
100
AcDb3dPolylineVertex
 10
15.1458
 20
37.6619
 30
0.0
 70
    32
  0
VERTEX
  5
55F
330
4F0
100
AcDbEntity
  8
0
100
AcDbVertex
100
AcDb3dPolylineVertex
 10
15.2319
 20
37.703
 30
0.0
 70
    32
  0
VERTEX
  5
560
330
4F0
100
AcDbEntity
  8
0
100
AcDbVertex
100
AcDb3dPolylineVertex
 10
15.3137
 20
37.74459999999999
 30
0.0
 70
    32
  0
VERTEX
  5
561
330
4F0
100
AcDbEntity
  8
0
100
AcDbVertex
100
AcDb3dPolylineVertex
 10
15.391
 20
37.7867
 30
0.0
 70
    32
  0
VERTEX
  5
562
330
4F0
100
AcDbEntity
  8
0
100
AcDbVertex
100
AcDb3dPolylineVertex
 10
15.4639
 20
37.8292
 30
0.0
 70
    32
  0
VERTEX
  5
563
330
4F0
100
AcDbEntity
  8
0
100
AcDbVertex
100
AcDb3dPolylineVertex
 10
15.5324
 20
37.872
 30
0.0
 70
    32
  0
VERTEX
  5
564
330
4F0
100
AcDbEntity
  8
0
100
AcDbVertex
100
AcDb3dPolylineVertex
 10
15.59619999999999
 20
37.9153
 30
0.0
 70
    32
  0
VERTEX
  5
565
330
4F0
100
AcDbEntity
  8
0
100
AcDbVertex
100
AcDb3dPolylineVertex
 10
15.65549999999999
 20
37.95889999999999
 30
0.0
 70
    32
  0
VERTEX
  5
566
330
4F0
100
AcDbEntity
  8
0
100
AcDbVertex
100
AcDb3dPolylineVertex
 10
15.7102
 20
38.0028
 30
0.0
 70
    32
  0
VERTEX
  5
567
330
4F0
100
AcDbEntity
  8
0
100
AcDbVertex
100
AcDb3dPolylineVertex
 10
15.7603
 20
38.0471
 30
0.0
 70
    32
  0
VERTEX
  5
568
330
4F0
100
AcDbEntity
  8
0
100
AcDbVertex
100
AcDb3dPolylineVertex
 10
15.8056
 20
38.0916
 30
0.0
 70
    32
  0
VERTEX
  5
569
330
4F0
100
AcDbEntity
  8
0
100
AcDbVertex
100
AcDb3dPolylineVertex
 10
15.84629999999999
 20
38.1364
 30
0.0
 70
    32
  0
VERTEX
  5
56A
330
4F0
100
AcDbEntity
  8
0
100
AcDbVertex
100
AcDb3dPolylineVertex
 10
15.88219999999999
 20
38.1813
 30
0.0
 70
    32
  0
VERTEX
  5
56B
330
4F0
100
AcDbEntity
  8
0
100
AcDbVertex
100
AcDb3dPolylineVertex
 10
15.91339999999999
 20
38.2265
 30
0.0
 70
    32
  0
VERTEX
  5
56C
330
4F0
100
AcDbEntity
  8
0
100
AcDbVertex
100
AcDb3dPolylineVertex
 10
15.9398
 20
38.2718
 30
0.0
 70
    32
  0
VERTEX
  5
56D
330
4F0
100
AcDbEntity
  8
0
100
AcDbVertex
100
AcDb3dPolylineVertex
 10
15.96149999999999
 20
38.3173
 30
0.0
 70
    32
  0
VERTEX
  5
56E
330
4F0
100
AcDbEntity
  8
0
100
AcDbVertex
100
AcDb3dPolylineVertex
 10
15.9783
 20
38.3629
 30
0.0
 70
    32
  0
VERTEX
  5
56F
330
4F0
100
AcDbEntity
  8
0
100
AcDbVertex
100
AcDb3dPolylineVertex
 10
15.9904
 20
38.40849999999999
 30
0.0
 70
    32
  0
VERTEX
  5
570
330
4F0
100
AcDbEntity
  8
0
100
AcDbVertex
100
AcDb3dPolylineVertex
 10
15.9976
 20
38.4543
 30
0.0
 70
    32
  0
VERTEX
  5
571
330
4F0
100
AcDbEntity
  8
0
100
AcDbVertex
100
AcDb3dPolylineVertex
 10
16.0
 20
38.5
 30
0.0
 70
    32
  0
SEQEND
  5
572
330
4F0
100
AcDbEntity
  8
0
  0
LINE
  5
573
330
455
100
AcDbEntity
  8
0
100
AcDbLine
 10
2.029365
 20
56.16884599999999
 30
0.0
 11
2.0
 21
56.0
 31
0.0
  0
LINE
  5
574
330
455
100
AcDbEntity
  8
0
100
AcDbLine
 10
13.970635
 20
56.16884599999999
 30
0.0
 11
14.0
 21
56.0
 31
0.0
  0
LINE
  5
575
330
455
100
AcDbEntity
  8
0
100
AcDbLine
 10
8.0
 20
60.0
 30
0.0
 11
11.5
 21
60.0
 31
0.0
  0
ARC
  5
576
330
455
100
AcDbEntity
  8
0
100
AcDbCircle
 10
8.0
 20
62.916667
 30
0.0
 40
6.083333
100
AcDbArc
 50
48.88791
 51
131.1120899999999
  0
LINE
  5
577
330
455
100
AcDbEntity
  8
0
100
AcDbLine
 10
4.0
 20
67.5
 30
0.0
 11
2.514031999999999
 21
58.95568199999999
 31
0.0
  0
ARC
  5
578
330
455
100
AcDbEntity
  8
0
100
AcDbCircle
 10
4.5
 20
59.5
 30
0.0
 40
0.5
100
AcDbArc
 50
90.0
 51
180.0
  0
LINE
  5
579
330
455
100
AcDbEntity
  8
0
100
AcDbLine
 10
4.0
 20
59.5
 30
0.0
 11
4.0
 21
57.5
 31
0.0
  0
LINE
  5
57A
330
455
100
AcDbEntity
  8
0
100
AcDbLine
 10
8.0
 20
60.0
 30
0.0
 11
4.5
 21
60.0
 31
0.0
  0
LINE
  5
57B
330
455
100
AcDbEntity
  8
0
100
AcDbLine
 10
12.0
 20
67.5
 30
0.0
 11
13.485968
 21
58.95568199999999
 31
0.0
  0
ARC
  5
57C
330
455
100
AcDbEntity
  8
0
100
AcDbCircle
 10
11.5
 20
59.5
 30
0.0
 40
0.5
100
AcDbArc
 50
0.0
 51
90.0
  0
LINE
  5
57D
330
455
100
AcDbEntity
  8
0
100
AcDbLine
 10
12.0
 20
59.5
 30
0.0
 11
12.0
 21
57.5
 31
0.0
  0
LINE
  5
57E
330
455
100
AcDbEntity
  8
0
100
AcDbLine
 10
54.0
 20
54.734191
 30
0.0
 11
54.0
 21
38.004234
 31
0.0
  0
ARC
  5
57F
330
455
100
AcDbEntity
  8
0
100
AcDbCircle
 10
55.0
 20
54.734191
 30
0.0
 40
1.0
100
AcDbArc
 50
105.1095749999999
 51
180.0
  0
LINE
  5
580
330
455
100
AcDbEntity
  8
1
100
AcDbLine
 10
62.0
 20
63.0
 30
0.0
 11
62.0
 21
0.0
 31
0.0
  0
LINE
  5
581
330
455
100
AcDbEntity
  8
0
100
AcDbLine
 10
68.0
 20
33.5
 30
0.0
 11
68.0
 21
40.46249999999999
 31
0.0
  0
LINE
  5
582
330
455
100
AcDbEntity
  8
0
100
AcDbLine
 10
56.0
 20
33.5
 30
0.0
 11
56.0
 21
37.23749999999999
 31
0.0
  0
LINE
  5
583
330
455
100
AcDbEntity
  8
0
100
AcDbLine
 10
59.0
 20
33.5
 30
0.0
 11
59.0
 21
4.0
 31
0.0
  0
LINE
  5
584
330
455
100
AcDbEntity
  8
0
100
AcDbLine
 10
59.5
 20
3.5
 30
0.0
 11
59.5
 21
32.5
 31
0.0
  0
LINE
  5
585
330
455
100
AcDbEntity
  8
0
100
AcDbLine
 10
64.5
 20
3.5
 30
0.0
 11
64.5
 21
32.5
 31
0.0
  0
LINE
  5
586
330
455
100
AcDbEntity
  8
0
100
AcDbLine
 10
65.0
 20
33.5
 30
0.0
 11
65.0
 21
4.0
 31
0.0
  0
LINE
  5
587
330
455
100
AcDbEntity
  8
0
100
AcDbLine
 10
64.5
 20
3.5
 30
0.0
 11
62.0
 21
3.5
 31
0.0
  0
LINE
  5
588
330
455
100
AcDbEntity
  8
0
100
AcDbLine
 10
65.0
 20
4.0
 30
0.0
 11
62.0
 21
4.0
 31
0.0
  0
LINE
  5
589
330
455
100
AcDbEntity
  8
0
100
AcDbLine
 10
59.5
 20
3.5
 30
0.0
 11
62.0
 21
3.5
 31
0.0
  0
LINE
  5
58A
330
455
100
AcDbEntity
  8
0
100
AcDbLine
 10
59.0
 20
4.0
 30
0.0
 11
62.0
 21
4.0
 31
0.0
  0
LINE
  5
58B
330
455
100
AcDbEntity
  8
0
100
AcDbLine
 10
59.0
 20
4.0
 30
0.0
 11
59.5
 21
3.5
 31
0.0
  0
LINE
  5
58C
330
455
100
AcDbEntity
  8
0
100
AcDbLine
 10
65.0
 20
4.0
 30
0.0
 11
64.5
 21
3.5
 31
0.0
  0
LINE
  5
58D
330
455
100
AcDbEntity
  8
0
100
AcDbLine
 10
65.0
 20
32.5
 30
0.0
 11
62.0
 21
32.5
 31
0.0
  0
LINE
  5
58E
330
455
100
AcDbEntity
  8
0
100
AcDbLine
 10
62.0
 20
33.5
 30
0.0
 11
68.0
 21
33.5
 31
0.0
  0
LINE
  5
58F
330
455
100
AcDbEntity
  8
0
100
AcDbLine
 10
62.0
 20
33.5
 30
0.0
 11
56.0
 21
33.5
 31
0.0
  0
LINE
  5
590
330
455
100
AcDbEntity
  8
0
100
AcDbLine
 10
59.0
 20
32.5
 30
0.0
 11
62.0
 21
32.5
 31
0.0
  0
LINE
  5
591
330
455
100
AcDbEntity
  8
0
100
AcDbLine
 10
91.5
 20
57.0
 30
0.0
 11
68.0
 21
50.0
 31
0.0
  0
LINE
  5
592
330
455
100
AcDbEntity
  8
0
100
AcDbLine
 10
68.0
 20
50.0
 30
0.0
 11
68.0
 21
59.28
 31
0.0
  0
LINE
  5
593
330
455
100
AcDbEntity
  8
0
100
AcDbLine
 10
58.0
 20
56.58
 30
0.0
 11
58.0
 21
59.5
 31
0.0
  0
LINE
  5
594
330
455
100
AcDbEntity
  8
0
100
AcDbLine
 10
70.0
 20
41.766734
 30
0.0
 11
70.0
 21
50.595745
 31
0.0
  0
LINE
  5
595
330
455
100
AcDbEntity
  8
0
100
AcDbLine
 10
69.25954
 20
40.801001
 30
0.0
 11
55.25954
 21
37.038501
 31
0.0
  0
ARC
  5
596
330
455
100
AcDbEntity
  8
0
100
AcDbCircle
 10
69.0
 20
41.766734
 30
0.0
 40
1.0
100
AcDbArc
 50
285.0428009999999
 51
0.0
  0
LINE
  5
597
330
455
100
AcDbEntity
  8
0
100
AcDbLine
 10
58.5
 20
60.0
 30
0.0
 11
65.5
 21
60.0
 31
0.0
  0
ARC
  5
598
330
455
100
AcDbEntity
  8
0
100
AcDbCircle
 10
58.5
 20
59.5
 30
0.0
 40
0.5
100
AcDbArc
 50
90.0
 51
180.0
  0
ARC
  5
599
330
455
100
AcDbEntity
  8
0
100
AcDbCircle
 10
65.5
 20
59.5
 30
0.0
 40
0.5
100
AcDbArc
 50
0.0
 51
90.0
  0
LINE
  5
59A
330
455
100
AcDbEntity
  8
0
100
AcDbLine
 10
66.0
 20
59.5
 30
0.0
 11
66.0
 21
58.74
 31
0.0
  0
LINE
  5
59B
330
455
100
AcDbEntity
  8
0
100
AcDbLine
 10
103.2524219999999
 20
58.80498000000001
 30
0.0
 11
93.05439399999999
 21
56.144624
 31
0.0
  0
ARC
  5
59C
330
455
100
AcDbEntity
  8
0
100
AcDbCircle
 10
92.80197199999999
 20
57.112242
 30
0.0
 40
1.0
100
AcDbArc
 50
225.0
 51
284.620874
  0
LINE
  5
59D
330
455
100
AcDbEntity
  8
0
100
AcDbLine
 10
92.094865
 20
56.40513499999999
 30
0.0
 11
91.5
 21
57.0
 31
0.0
  0
ARC
  5
59E
330
455
100
AcDbEntity
  8
0
100
AcDbCircle
 10
103.0
 20
67.694191
 30
0.0
 40
1.0
100
AcDbArc
 50
0.0
 51
105.1095749999999
  0
LINE
  5
59F
330
455
100
AcDbEntity
  8
0
100
AcDbLine
 10
104.0
 20
67.694191
 30
0.0
 11
104.0
 21
59.772597
 31
0.0
  0
ARC
  5
5A0
330
455
100
AcDbEntity
  8
0
100
AcDbCircle
 10
103.0
 20
59.772597
 30
0.0
 40
1.0
100
AcDbArc
 50
284.620874
 51
0.0
  0
ENDBLK
  5
5A1
330
455
100
AcDbEntity
  8
0
100
AcDbBlockEnd
  0
BLOCK
  5
81F
330
81E
100
AcDbEntity
  8
0
100
AcDbBlockBegin
  2
*U3
 70
     1
 10
0.0
 20
0.0
 30
0.0
  3
*U3
  1

  0
ENDBLK
  5
820
330
81E
100
AcDbEntity
  8
0
100
AcDbBlockEnd
  0
BLOCK
  5
860
330
85E
100
AcDbEntity
  8
0
100
AcDbBlockBegin
  2
GENAXEH
 70
     0
 10
0.0
 20
0.0
 30
0.0
  3
GENAXEH
  1

  0
LINE
  5
85F
330
85E
100
AcDbEntity
  8
0
100
AcDbLine
 10
-1.0
 20
0.0
 30
0.0
 11
1.0
 21
0.0
 31
0.0
  0
ENDBLK
  5
861
330
85E
100
AcDbEntity
  8
0
100
AcDbBlockEnd
  0
ENDSEC
  0
SECTION
  2
ENTITIES
  0
CIRCLE
  5
9AE
330
443
100
AcDbEntity
  8
0
100
AcDbCircle
 10
-28.92078801541984
 20
65.74222307708698
 30
0.0
 40
4.187999999999999
  0
CIRCLE
  5
9AF
330
443
100
AcDbEntity
  8
3
100
AcDbCircle
 10
-28.92078801541984
 20
65.74222307708698
 30
0.0
 40
5.0
  0
LINE
  5
9B0
330
443
100
AcDbEntity
  8
0
100
AcDbLine
 10
-56.6119707299911
 20
55.3567211343086
 30
0.0
 11
-42.06899015015207
 21
69.61484378113869
 31
0.0
  0
LINE
  5
9B1
330
443
100
AcDbEntity
  8
0
100
AcDbLine
 10
-56.9419036625242
 20
56.03714007691258
 30
0.0
 11
-42.71343311367982
 21
69.98691309960872
 31
0.0
  0
CIRCLE
  5
9B2
330
443
100
AcDbEntity
  8
0
100
AcDbCircle
 10
-28.92078801541984
 20
65.74222307708703
 30
0.0
 40
11.25
  0
CIRCLE
  5
9B3
330
443
100
AcDbEntity
  8
0
100
AcDbCircle
 10
-28.92078801541984
 20
65.74222307708698
 30
0.0
 40
7.499999999999985
  0
CIRCLE
  5
9B4
330
443
100
AcDbEntity
  8
0
100
AcDbCircle
 10
-28.92078801541984
 20
65.74222307708703
 30
0.0
 40
6.499999999999971
  0
LINE
  5
9B5
330
443
100
AcDbEntity
  8
0
100
AcDbLine
 10
-1.229605300848362
 20
55.35672113430848
 30
0.0
 11
-15.77258588068755
 21
69.61484378113863
 31
0.0
  0
LINE
  5
9B6
330
443
100
AcDbEntity
  8
0
100
AcDbLine
 10
-0.8996696175650242
 20
56.03713738004199
 30
0.0
 11
-15.12814097208556
 21
69.9869111926331
 31
0.0
  0
LINE
  5
9B7
330
443
100
AcDbEntity
  8
1
100
AcDbLine
 10
-28.92078801541984
 20
102.2422230770869
 30
0.0
 11
-28.92078801541984
 21
40.01112038821981
 31
0.0
  0
CIRCLE
  5
9B8
330
443
100
AcDbEntity
  8
0
100
AcDbCircle
 10
-28.92078801541984
 20
65.74222307708703
 30
0.0
 40
12.25
  0
LINE
  5
9B9
330
443
100
AcDbEntity
  8
0
100
AcDbLine
 10
-6.081088144635515
 20
46.95370635682081
 30
0.0
 11
-25.70047485698407
 21
52.41923566229013
 31
0.0
  0
LINE
  5
9BA
330
443
100
AcDbEntity
  8
0
100
AcDbLine
 10
-6.505381767880095
 20
46.32776658440008
 30
0.0
 11
-25.70047485698407
 21
51.67509702534999
 31
0.0
  0
LINE
  5
9BB
330
443
100
AcDbEntity
  8
0
100
AcDbLine
 10
-51.76048788620429
 20
46.95370635682081
 30
0.0
 11
-32.14110117385556
 21
52.41923566229013
 31
0.0
  0
LINE
  5
9BC
330
443
100
AcDbEntity
  8
0
100
AcDbLine
 10
-51.33619426295936
 20
46.32776658440014
 30
0.0
 11
-32.14110117385561
 21
51.67509702534999
 31
0.0
  0
ARC
  5
9BD
330
443
100
AcDbEntity
  8
0
100
AcDbCircle
 10
-28.92078801541979
 20
65.74222307708692
 30
0.0
 40
31.5
100
AcDbArc
 50
204.5630297519102
 51
215.4369702480897
  0
ARC
  5
9BE
330
443
100
AcDbEntity
  8
0
100
AcDbCircle
 10
-28.92078801541979
 20
65.74222307708692
 30
0.0
 40
30.5
100
AcDbArc
 50
203.2694155180151
 51
216.7305844819849
  0
ARC
  5
9BF
330
443
100
AcDbEntity
  8
0
100
AcDbCircle
 10
-52.14127255256832
 20
49.21772314940255
 30
0.0
 40
3.0
100
AcDbArc
 50
215.4369702480894
 51
285.5666666666667
  0
ARC
  5
9C0
330
443
100
AcDbEntity
  8
0
100
AcDbCircle
 10
-52.16302703100879
 20
48.39868463932202
 30
0.0
 40
1.5
100
AcDbArc
 50
216.7305844819849
 51
285.5666666666667
  0
ARC
  5
9C1
330
443
100
AcDbEntity
  8
0
100
AcDbCircle
 10
-54.84166700620298
 20
53.89494354357475
 30
0.0
 40
3.0
100
AcDbArc
 50
134.4333333333335
 51
204.5630297519102
  0
ARC
  5
9C2
330
443
100
AcDbEntity
  8
0
100
AcDbCircle
 10
-55.56185240183046
 20
54.28562286763969
 30
0.0
 40
1.5
100
AcDbArc
 50
134.4333333333335
 51
203.2694155180151
  0
ARC
  5
9C3
330
443
100
AcDbEntity
  8
0
100
AcDbCircle
 10
-28.92078801541984
 20
40.11527076534048
 30
0.0
 40
12.0
100
AcDbArc
 50
74.43333333333318
 51
105.5666666666668
  0
ARC
  5
9C4
330
443
100
AcDbEntity
  8
0
100
AcDbCircle
 10
-28.92078801541984
 20
40.85940940228067
 30
0.0
 40
12.0
100
AcDbArc
 50
74.43333333333318
 51
105.5666666666668
  0
ARC
  5
9C5
330
443
100
AcDbEntity
  8
0
100
AcDbCircle
 10
-28.92078801541979
 20
65.74222307708692
 30
0.0
 40
31.5
100
AcDbArc
 50
324.5630297519102
 51
335.4369702480897
  0
ARC
  5
9C6
330
443
100
AcDbEntity
  8
0
100
AcDbCircle
 10
-28.92078801541979
 20
65.74222307708692
 30
0.0
 40
30.5
100
AcDbArc
 50
323.269415518015
 51
336.7305844819845
  0
ARC
  5
9C7
330
443
100
AcDbEntity
  8
0
100
AcDbCircle
 10
-5.700303478271194
 20
49.21772314940245
 30
0.0
 40
3.0
100
AcDbArc
 50
254.4333333333332
 51
324.5630297519102
  0
ARC
  5
9C8
330
443
100
AcDbEntity
  8
0
100
AcDbCircle
 10
-5.678548999831065
 20
48.39868463932202
 30
0.0
 40
1.5
100
AcDbArc
 50
254.4333333333332
 51
323.2694155180153
  0
ARC
  5
9C9
330
443
100
AcDbEntity
  8
0
100
AcDbCircle
 10
-2.279723629009055
 20
54.28562286763952
 30
0.0
 40
1.5
100
AcDbArc
 50
336.7305844819853
 51
45.56666666666647
  0
ARC
  5
9CA
330
443
100
AcDbEntity
  8
0
100
AcDbCircle
 10
-2.999909024636764
 20
53.89494354357475
 30
0.0
 40
3.0
100
AcDbArc
 50
335.4369702480897
 51
45.56666666666675
  0
LINE
  5
9CB
330
443
100
AcDbEntity
  8
0
100
AcDbLine
 10
-23.31507861585512
 20
94.86176256994822
 30
0.0
 11
-18.34845607559569
 21
75.56465910630198
 31
0.0
  0
LINE
  5
9CC
330
443
100
AcDbEntity
  8
0
100
AcDbLine
 10
-24.06930517163286
 20
94.91624174013145
 30
0.0
 11
-18.99289903912332
 21
75.19258978783193
 31
0.0
  0
LINE
  5
9CD
330
443
100
AcDbEntity
  8
1
100
AcDbLine
 10
-55.93319369030385
 20
65.74222307708698
 30
0.0
 11
-2.333200432697282
 21
65.74222307708698
 31
0.0
  0
LINE
  5
9CE
330
443
100
AcDbEntity
  8
0
100
AcDbLine
 10
-34.52649741498456
 20
94.86176256994804
 30
0.0
 11
-39.49311995524405
 21
75.56465910630203
 31
0.0
  0
LINE
  5
9CF
330
443
100
AcDbEntity
  8
0
100
AcDbLine
 10
-33.77227085920671
 20
94.91624174013157
 30
0.0
 11
-38.8486769917163
 21
75.19258978783199
 31
0.0
  0
ARC
  5
9D0
330
443
100
AcDbEntity
  8
0
100
AcDbCircle
 10
-51.1143797389646
 20
78.55569923296013
 30
0.0
 40
12.0
100
AcDbArc
 50
314.4333333333335
 51
345.5666666666668
  0
ARC
  5
9D1
330
443
100
AcDbEntity
  8
0
100
AcDbCircle
 10
-50.46993677543685
 20
78.1836299144901
 30
0.0
 40
12.0
100
AcDbArc
 50
314.4333333333335
 51
345.5666666666668
  0
ARC
  5
9D2
330
443
100
AcDbEntity
  8
0
100
AcDbCircle
 10
-28.92078801541984
 20
65.74222307708698
 30
0.0
 40
31.5
100
AcDbArc
 50
84.56302975191043
 51
95.43697024808954
  0
ARC
  5
9D3
330
443
100
AcDbEntity
  8
0
100
AcDbCircle
 10
-28.92078801541984
 20
65.74222307708698
 30
0.0
 40
30.5
100
AcDbArc
 50
83.26941551801521
 51
96.73058448198482
  0
ARC
  5
9D4
330
443
100
AcDbEntity
  8
0
100
AcDbCircle
 10
-31.62118246905436
 20
94.11400253828356
 30
0.0
 40
3.0
100
AcDbArc
 50
95.43697024808954
 51
165.5666666666669
  0
ARC
  5
9D5
330
443
100
AcDbEntity
  8
0
100
AcDbCircle
 10
-32.31961338624159
 20
94.54236172429933
 30
0.0
 40
1.5
100
AcDbArc
 50
96.7305844819856
 51
165.5666666666665
  0
ARC
  5
9D6
330
443
100
AcDbEntity
  8
0
100
AcDbCircle
 10
-26.22039356178527
 20
94.11400253828366
 30
0.0
 40
3.0
100
AcDbArc
 50
14.43333333333349
 51
84.56302975191043
  0
ARC
  5
9D7
330
443
100
AcDbEntity
  8
0
100
AcDbCircle
 10
-25.52196264459792
 20
94.54236172429915
 30
0.0
 40
1.5
100
AcDbArc
 50
14.43333333333349
 51
83.26941551801521
  0
ARC
  5
9D8
330
443
100
AcDbEntity
  8
0
100
AcDbCircle
 10
-6.727196291875117
 20
78.55569923296008
 30
0.0
 40
12.0
100
AcDbArc
 50
194.433333333333
 51
225.5666666666664
  0
ARC
  5
9D9
330
443
100
AcDbEntity
  8
0
100
AcDbCircle
 10
-7.371639255402698
 20
78.18362991449004
 30
0.0
 40
12.0
100
AcDbArc
 50
194.433333333333
 51
225.5666666666664
  0
LINE
  5
9DA
330
443
100
AcDbEntity
  8
2
100
AcDbLine
 10
90.07827518109143
 20
69.93022307708708
 30
0.0
 11
90.07827518109143
 21
61.55422307708687
 31
0.0
  0
LINE
  5
9DB
330
443
100
AcDbEntity
  8
0
100
AcDbLine
 10
91.57827518109133
 20
73.74222307708698
 30
0.0
 11
91.57827518109133
 21
57.74222307708697
 31
0.0
  0
LINE
  5
9DC
330
443
100
AcDbEntity
  8
0
100
AcDbLine
 10
91.27827518109127
 20
78.24222307708703
 30
0.0
 11
91.27827518109127
 21
53.24222307708698
 31
0.0
  0
LINE
  5
9DD
330
443
100
AcDbEntity
  8
0
100
AcDbLine
 10
69.38995609692125
 20
70.70183707964748
 30
0.0
 11
62.81577125832717
 21
55.17757462030693
 31
0.0
  0
LINE
  5
9DE
330
443
100
AcDbEntity
  8
0
100
AcDbLine
 10
90.27827518109125
 20
52.24222307708697
 30
0.0
 11
90.27827518109125
 21
79.24222307708692
 31
0.0
  0
LINE
  5
9DF
330
443
100
AcDbEntity
  8
0
100
AcDbLine
 10
80.57827518109121
 20
64.28471427975717
 30
0.0
 11
80.57827518109121
 21
53.15434408356248
 31
0.0
  0
LINE
  5
9E0
330
443
100
AcDbEntity
  8
0
100
AcDbLine
 10
73.30580311605848
 20
54.61675202000122
 30
0.0
 11
80.17522355793966
 21
65.52101715664639
 31
0.0
  0
LINE
  5
9E1
330
443
100
AcDbEntity
  8
2
100
AcDbLine
 10
69.57827518109133
 20
73.24222307708698
 30
0.0
 11
69.57827518109133
 21
58.24222307708698
 31
0.0
  0
LINE
  5
9E2
330
443
100
AcDbEntity
  8
2
100
AcDbLine
 10
71.57827518109133
 20
71.24222307708698
 30
0.0
 11
71.57827518109133
 21
60.24222307708697
 31
0.0
  0
LINE
  5
9E3
330
443
100
AcDbEntity
  8
2
100
AcDbLine
 10
70.57827518109133
 20
72.24222307708697
 30
0.0
 11
70.57827518109133
 21
59.24222307708697
 31
0.0
  0
LINE
  5
9E4
330
443
100
AcDbEntity
  8
2
100
AcDbLine
 10
66.57827518109133
 20
58.24222307708698
 30
0.0
 11
66.57827518109133
 21
73.24222307708698
 31
0.0
  0
LINE
  5
9E5
330
443
100
AcDbEntity
  8
0
100
AcDbLine
 10
-20.92078801541984
 20
-26.78487022674215
 30
0.0
 11
-36.92078801541981
 21
-26.78487022674215
 31
0.0
  0
LINE
  5
9E6
330
443
100
AcDbEntity
  8
2
100
AcDbLine
 10
-36.42078801541984
 20
-4.78487022674227
 30
0.0
 11
-36.92078801541984
 21
-5.28487022674227
 31
0.0
  0
LINE
  5
9E7
330
443
100
AcDbEntity
  8
0
100
AcDbLine
 10
-50.33619426295939
 20
0.7520524314083446
 30
0.0
 11
-34.73163695985124
 21
-5.330498482983131
 31
0.0
  0
LINE
  5
9E8
330
443
100
AcDbEntity
  8
0
100
AcDbLine
 10
-50.98585341164633
 20
2.078569278518394
 30
0.0
 11
-29.18086286598469
 21
-6.420868584764946
 31
0.0
  0
LINE
  5
9E9
330
443
100
AcDbEntity
  8
0
100
AcDbLine
 10
-51.3361942629594
 20
-8.512398161709313
 30
0.0
 11
-32.78511025213106
 21
-15.54087359647593
 31
0.0
  0
LINE
  5
9EA
330
443
100
AcDbEntity
  8
0
100
AcDbLine
 10
-17.67078801541984
 20
-1.784870226742157
 30
0.0
 11
-40.17078801541981
 21
-1.7848702267421
 31
0.0
  0
LINE
  5
9EB
330
443
100
AcDbEntity
  8
0
100
AcDbLine
 10
-38.50888091800465
 20
-2.784870226742128
 30
0.0
 11
-19.33269511283504
 21
-2.784870226742128
 31
0.0
  0
LINE
  5
9EC
330
443
100
AcDbEntity
  8
0
100
AcDbLine
 10
-16.42078801541973
 20
-26.484870226742
 30
0.0
 11
-41.42078801541984
 21
-26.48487022674214
 31
0.0
  0
LINE
  5
9ED
330
443
100
AcDbEntity
  8
0
100
AcDbLine
 10
-42.42078801541981
 20
-25.48487022674214
 30
0.0
 11
-15.42078801541984
 21
-25.48487022674212
 31
0.0
  0
LINE
  5
9EE
330
443
100
AcDbEntity
  8
0
100
AcDbLine
 10
-51.3361942629594
 20
1.215129773257878
 30
0.0
 11
-51.3361942629594
 21
-7.512398161709313
 31
0.0
  0
LINE
  5
9EF
330
443
100
AcDbEntity
  8
0
100
AcDbLine
 10
-57.84166700620301
 20
0.215129773257857
 30
0.0
 11
-57.84166700620301
 21
-6.927334407904353
 31
0.0
  0
LINE
  5
9F0
330
443
100
AcDbEntity
  8
0
100
AcDbLine
 10
-40.42420689971613
 20
-2.038289111038409
 30
0.0
 11
-40.17078801541987
 21
-1.784870226742157
 31
0.0
  0
ARC
  5
9F1
330
443
100
AcDbEntity
  8
0
100
AcDbCircle
 10
-55.84166700620301
 20
0.2151297732578428
 30
0.0
 40
2.0
100
AcDbArc
 50
89.99999999999998
 51
180.0
  0
LINE
  5
9F2
330
443
100
AcDbEntity
  8
0
100
AcDbLine
 10
-51.71220952970026
 20
2.215129773257849
 30
0.0
 11
-55.84166700620301
 21
2.215129773257849
 31
0.0
  0
ARC
  5
9F3
330
443
100
AcDbEntity
  8
0
100
AcDbCircle
 10
-51.71220952970026
 20
0.2151297732578428
 30
0.0
 40
2.0
100
AcDbArc
 50
68.70449972129581
 51
89.99999999999998
  0
ARC
  5
9F4
330
443
100
AcDbEntity
  8
0
100
AcDbCircle
 10
-55.34166700620301
 20
-6.927334407904368
 30
0.0
 40
2.5
100
AcDbArc
 50
180.0
 51
244.7514790966191
  0
LINE
  5
9F5
330
443
100
AcDbEntity
  8
2
100
AcDbLine
 10
-36.92078801541984
 20
-26.48487022674197
 30
0.0
 11
-36.92078801541984
 21
-5.28487022674227
 31
0.0
  0
ARC
  5
9F6
330
443
100
AcDbEntity
  8
0
100
AcDbCircle
 10
-44.42078801541984
 20
-17.05292122978602
 30
0.0
 40
2.0
100
AcDbArc
 50
0.0
 51
64.7514790966191
  0
LINE
  5
9F7
330
443
100
AcDbEntity
  8
0
100
AcDbLine
 10
-43.56769723311202
 20
-15.24398891564558
 30
0.0
 11
-56.40803048408776
 21
-9.18849980057989
 31
0.0
  0
LINE
  5
9F8
330
443
100
AcDbEntity
  8
0
100
AcDbLine
 10
-52.33619426295939
 20
-8.512398161709313
 30
0.0
 11
-56.5613279822017
 21
-8.512398161709299
 31
0.0
  0
LINE
  5
9F9
330
443
100
AcDbEntity
  8
0
100
AcDbLine
 10
-42.42078801541985
 20
-17.05292122978602
 30
0.0
 11
-42.42078801541985
 21
-25.48487022674214
 31
0.0
  0
LINE
  5
9FA
330
443
100
AcDbEntity
  8
0
100
AcDbLine
 10
-42.42078801541985
 20
-25.48487022674214
 30
0.0
 11
-41.42078801541984
 21
-26.48487022674214
 31
0.0
  0
LINE
  5
9FB
330
443
100
AcDbEntity
  8
0
100
AcDbLine
 10
-36.92078801541981
 20
-26.48487022674208
 30
0.0
 11
-36.92078801541981
 21
-26.78487022674215
 31
0.0
  0
LINE
  5
9FC
330
443
100
AcDbEntity
  8
1
100
AcDbLine
 10
-28.92078801541984
 20
7.215129773257842
 30
0.0
 11
-28.92078801541984
 21
-31.78487022674215
 31
0.0
  0
LINE
  5
9FD
330
443
100
AcDbEntity
  8
2
100
AcDbLine
 10
-22.42078801541987
 20
-1.784870226742157
 30
0.0
 11
-22.42078801541987
 21
-5.784870226742157
 31
0.0
  0
LINE
  5
9FE
330
443
100
AcDbEntity
  8
2
100
AcDbLine
 10
-35.42078801541981
 20
-1.784870226742128
 30
0.0
 11
-35.42078801541981
 21
-5.784870226742157
 31
0.0
  0
LINE
  5
9FF
330
443
100
AcDbEntity
  8
0
100
AcDbLine
 10
0.0000909753633209
 20
0.2151297732578428
 30
0.0
 11
0.0000909753633209
 21
-6.927334407904368
 31
0.0
  0
LINE
  5
A00
330
443
100
AcDbEntity
  8
0
100
AcDbLine
 10
-6.505381767880322
 20
1.215129773257842
 30
0.0
 11
-6.505381767880322
 21
-7.512398161709313
 31
0.0
  0
LINE
  5
A01
330
443
100
AcDbEntity
  8
0
100
AcDbLine
 10
-7.505381767880322
 20
0.7520524314083446
 30
0.0
 11
-23.10993907098841
 21
-5.330498482983131
 31
0.0
  0
LINE
  5
A02
330
443
100
AcDbEntity
  8
0
100
AcDbLine
 10
-6.855721185252235
 20
2.078569837458928
 30
0.0
 11
-28.66071316485477
 21
-6.420868584764889
 31
0.0
  0
LINE
  5
A03
330
443
100
AcDbEntity
  8
0
100
AcDbLine
 10
-17.41736913112359
 20
-2.038289111038437
 30
0.0
 11
-17.67078801541984
 21
-1.784870226742157
 31
0.0
  0
ARC
  5
A04
330
443
100
AcDbEntity
  8
0
100
AcDbCircle
 10
-26.82078801541979
 20
-0.7848702267421573
 30
0.0
 40
3.0
100
AcDbArc
 50
43.88011056293025
 51
89.99999999999998
  0
ARC
  5
A05
330
443
100
AcDbEntity
  8
0
100
AcDbCircle
 10
-31.02078801541984
 20
-0.7848702267421573
 30
0.0
 40
3.0
100
AcDbArc
 50
89.99999999999998
 51
136.1198894370798
  0
LINE
  5
A06
330
443
100
AcDbEntity
  8
0
100
AcDbLine
 10
-36.14453081455266
 20
-1.784870226742128
 30
0.0
 11
-33.18316333475408
 21
1.294584744718974
 31
0.0
  0
LINE
  5
A07
330
443
100
AcDbEntity
  8
0
100
AcDbLine
 10
-31.02078801541984
 20
2.215129773257842
 30
0.0
 11
-26.82078801541979
 21
2.215129773257842
 31
0.0
  0
LINE
  5
A08
330
443
100
AcDbEntity
  8
0
100
AcDbLine
 10
-21.69704521628702
 20
-1.784870226742157
 30
0.0
 11
-24.65841269608563
 21
1.294584744718974
 31
0.0
  0
LINE
  5
A09
330
443
100
AcDbEntity
  8
0
100
AcDbLine
 10
-6.129366501139429
 20
2.215129773257842
 30
0.0
 11
-1.999909024636679
 21
2.215129773257842
 31
0.0
  0
ARC
  5
A0A
330
443
100
AcDbEntity
  8
0
100
AcDbCircle
 10
-6.129366501139429
 20
0.2151297732578357
 30
0.0
 40
2.0
100
AcDbArc
 50
89.99999999999998
 51
111.2955002787041
  0
ARC
  5
A0B
330
443
100
AcDbEntity
  8
0
100
AcDbCircle
 10
-1.999909024636679
 20
0.2151297732578357
 30
0.0
 40
2.0
100
AcDbArc
 50
0.0
 51
89.99999999999998
  0
LINE
  5
A0C
330
443
100
AcDbEntity
  8
0
100
AcDbLine
 10
-6.505381767880322
 20
-8.512398161709313
 30
0.0
 11
-25.05646577870862
 21
-15.54087359647593
 31
0.0
  0
ARC
  5
A0D
330
443
100
AcDbEntity
  8
0
100
AcDbCircle
 10
-13.42078801541984
 20
-17.05292122978603
 30
0.0
 40
2.0
100
AcDbArc
 50
115.2485209033806
 51
180.0
  0
LINE
  5
A0E
330
443
100
AcDbEntity
  8
0
100
AcDbLine
 10
-15.42078801541984
 20
-25.48487022674212
 30
0.0
 11
-16.42078801541984
 21
-26.48487022674212
 31
0.0
  0
LINE
  5
A0F
330
443
100
AcDbEntity
  8
2
100
AcDbLine
 10
-20.92078801541984
 20
-26.48487022674208
 30
0.0
 11
-20.92078801541984
 21
-5.28487022674227
 31
0.0
  0
LINE
  5
A10
330
443
100
AcDbEntity
  8
2
100
AcDbLine
 10
-24.73278801541974
 20
-25.28487022674212
 30
0.0
 11
-24.73278801541974
 21
-6.784870226742185
 31
0.0
  0
LINE
  5
A11
330
443
100
AcDbEntity
  8
2
100
AcDbLine
 10
-23.92078801541984
 20
-26.09687022674208
 30
0.0
 11
-23.92078801541984
 21
-6.784870226742157
 31
0.0
  0
LINE
  5
A12
330
443
100
AcDbEntity
  8
2
100
AcDbLine
 10
-33.92078801541981
 20
-26.09687022674208
 30
0.0
 11
-33.92078801541981
 21
-6.784870226742157
 31
0.0
  0
LINE
  5
A13
330
443
100
AcDbEntity
  8
2
100
AcDbLine
 10
-33.10878801541992
 20
-25.28487022674212
 30
0.0
 11
-33.10878801541992
 21
-6.784870226742185
 31
0.0
  0
LINE
  5
A14
330
443
100
AcDbEntity
  8
2
100
AcDbLine
 10
-22.4207880154199
 20
-5.784870226742157
 30
0.0
 11
-35.42078801541981
 21
-5.784870226742157
 31
0.0
  0
LINE
  5
A15
330
443
100
AcDbEntity
  8
2
100
AcDbLine
 10
-23.42078801541987
 20
-6.784870226742157
 30
0.0
 11
-34.42078801541981
 21
-6.784870226742157
 31
0.0
  0
LINE
  5
A16
330
443
100
AcDbEntity
  8
2
100
AcDbLine
 10
-21.42078801541981
 20
-4.784870226742157
 30
0.0
 11
-36.42078801541981
 21
-4.784870226742185
 31
0.0
  0
ARC
  5
A17
330
443
100
AcDbEntity
  8
0
100
AcDbCircle
 10
-25.76505653194405
 20
-13.67060646463909
 30
0.0
 40
2.0
100
AcDbArc
 50
252.7489259853654
 51
290.7502658276911
  0
ARC
  5
A18
330
443
100
AcDbEntity
  8
0
100
AcDbCircle
 10
-28.92078801541981
 20
9.577017559101165
 30
0.0
 40
16.0
100
AcDbArc
 50
248.7044997212958
 51
291.2955002787036
  0
LINE
  5
A19
330
443
100
AcDbEntity
  8
2
100
AcDbLine
 10
-34.42078801541981
 20
-5.784870226742157
 30
0.0
 11
-34.42078801541981
 21
-6.784870226742157
 31
0.0
  0
LINE
  5
A1A
330
443
100
AcDbEntity
  8
0
100
AcDbLine
 10
-31.48340054517603
 20
-15.58063523581992
 30
0.0
 11
-29.51390696913944
 21
-14.96905074725009
 31
0.0
  0
ARC
  5
A1B
330
443
100
AcDbEntity
  8
0
100
AcDbCircle
 10
-32.07651949889563
 20
-13.67060646463909
 30
0.0
 40
2.0
100
AcDbArc
 50
249.2497341723087
 51
287.2510740146342
  0
ARC
  5
A1C
330
443
100
AcDbEntity
  8
0
100
AcDbCircle
 10
-28.92078801541984
 20
-16.87907951843095
 30
0.0
 40
2.0
100
AcDbArc
 50
72.7489259853654
 51
107.2510740146341
  0
LINE
  5
A1D
330
443
100
AcDbEntity
  8
0
100
AcDbLine
 10
-28.32766906170025
 20
-14.96905074725012
 30
0.0
 11
-26.35817548566365
 21
-15.58063523581995
 31
0.0
  0
LINE
  5
A1E
330
443
100
AcDbEntity
  8
2
100
AcDbLine
 10
-20.92078801541984
 20
-5.284870226742157
 30
0.0
 11
-21.42078801541984
 21
-4.784870226742157
 31
0.0
  0
LINE
  5
A1F
330
443
100
AcDbEntity
  8
2
100
AcDbLine
 10
-23.42078801541987
 20
-5.784870226742157
 30
0.0
 11
-23.42078801541987
 21
-6.784870226742157
 31
0.0
  0
LINE
  5
A20
330
443
100
AcDbEntity
  8
2
100
AcDbLine
 10
-24.73278801541974
 20
-25.28487022674218
 30
0.0
 11
-33.10878801541992
 21
-25.28487022674218
 31
0.0
  0
LINE
  5
A21
330
443
100
AcDbEntity
  8
2
100
AcDbLine
 10
-34.60878801541997
 20
-26.78487022674224
 30
0.0
 11
-33.10878801541992
 21
-25.28487022674218
 31
0.0
  0
LINE
  5
A22
330
443
100
AcDbEntity
  8
0
100
AcDbLine
 10
-20.92078801541984
 20
-26.48487022674208
 30
0.0
 11
-20.92078801541984
 21
-26.78487022674215
 31
0.0
  0
LINE
  5
A23
330
443
100
AcDbEntity
  8
2
100
AcDbLine
 10
-23.23278801541968
 20
-26.78487022674224
 30
0.0
 11
-24.73278801541974
 21
-25.28487022674218
 31
0.0
  0
LINE
  5
A24
330
443
100
AcDbEntity
  8
0
100
AcDbLine
 10
-14.27387879772766
 20
-15.24398891564561
 30
0.0
 11
-1.433545546751929
 21
-9.188499800579904
 31
0.0
  0
LINE
  5
A25
330
443
100
AcDbEntity
  8
0
100
AcDbLine
 10
-5.505381767880322
 20
-8.512398161709313
 30
0.0
 11
-1.280248048637986
 21
-8.512398161709313
 31
0.0
  0
ARC
  5
A26
330
443
100
AcDbEntity
  8
0
100
AcDbCircle
 10
-2.499909024636679
 20
-6.927334407904375
 30
0.0
 40
2.5
100
AcDbArc
 50
295.2485209033806
 51
0.0
  0
LINE
  5
A27
330
443
100
AcDbEntity
  8
0
100
AcDbLine
 10
-15.42078801541984
 20
-17.05292122978602
 30
0.0
 11
-15.42078801541984
 21
-25.48487022674212
 31
0.0
  0
LINE
  5
A28
330
443
100
AcDbEntity
  8
0
100
AcDbLine
 10
65.07827518109133
 20
46.21772314940244
 30
0.0
 11
72.22460456898232
 21
46.21772314940239
 31
0.0
  0
LINE
  5
A29
330
443
100
AcDbEntity
  8
0
100
AcDbLine
 10
63.67326241885502
 20
54.61675202000122
 30
0.0
 11
72.30580311605848
 21
54.61675202000122
 31
0.0
  0
LINE
  5
A2A
330
443
100
AcDbEntity
  8
2
100
AcDbLine
 10
66.57827518109133
 20
59.24222307708697
 30
0.0
 11
70.57827518109133
 21
59.24222307708697
 31
0.0
  0
LINE
  5
A2B
330
443
100
AcDbEntity
  8
0
100
AcDbLine
 10
62.57827518109133
 20
54.00771476685765
 30
0.0
 11
62.57827518109133
 21
48.71772314940244
 31
0.0
  0
ARC
  5
A2C
330
443
100
AcDbEntity
  8
0
100
AcDbCircle
 10
65.07827518109133
 20
48.71772314940244
 30
0.0
 40
2.5
100
AcDbArc
 50
180.0
 51
270.0
  0
ARC
  5
A2D
330
443
100
AcDbEntity
  8
0
100
AcDbCircle
 10
65.57827518109133
 20
54.00771476685759
 30
0.0
 40
3.0
100
AcDbArc
 50
157.0484073427612
 51
179.9999999999991
  0
LINE
  5
A2E
330
443
100
AcDbEntity
  8
2
100
AcDbLine
 10
90.07827518109133
 20
61.55422307708687
 30
0.0
 11
71.57827518109144
 21
61.55422307708687
 31
0.0
  0
LINE
  5
A2F
330
443
100
AcDbEntity
  8
2
100
AcDbLine
 10
90.89027518109134
 20
60.74222307708698
 30
0.0
 11
71.57827518109133
 21
60.74222307708698
 31
0.0
  0
LINE
  5
A30
330
443
100
AcDbEntity
  8
0
100
AcDbLine
 10
81.29907421247542
 20
52.24222307708697
 30
0.0
 11
90.27827518109125
 21
52.24222307708697
 31
0.0
  0
LINE
  5
A31
330
443
100
AcDbEntity
  8
2
100
AcDbLine
 10
91.27827518109114
 20
57.74222307708697
 30
0.0
 11
70.07827518109144
 21
57.74222307708697
 31
0.0
  0
LINE
  5
A32
330
443
100
AcDbEntity
  8
0
100
AcDbLine
 10
73.30580311605848
 20
53.61675202000123
 30
0.0
 11
73.30580311605848
 21
47.53516268932964
 31
0.0
  0
ARC
  5
A33
330
443
100
AcDbEntity
  8
0
100
AcDbCircle
 10
81.29907421247542
 20
50.24222307708697
 30
0.0
 40
2.0
100
AcDbArc
 50
90.0
 51
129.6382761649522
  0
ARC
  5
A34
330
443
100
AcDbEntity
  8
0
100
AcDbCircle
 10
72.22460456898232
 20
49.21772314940239
 30
0.0
 40
3.0
100
AcDbArc
 50
270.0
 51
309.6382761649522
  0
LINE
  5
A35
330
443
100
AcDbEntity
  8
0
100
AcDbLine
 10
74.13842032420217
 20
46.90746142070742
 30
0.0
 11
80.02319704232883
 21
51.7823975628836
 31
0.0
  0
LINE
  5
A36
330
443
100
AcDbEntity
  8
2
100
AcDbLine
 10
69.57827518109144
 20
58.24222307708698
 30
0.0
 11
70.07827518109144
 21
57.74222307708697
 31
0.0
  0
LINE
  5
A37
330
443
100
AcDbEntity
  8
2
100
AcDbLine
 10
70.57827518109133
 20
60.24222307708697
 30
0.0
 11
71.57827518109133
 21
60.24222307708697
 31
0.0
  0
LINE
  5
A38
330
443
100
AcDbEntity
  8
0
100
AcDbLine
 10
90.27827518109125
 20
52.24222307708697
 30
0.0
 11
91.27827518109127
 21
53.24222307708698
 31
0.0
  0
LINE
  5
A39
330
443
100
AcDbEntity
  8
2
100
AcDbLine
 10
91.57827518109144
 20
60.05422307708681
 30
0.0
 11
90.07827518109143
 21
61.55422307708687
 31
0.0
  0
LINE
  5
A3A
330
443
100
AcDbEntity
  8
0
100
AcDbLine
 10
91.27827518109127
 20
57.74222307708697
 30
0.0
 11
91.57827518109133
 21
57.74222307708697
 31
0.0
  0
LINE
  5
A3B
330
443
100
AcDbEntity
  8
0
100
AcDbLine
 10
-19.04495824604478
 20
163.8402959134919
 30
0.0
 11
-23.57744660317794
 21
158.0231123491394
 31
0.0
  0
LINE
  5
A3C
330
443
100
AcDbEntity
  8
0
100
AcDbLine
 10
-19.68881437741092
 20
165.4544871322052
 30
0.0
 11
-24.67357171928862
 21
159.0568427927948
 31
0.0
  0
LINE
  5
A3D
330
443
100
AcDbEntity
  8
0
100
AcDbLine
 10
-19.34360715599874
 20
154.4017708902051
 30
0.0
 11
-24.65841269608555
 21
148.8750321607441
 31
0.0
  0
LINE
  5
A3E
330
443
100
AcDbEntity
  8
0
100
AcDbLine
 10
-21.69704521628696
 20
151.9544871322052
 30
0.0
 11
-17.67078801541984
 21
151.9544871322052
 31
0.0
  0
LINE
  5
A3F
330
443
100
AcDbEntity
  8
0
100
AcDbLine
 10
-41.42078801541996
 20
176.6544871322051
 30
0.0
 11
-16.42078801541984
 21
176.6544871322052
 31
0.0
  0
LINE
  5
A40
330
443
100
AcDbEntity
  8
0
100
AcDbLine
 10
-15.42078801541984
 20
175.6544871322052
 30
0.0
 11
-42.42078801541985
 21
175.6544871322052
 31
0.0
  0
LINE
  5
A41
330
443
100
AcDbEntity
  8
0
100
AcDbLine
 10
-37.90848538540675
 20
165.9544871322052
 30
0.0
 11
-19.93309064543282
 21
165.9544871322052
 31
0.0
  0
LINE
  5
A42
330
443
100
AcDbEntity
  8
1
100
AcDbLine
 10
61.57827518109133
 20
65.74222307708698
 30
0.0
 11
96.57827518109133
 21
65.74222307708698
 31
0.0
  0
LINE
  5
A43
330
443
100
AcDbEntity
  8
2
100
AcDbLine
 10
66.57827518109133
 20
72.24222307708697
 30
0.0
 11
70.57827518109133
 21
72.24222307708697
 31
0.0
  0
LINE
  5
A44
330
443
100
AcDbEntity
  8
0
100
AcDbLine
 10
65.07827518109133
 20
97.24222307708703
 30
0.0
 11
71.28227522951573
 21
97.24222307708703
 31
0.0
  0
LINE
  5
A45
330
443
100
AcDbEntity
  8
0
100
AcDbLine
 10
67.10503738782193
 20
77.51898528381753
 30
0.0
 11
66.57827518109133
 21
76.99222307708698
 31
0.0
  0
LINE
  5
A46
330
443
100
AcDbEntity
  8
0
100
AcDbLine
 10
62.66346061536859
 20
94.09517546433063
 30
0.0
 11
68.66429879365836
 21
71.69974249495465
 31
0.0
  0
LINE
  5
A47
330
443
100
AcDbEntity
  8
0
100
AcDbLine
 10
64.11234935480223
 20
94.48340403198443
 30
0.0
 11
69.61541086202697
 21
73.94569888984574
 31
0.0
  0
LINE
  5
A48
330
443
100
AcDbEntity
  8
0
100
AcDbLine
 10
66.57827518109133
 20
76.99222307708698
 30
0.0
 11
66.57827518109133
 21
64.06234130018339
 31
0.0
  0
ARC
  5
A49
330
443
100
AcDbEntity
  8
0
100
AcDbCircle
 10
65.07827518109133
 20
94.74222307708691
 30
0.0
 40
2.5
100
AcDbArc
 50
90.0
 51
194.9999999999994
  0
LINE
  5
A4A
330
443
100
AcDbEntity
  8
0
100
AcDbLine
 10
80.37592071059265
 20
79.74306796674795
 30
0.0
 11
74.06382819234642
 21
95.36604517620686
 31
0.0
  0
LINE
  5
A4B
330
443
100
AcDbEntity
  8
0
100
AcDbLine
 10
79.57827518109121
 20
77.71310918667222
 30
0.0
 11
72.67305241049626
 21
94.804135286083
 31
0.0
  0
ARC
  5
A4C
330
443
100
AcDbEntity
  8
0
100
AcDbCircle
 10
81.92729221477618
 20
81.24222307708691
 30
0.0
 40
2.0
100
AcDbArc
 50
201.9999999999995
 51
270.0
  0
LINE
  5
A4D
330
443
100
AcDbEntity
  8
2
100
AcDbLine
 10
91.27827518109127
 20
73.74222307708698
 30
0.0
 11
70.07827518109144
 21
73.74222307708698
 31
0.0
  0
LINE
  5
A4E
330
443
100
AcDbEntity
  8
2
100
AcDbLine
 10
90.89027518109134
 20
70.74222307708698
 30
0.0
 11
71.57827518109133
 21
70.74222307708698
 31
0.0
  0
LINE
  5
A4F
330
443
100
AcDbEntity
  8
2
100
AcDbLine
 10
90.07827518109133
 20
69.93022307708708
 30
0.0
 11
71.57827518109144
 21
69.93022307708708
 31
0.0
  0
LINE
  5
A50
330
443
100
AcDbEntity
  8
0
100
AcDbLine
 10
67.57827518109133
 20
66.4237386202289
 30
0.0
 11
67.57827518109133
 21
75.75283779527438
 31
0.0
  0
ARC
  5
A51
330
443
100
AcDbEntity
  8
0
100
AcDbCircle
 10
64.78578220741877
 20
72.65160188475261
 30
0.0
 40
5.0
100
AcDbArc
 50
337.0484073427612
 51
15.00000000000037
  0
LINE
  5
A52
330
443
100
AcDbEntity
  8
0
100
AcDbLine
 10
79.60022752896492
 20
72.47903221175931
 30
0.0
 11
80.50096238394422
 21
78.70760576851217
 31
0.0
  0
ARC
  5
A53
330
443
100
AcDbEntity
  8
0
100
AcDbCircle
 10
63.83466966221312
 20
70.40564726944205
 30
0.0
 40
5.0
100
AcDbArc
 50
337.0484073427612
 51
15.00000000000037
  0
LINE
  5
A54
330
443
100
AcDbEntity
  8
2
100
AcDbLine
 10
70.57827518109133
 20
71.24222307708698
 30
0.0
 11
71.57827518109133
 21
71.24222307708698
 31
0.0
  0
LINE
  5
A55
330
443
100
AcDbEntity
  8
0
100
AcDbLine
 10
80.45723084013918
 20
66.90721737146185
 30
0.0
 11
79.60282773184241
 21
72.17583044643095
 31
0.0
  0
ARC
  5
A56
330
443
100
AcDbEntity
  8
0
100
AcDbCircle
 10
78.48302186340908
 20
66.58706285220905
 30
0.0
 40
2.0
100
AcDbArc
 50
327.7900750811308
 51
9.211380673075977
  0
ARC
  5
A57
330
443
100
AcDbEntity
  8
0
100
AcDbCircle
 10
80.58993222020745
 20
72.33590770605736
 30
0.0
 40
1.0
100
AcDbArc
 50
171.7713114858221
 51
189.2113806730759
  0
LINE
  5
A58
330
443
100
AcDbEntity
  8
2
100
AcDbLine
 10
70.07827518109133
 20
73.74222307708698
 30
0.0
 11
69.57827518109133
 21
73.24222307708698
 31
0.0
  0
ARC
  5
A59
330
443
100
AcDbEntity
  8
0
100
AcDbCircle
 10
78.52155300145915
 20
78.99385477991621
 30
0.0
 40
2.0
100
AcDbArc
 50
351.7713114858226
 51
21.99999999999952
  0
LINE
  5
A5A
330
443
100
AcDbEntity
  8
2
100
AcDbLine
 10
91.57827518109144
 20
71.43022307708713
 30
0.0
 11
90.07827518109143
 21
69.93022307708708
 31
0.0
  0
LINE
  5
A5B
330
443
100
AcDbEntity
  8
0
100
AcDbLine
 10
81.92729221477618
 20
79.24222307708692
 30
0.0
 11
90.27827518109125
 21
79.24222307708692
 31
0.0
  0
LINE
  5
A5C
330
443
100
AcDbEntity
  8
0
100
AcDbLine
 10
91.27827518109127
 20
73.74222307708698
 30
0.0
 11
91.57827518109133
 21
73.74222307708698
 31
0.0
  0
LINE
  5
A5D
330
443
100
AcDbEntity
  8
0
100
AcDbLine
 10
90.27827518109125
 20
79.24222307708692
 30
0.0
 11
91.27827518109127
 21
78.24222307708692
 31
0.0
  0
ARC
  5
A5E
330
443
100
AcDbEntity
  8
0
100
AcDbCircle
 10
71.28227756553116
 20
94.24222307708703
 30
0.0
 40
3.0
100
AcDbArc
 50
21.99999999999952
 51
90.0
  0
LINE
  5
A5F
330
443
100
AcDbEntity
  8
0
100
AcDbLine
 10
0.0000909753634062
 20
156.7799385626065
 30
0.0
 11
0.0000909753633493
 21
149.9544892646858
 31
0.0
  0
LINE
  5
A60
330
443
100
AcDbEntity
  8
0
100
AcDbLine
 10
-14.40345492039099
 20
155.0597344941917
 30
0.0
 11
-3.028401596217719
 21
148.2392020159046
 31
0.0
  0
LINE
  5
A61
330
443
100
AcDbEntity
  8
0
100
AcDbLine
 10
-14.40345492039099
 20
156.2257214085499
 30
0.0
 11
-1.49990902463665
 21
148.4886979978524
 31
0.0
  0
LINE
  5
A62
330
443
100
AcDbEntity
  8
0
100
AcDbLine
 10
-16.67078801541984
 20
152.9544871322053
 30
0.0
 11
-17.67078801541984
 21
151.9544871322052
 31
0.0
  0
ARC
  5
A63
330
443
100
AcDbEntity
  8
0
100
AcDbCircle
 10
-1.999909024636664
 20
149.9544871322052
 30
0.0
 40
2.0
100
AcDbArc
 50
239.0529110225882
 51
0.0000610911278365
  0
ARC
  5
A64
330
443
100
AcDbEntity
  8
0
100
AcDbCircle
 10
-2.999909024636608
 20
156.7799385626065
 30
0.0
 40
3.0
100
AcDbArc
 50
0.0
 51
64.75147909661963
  0
ARC
  5
A65
330
443
100
AcDbEntity
  8
0
100
AcDbCircle
 10
-13.4207880154198
 20
167.2225381352491
 30
0.0
 40
2.0
100
AcDbArc
 50
180.0
 51
244.7514790966196
  0
LINE
  5
A66
330
443
100
AcDbEntity
  8
0
100
AcDbLine
 10
-14.27387879772757
 20
165.4136058211087
 30
0.0
 11
-1.720272851174883
 21
159.4933370338172
 31
0.0
  0
LINE
  5
A67
330
443
100
AcDbEntity
  8
0
100
AcDbLine
 10
-14.72899545333868
 20
164.5226138455525
 30
0.0
 11
-1.499909024636593
 21
158.2837890965779
 31
0.0
  0
ARC
  5
A68
330
443
100
AcDbEntity
  8
0
100
AcDbCircle
 10
-16.4604400635532
 20
151.6291642615903
 30
0.0
 40
4.0
100
AcDbArc
 50
59.05291102258822
 51
136.1198894370801
  0
LINE
  5
A69
330
443
100
AcDbEntity
  8
0
100
AcDbLine
 10
-16.67078801541984
 20
152.9544871322053
 30
0.0
 11
-16.67078801541978
 21
155.6236296499921
 31
0.0
  0
LINE
  5
A6A
330
443
100
AcDbEntity
  8
0
100
AcDbLine
 10
-16.67078801541978
 20
152.9544871322053
 30
0.0
 11
-20.7353920967437
 21
152.9544871322053
 31
0.0
  0
LINE
  5
A6B
330
443
100
AcDbEntity
  8
0
100
AcDbLine
 10
-16.83416273708215
 20
164.0085198231933
 30
0.0
 11
-15.53622244887199
 21
164.5428538667286
 31
0.0
  0
ARC
  5
A6C
330
443
100
AcDbEntity
  8
0
100
AcDbCircle
 10
-15.15554084449256
 20
163.6181476884822
 30
0.0
 40
1.0
100
AcDbArc
 50
64.75147909661963
 51
112.3759091889679
  0
ARC
  5
A6D
330
443
100
AcDbEntity
  8
0
100
AcDbCircle
 10
-17.21484434146161
 20
164.9332260014397
 30
0.0
 40
1.0
100
AcDbArc
 50
238.6245234392549
 51
292.3759091889684
  0
ARC
  5
A6E
330
443
100
AcDbEntity
  8
0
100
AcDbCircle
 10
-18.25613284503872
 20
163.2256785636492
 30
0.0
 40
1.0
100
AcDbArc
 50
58.62452343925439
 51
142.0758784919252
  0
LINE
  5
A6F
330
443
100
AcDbEntity
  8
0
100
AcDbLine
 10
-15.42078801541984
 20
167.2225381352491
 30
0.0
 11
-15.42078801541984
 21
175.6544871322052
 31
0.0
  0
LINE
  5
A70
330
443
100
AcDbEntity
  8
0
100
AcDbLine
 10
-15.42078801541984
 20
175.6544871322052
 30
0.0
 11
-16.42078801541984
 21
176.6544871322052
 31
0.0
  0
LINE
  5
A71
330
443
100
AcDbEntity
  8
1
100
AcDbLine
 10
-28.92078801541984
 20
142.9544871322053
 30
0.0
 11
-28.92078801541984
 21
181.9544871322053
 31
0.0
  0
LINE
  5
A72
330
443
100
AcDbEntity
  8
2
100
AcDbLine
 10
-35.42078801541984
 20
151.9544871322052
 30
0.0
 11
-35.42078801541984
 21
155.9544871322052
 31
0.0
  0
LINE
  5
A73
330
443
100
AcDbEntity
  8
2
100
AcDbLine
 10
-22.42078801541984
 20
151.9544871322052
 30
0.0
 11
-22.42078801541984
 21
155.9544871322052
 31
0.0
  0
LINE
  5
A74
330
443
100
AcDbEntity
  8
0
100
AcDbLine
 10
-43.43812111044863
 20
156.2257214085499
 30
0.0
 11
-56.34166700620315
 21
148.4886979978524
 31
0.0
  0
LINE
  5
A75
330
443
100
AcDbEntity
  8
0
100
AcDbLine
 10
-43.43812111044863
 20
155.0597344941917
 30
0.0
 11
-54.81317840276872
 21
148.2391996365862
 31
0.0
  0
LINE
  5
A76
330
443
100
AcDbEntity
  8
0
100
AcDbLine
 10
-57.84166700620307
 20
156.7799385626065
 30
0.0
 11
-57.84166700620295
 21
149.9544892646858
 31
0.0
  0
LINE
  5
A77
330
443
100
AcDbEntity
  8
0
100
AcDbLine
 10
-38.49796887484083
 20
154.4017708902051
 30
0.0
 11
-33.18316333475403
 21
148.8750321607441
 31
0.0
  0
LINE
  5
A78
330
443
100
AcDbEntity
  8
0
100
AcDbLine
 10
-34.02078801541986
 20
150.9544871322052
 30
0.0
 11
-34.02078801541986
 21
155.6820150671724
 31
0.0
  0
LINE
  5
A79
330
443
100
AcDbEntity
  8
0
100
AcDbLine
 10
-23.82078801541982
 20
150.9544871322052
 30
0.0
 11
-23.82078801541982
 21
155.6820150671724
 31
0.0
  0
LINE
  5
A7A
330
443
100
AcDbEntity
  8
0
100
AcDbLine
 10
-41.17078801541978
 20
152.9544871322053
 30
0.0
 11
-40.17078801541984
 21
151.9544871322052
 31
0.0
  0
LINE
  5
A7B
330
443
100
AcDbEntity
  8
2
100
AcDbLine
 10
-21.69704521628696
 20
151.9544871322052
 30
0.0
 11
-36.14453081455266
 21
151.9544871322052
 31
0.0
  0
ARC
  5
A7C
330
443
100
AcDbEntity
  8
0
100
AcDbCircle
 10
-31.02078801541988
 20
150.9544871322052
 30
0.0
 40
3.0
100
AcDbArc
 50
180.0
 51
270.0
  0
ARC
  5
A7D
330
443
100
AcDbEntity
  8
0
100
AcDbCircle
 10
-26.82078801541984
 20
150.9544871322052
 30
0.0
 40
3.0
100
AcDbArc
 50
270.0
 51
0.0
  0
LINE
  5
A7E
330
443
100
AcDbEntity
  8
0
100
AcDbLine
 10
-26.82078801541982
 20
147.9544871322052
 30
0.0
 11
-31.02078801541987
 21
147.9544871322052
 31
0.0
  0
LINE
  5
A7F
330
443
100
AcDbEntity
  8
0
100
AcDbLine
 10
-40.17078801541984
 20
151.9544871322052
 30
0.0
 11
-36.14453081455266
 21
151.9544871322052
 31
0.0
  0
ARC
  5
A80
330
443
100
AcDbEntity
  8
0
100
AcDbCircle
 10
-55.84166700620305
 20
149.9544871322052
 30
0.0
 40
2.0
100
AcDbArc
 50
179.9999389088721
 51
300.9469564291483
  0
ARC
  5
A81
330
443
100
AcDbEntity
  8
0
100
AcDbCircle
 10
-41.38113596728651
 20
151.6291642615903
 30
0.0
 40
4.0
100
AcDbArc
 50
43.88011056291987
 51
120.9470889774117
  0
LINE
  5
A82
330
443
100
AcDbEntity
  8
0
100
AcDbLine
 10
-41.00741329375748
 20
164.0085198231933
 30
0.0
 11
-42.30535358196758
 21
164.5428538667286
 31
0.0
  0
LINE
  5
A83
330
443
100
AcDbEntity
  8
0
100
AcDbLine
 10
-42.42078801541985
 20
175.6544871322052
 30
0.0
 11
-41.42078801541984
 21
176.6544871322052
 31
0.0
  0
LINE
  5
A84
330
443
100
AcDbEntity
  8
2
100
AcDbLine
 10
-20.92078801541984
 20
176.6544871322051
 30
0.0
 11
-20.92078801541984
 21
155.4544871322053
 31
0.0
  0
LINE
  5
A85
330
443
100
AcDbEntity
  8
2
100
AcDbLine
 10
-36.92078801541984
 20
176.6544871322052
 30
0.0
 11
-36.92078801541984
 21
155.4544871322053
 31
0.0
  0
LINE
  5
A86
330
443
100
AcDbEntity
  8
2
100
AcDbLine
 10
-33.10878801541994
 20
175.4544871322052
 30
0.0
 11
-33.10878801541994
 21
156.9544871322053
 31
0.0
  0
LINE
  5
A87
330
443
100
AcDbEntity
  8
2
100
AcDbLine
 10
-33.92078801541984
 20
176.2664871322052
 30
0.0
 11
-33.92078801541984
 21
156.9544871322053
 31
0.0
  0
LINE
  5
A88
330
443
100
AcDbEntity
  8
2
100
AcDbLine
 10
-23.92078801541984
 20
176.2664871322052
 30
0.0
 11
-23.92078801541984
 21
156.9544871322053
 31
0.0
  0
LINE
  5
A89
330
443
100
AcDbEntity
  8
2
100
AcDbLine
 10
-24.73278801541974
 20
175.4544871322052
 30
0.0
 11
-24.73278801541974
 21
156.9544871322053
 31
0.0
  0
LINE
  5
A8A
330
443
100
AcDbEntity
  8
2
100
AcDbLine
 10
-35.42078801541984
 20
155.9544871322052
 30
0.0
 11
-22.42078801541984
 21
155.9544871322052
 31
0.0
  0
LINE
  5
A8B
330
443
100
AcDbEntity
  8
2
100
AcDbLine
 10
-34.42078801541984
 20
156.9544871322053
 30
0.0
 11
-23.42078801541984
 21
156.9544871322053
 31
0.0
  0
LINE
  5
A8C
330
443
100
AcDbEntity
  8
2
100
AcDbLine
 10
-36.42078801541984
 20
154.9544871322052
 30
0.0
 11
-22.42078801541984
 21
154.9544871322052
 31
0.0
  0
ARC
  5
A8D
330
443
100
AcDbEntity
  8
0
100
AcDbCircle
 10
-31.02078801541988
 20
155.6820150671724
 30
0.0
 40
3.0
100
AcDbArc
 50
90.0
 51
180.0
  0
ARC
  5
A8E
330
443
100
AcDbEntity
  8
0
100
AcDbCircle
 10
-26.82078801541984
 20
155.6820150671724
 30
0.0
 40
3.0
100
AcDbArc
 50
0.0
 51
90.0
  0
LINE
  5
A8F
330
443
100
AcDbEntity
  8
2
100
AcDbLine
 10
-21.42078801541984
 20
154.9544871322054
 30
0.0
 11
-20.92078801541984
 21
155.4544871322053
 31
0.0
  0
LINE
  5
A90
330
443
100
AcDbEntity
  8
2
100
AcDbLine
 10
-23.42078801541984
 20
155.9544871322052
 30
0.0
 11
-23.42078801541984
 21
156.9544871322053
 31
0.0
  0
LINE
  5
A91
330
443
100
AcDbEntity
  8
0
100
AcDbLine
 10
-26.82078801541982
 20
158.6820150671724
 30
0.0
 11
-31.02078801541987
 21
158.6820150671724
 31
0.0
  0
LINE
  5
A92
330
443
100
AcDbEntity
  8
0
100
AcDbLine
 10
-38.15276165342871
 20
165.4544871322052
 30
0.0
 11
-33.1680043115505
 21
159.0568427927942
 31
0.0
  0
LINE
  5
A93
330
443
100
AcDbEntity
  8
0
100
AcDbLine
 10
-38.79661778479479
 20
163.8402959134919
 30
0.0
 11
-34.26412942766134
 21
158.023112349139
 31
0.0
  0
LINE
  5
A94
330
443
100
AcDbEntity
  8
2
100
AcDbLine
 10
-36.92078801541984
 20
155.4544871322052
 30
0.0
 11
-36.42078801541984
 21
154.9544871322052
 31
0.0
  0
LINE
  5
A95
330
443
100
AcDbEntity
  8
2
100
AcDbLine
 10
-34.42078801541984
 20
155.9544871322052
 30
0.0
 11
-34.42078801541984
 21
156.9544871322053
 31
0.0
  0
LINE
  5
A96
330
443
100
AcDbEntity
  8
0
100
AcDbLine
 10
-37.10618393409586
 20
152.9544871322053
 30
0.0
 11
-41.17078801541985
 21
152.9544871322053
 31
0.0
  0
LINE
  5
A97
330
443
100
AcDbEntity
  8
0
100
AcDbLine
 10
-41.17078801541985
 20
152.9544871322053
 30
0.0
 11
-41.17078801541985
 21
155.6236296499921
 31
0.0
  0
ARC
  5
A98
330
443
100
AcDbEntity
  8
0
100
AcDbCircle
 10
-39.58544318580088
 20
163.2256785636492
 30
0.0
 40
1.0
100
AcDbArc
 50
37.92412150807472
 51
121.3754765607461
  0
ARC
  5
A99
330
443
100
AcDbEntity
  8
0
100
AcDbCircle
 10
-40.62673168937805
 20
164.9332260014397
 30
0.0
 40
1.0
100
AcDbArc
 50
247.6240908110315
 51
301.375476560745
  0
LINE
  5
A9A
330
443
100
AcDbEntity
  8
0
100
AcDbLine
 10
-36.92078801541984
 20
176.9544871322052
 30
0.0
 11
-20.92078801541984
 21
176.9544871322052
 31
0.0
  0
LINE
  5
A9B
330
443
100
AcDbEntity
  8
2
100
AcDbLine
 10
-33.10878801541994
 20
175.4544871322053
 30
0.0
 11
-24.73278801541974
 21
175.4544871322053
 31
0.0
  0
LINE
  5
A9C
330
443
100
AcDbEntity
  8
0
100
AcDbLine
 10
-20.92078801541984
 20
176.6544871322052
 30
0.0
 11
-20.92078801541984
 21
176.9544871322052
 31
0.0
  0
LINE
  5
A9D
330
443
100
AcDbEntity
  8
2
100
AcDbLine
 10
-23.23278801541974
 20
176.9544871322054
 30
0.0
 11
-24.73278801541974
 21
175.4544871322053
 31
0.0
  0
LINE
  5
A9E
330
443
100
AcDbEntity
  8
2
100
AcDbLine
 10
-34.60878801541994
 20
176.9544871322054
 30
0.0
 11
-33.10878801541994
 21
175.4544871322053
 31
0.0
  0
LINE
  5
A9F
330
443
100
AcDbEntity
  8
0
100
AcDbLine
 10
-36.92078801541984
 20
176.6544871322052
 30
0.0
 11
-36.92078801541984
 21
176.9544871322052
 31
0.0
  0
ARC
  5
AA0
330
443
100
AcDbEntity
  8
0
100
AcDbCircle
 10
-44.42078801541986
 20
167.2225381352491
 30
0.0
 40
2.0
100
AcDbArc
 50
295.2485209033803
 51
0.0
  0
LINE
  5
AA1
330
443
100
AcDbEntity
  8
0
100
AcDbLine
 10
-43.11258057750094
 20
164.5226138455525
 30
0.0
 11
-56.34166700620315
 21
158.2837890965779
 31
0.0
  0
LINE
  5
AA2
330
443
100
AcDbEntity
  8
0
100
AcDbLine
 10
-43.567697233112
 20
165.4136058211087
 30
0.0
 11
-56.12130317966474
 21
159.4933370338172
 31
0.0
  0
ARC
  5
AA3
330
443
100
AcDbEntity
  8
0
100
AcDbCircle
 10
-42.68603518634704
 20
163.6181476884822
 30
0.0
 40
1.0
100
AcDbArc
 50
67.62409081103206
 51
115.2485209033803
  0
ARC
  5
AA4
330
443
100
AcDbEntity
  8
0
100
AcDbCircle
 10
-54.84166700620305
 20
156.7799385626065
 30
0.0
 40
3.0
100
AcDbArc
 50
115.2485209033803
 51
180.0
  0
LINE
  5
AA5
330
443
100
AcDbEntity
  8
0
100
AcDbLine
 10
-42.42078801541985
 20
167.2225381352491
 30
0.0
 11
-42.42078801541985
 21
175.6544871322052
 31
0.0
  0
ENDSEC
  0
SECTION
  2
OBJECTS
  0
DICTIONARY
  5
431
330
0
100
AcDbDictionary
281
     1
  3
ACAD_GROUP
350
432
  3
ACAD_LAYOUT
350
43E
  3
ACAD_MLINESTYLE
350
43B
  3
ACAD_PLOTSETTINGS
350
43D
  3
ACAD_PLOTSTYLENAME
350
433
  3
AcDbVariableDictionary
350
86D
  3
AcmDictionary
350
828
  3
AMG
350
76D
  3
AMGSNAPSETTINGS
350
870
  3
DWGPROPS
350
8AD
  3
MAPISURF_MODULE
350
7FA
  0
DICTIONARY
  5
866
330
443
100
AcDbDictionary
280
     1
281
     1
  3
ACAD_INDEX
360
867
  0
DICTIONARY
  5
432
102
{ACAD_REACTORS
330
431
102
}
330
431
100
AcDbDictionary
281
     1
  0
DICTIONARY
  5
43E
102
{ACAD_REACTORS
330
431
102
}
330
431
100
AcDbDictionary
281
     1
  3
Model
350
446
  3
ﾚｲｱｳﾄ1
350
442
  0
DICTIONARY
  5
43B
102
{ACAD_REACTORS
330
431
102
}
330
431
100
AcDbDictionary
281
     1
  3
Standard
350
43C
  0
DICTIONARY
  5
43D
102
{ACAD_REACTORS
330
431
102
}
330
431
100
AcDbDictionary
281
     1
  0
ACDBDICTIONARYWDFLT
  5
433
102
{ACAD_REACTORS
330
431
102
}
330
431
100
AcDbDictionary
281
     1
  3
Normal
350
434
100
AcDbDictionaryWithDefault
340
434
  0
DICTIONARY
  5
86D
102
{ACAD_REACTORS
330
431
102
}
330
431
100
AcDbDictionary
281
     1
  3
DIMASSOC
350
86F
  3
INDEXCTL
350
86E
  0
DICTIONARY
  5
828
102
{ACAD_REACTORS
330
431
102
}
330
431
100
AcDbDictionary
281
     1
  3
AcmBOMDATA
350
829
  3
AcmStdDictionary
350
837
  0
DICTIONARY
  5
76D
102
{ACAD_REACTORS
330
431
102
}
330
431
100
AcDbDictionary
281
     1
  3
AcMgSettings
350
76E
  3
AMGLAYCFG
350
839
  0
DICTIONARY
  5
870
102
{ACAD_REACTORS
330
431
102
}
330
431
100
AcDbDictionary
281
     1
  3
DIMENSION
350
875
  3
FEA
350
874
  3
HATCH (1)
350
871
  3
HATCH (2)
350
872
  3
SIMPLE WELD
350
876
  3
SYMBOLS
350
873
  0
XRECORD
  5
8AD
102
{ACAD_REACTORS
330
431
102
}
330
431
100
AcDbXrecord
280
     1
  1
DWGPROPS COOKIE
  2

  3

  4

  6

  7

  8

  9

300
AmdtFileType=84
301
=
302
=
303
=
304
=
305
=
306
=
307
=
308
=
309
=
 40
0.0430592708333333
 41
2452125.683722997
 42
2454700.613398067
  1

 90
        1
  0
DICTIONARY
  5
867
102
{ACAD_REACTORS
330
866
102
}
330
866
100
AcDbDictionary
281
     1
  3
*A1
350
868
  0
LAYOUT
  5
446
102
{ACAD_REACTORS
330
43E
102
}
330
43E
100
AcDbPlotSettings
  1

  2
EPSON PM-3700C
  4

  6

 40
0.0
 41
0.0
 42
0.0
 43
0.0
 44
0.0
 45
0.0
 46
0.0
 47
0.0
 48
0.0
 49
0.0
140
0.0
141
0.0
142
1.0
143
1.0
 70
  1712
 72
     0
 73
     0
 74
     0
  7

 75
     0
147
1.0
148
0.0
149
0.0
100
AcDbLayout
  1
Model
 70
     1
 71
     0
 10
0.0
 20
0.0
 11
12.0
 21
9.0
 12
0.0
 22
0.0
 32
0.0
 14
0.0
 24
0.0
 34
0.0
 15
0.0
 25
0.0
 35
0.0
146
0.0
 13
0.0
 23
0.0
 33
0.0
 16
1.0
 26
0.0
 36
0.0
 17
0.0
 27
1.0
 37
0.0
 76
     0
330
443
  0
LAYOUT
  5
442
102
{ACAD_REACTORS
330
43E
102
}
330
43E
100
AcDbPlotSettings
  1

  2
EPSON PM-3700C
  4

  6

 40
0.0
 41
0.0
 42
0.0
 43
0.0
 44
0.0
 45
0.0
 46
0.0
 47
0.0
 48
0.0
 49
0.0
140
0.0
141
0.0
142
1.0
143
1.0
 70
   688
 72
     0
 73
     0
 74
     5
  7

 75
    16
147
1.0
148
0.0
149
0.0
100
AcDbLayout
  1
ﾚｲｱｳﾄ1
 70
     1
 71
     1
 10
0.0
 20
0.0
 11
420.0
 21
297.0
 12
0.0
 22
0.0
 32
0.0
 14
1.000000000000000E+20
 24
1.000000000000000E+20
 34
1.000000000000000E+20
 15
-1.000000000000000E+20
 25
-1.000000000000000E+20
 35
-1.000000000000000E+20
146
0.0
 13
0.0
 23
0.0
 33
0.0
 16
1.0
 26
0.0
 36
0.0
 17
0.0
 27
1.0
 37
0.0
 76
     0
330
43F
  0
MLINESTYLE
  5
43C
102
{ACAD_REACTORS
330
43B
102
}
330
43B
100
AcDbMlineStyle
  2
STANDARD
 70
     0
  3

 62
   256
 51
90.0
 52
90.0
 71
     2
 49
0.5
 62
   256
  6
BYLAYER
 49
-0.5
 62
   256
  6
BYLAYER
  0
ACDBPLACEHOLDER
  5
434
102
{ACAD_REACTORS
330
433
102
}
330
433
  0
DICTIONARYVAR
  5
86F
102
{ACAD_REACTORS
330
86D
102
}
330
86D
100
DictionaryVariables
280
     0
  1
1
  0
DICTIONARYVAR
  5
86E
102
{ACAD_REACTORS
330
86D
102
}
330
86D
100
DictionaryVariables
280
     0
  1
1
  0
ACMDATADICTIONARY
  5
829
102
{ACAD_REACTORS
330
828
102
}
330
828
100
AcDbDictionary
281
     1
  3
*A1
350
82A
100
AcmDataDictionary
  0
DICTIONARY
  5
837
102
{ACAD_REACTORS
330
828
102
}
330
828
100
AcDbDictionary
281
     1
  3
ANSI
350
838
  0
DICTIONARY
  5
76E
102
{ACAD_REACTORS
330
76D
102
}
330
76D
100
AcDbDictionary
281
     1
  3
DWGSETTINGS
350
76F
  3
TRANSSETTINGS
350
773
  0
ACAMGFILTERDAT
  5
875
102
{ACAD_REACTORS
330
870
102
}
330
870
100
AcAmgFilterDat
 70
    15
  1
DIMENSION,AMDT_*_DIM
  2
*
  3
*
  4
*
  5
*
290
     1
  0
ACAMGFILTERDAT
  5
874
102
{ACAD_REACTORS
330
870
102
}
330
870
100
AcAmgFilterDat
 70
    15
  1
*
  2
AM_FEA-AM_*
  3
*
  4
*
  5
*
290
     1
  0
ACAMGFILTERDAT
  5
871
102
{ACAD_REACTORS
330
870
102
}
330
870
100
AcAmgFilterDat
 70
    15
  1
HATCH
  2
*
  3
*
  4
*
  5
*
290
     1
  0
ACAMGFILTERDAT
  5
872
102
{ACAD_REACTORS
330
870
102
}
330
870
100
AcAmgFilterDat
 70
    15
  1
LINE
  2
8,8N,*-8,*-8N,AM_8,AM_8N,*-AM_8,*-AM_8N
  3
*
  4
*
  5
INSERT,STDPART2D
290
     1
  0
ACAMGFILTERDAT
  5
876
102
{ACAD_REACTORS
330
870
102
}
330
870
100
AcAmgFilterDat
 70
    15
  1
ARC
  2
AM_5
  3
*
  4
2
  5
INSERT
290
     0
  0
ACAMGFILTERDAT
  5
873
102
{ACAD_REACTORS
330
870
102
}
330
870
100
AcAmgFilterDat
 70
    15
  1
ACMFCFRAME,ACMDATUMTARGET,ACMDATUMID,ACMWELDSYM,ACMSURFSYM,ACMFEATID,ACMPARTREF,ACMBALLOON,AMDTEDGESYM,AMGSCREWCALCTABLE
  2
*
  3
*
  4
*
  5
*
290
     1
  0
LAYER_INDEX
  5
868
102
{ACAD_REACTORS
330
867
102
}
330
867
100
AcDbIndex
 40
2454700.614625648
100
AcDbLayerIndex
  8
0
360
869
 90
      186
  8
1
360
86A
 90
        5
  8
DEFPOINTS
360
86B
 90
        0
  8
3
360
AA7
 90
        1
  8
2
360
AA8
 90
       56
  0
ACMDATAENTRYBLOCK
  5
82A
102
{ACAD_REACTORS
330
829
102
}
330
829
100
AcmDataEntry
100
AcmDataEntryBlock
  0
IDBUFFER
  5
869
330
0
100
AcDbIdBuffer
330
AA3
330
AA4
330
AA5
330
9AE
330
9B0
330
9B1
330
9B2
330
9B3
330
9B4
330
9B5
330
9B6
330
9B8
330
9B9
330
9BA
330
9BB
330
9BC
330
9BD
330
9BE
330
9BF
330
9C0
330
9C1
330
9C2
330
9C3
330
9C4
330
9C5
330
9C6
330
9C7
330
9C8
330
9C9
330
9CA
330
9CB
330
9CC
330
9CE
330
9CF
330
9D0
330
9D1
330
9D2
330
9D3
330
9D4
330
9D5
330
9D6
330
9D7
330
9D8
330
9D9
330
9DB
330
9DC
330
9DD
330
9DE
330
9DF
330
9E0
330
9E5
330
9E7
330
9E8
330
9E9
330
9EA
330
9EB
330
9EC
330
9ED
330
9EE
330
9EF
330
9F0
330
9F1
330
9F2
330
9F3
330
9F4
330
9F6
330
9F7
330
9F8
330
9F9
330
9FA
330
9FB
330
9FF
330
A00
330
A01
330
A02
330
A03
330
A04
330
A05
330
A06
330
A07
330
A08
330
A09
330
A0A
330
A0B
330
A0C
330
A0D
330
A0E
330
A17
330
A18
330
A1A
330
A1B
330
A1C
330
A1D
330
A22
330
A24
330
A25
330
A26
330
A27
330
A28
330
A29
330
A2B
330
A2C
330
A2D
330
A30
330
A32
330
A33
330
A34
330
A35
330
A38
330
A3A
330
A3B
330
A3C
330
A3D
330
A3E
330
A3F
330
A40
330
A41
330
A44
330
A45
330
A46
330
A47
330
A48
330
A49
330
A4A
330
A4B
330
A4C
330
A50
330
A51
330
A52
330
A53
330
A55
330
A56
330
A57
330
A59
330
A5B
330
A5C
330
A5D
330
A5E
330
A5F
330
A60
330
A61
330
A62
330
A63
330
A64
330
A65
330
A66
330
A67
330
A68
330
A69
330
A6A
330
A6B
330
A6C
330
A6D
330
A6E
330
A6F
330
A70
330
A74
330
A75
330
A76
330
A77
330
A78
330
A79
330
A7A
330
A7C
330
A7D
330
A7E
330
A7F
330
A80
330
A81
330
A82
330
A83
330
A8D
330
A8E
330
A91
330
A92
330
A93
330
A96
330
A97
330
A98
330
A99
330
A9A
330
A9C
330
A9F
330
AA0
330
AA1
330
AA2
  0
IDBUFFER
  5
86A
330
0
100
AcDbIdBuffer
330
9FC
330
A42
330
A71
330
9B7
330
9CD
  0
IDBUFFER
  5
86B
330
0
100
AcDbIdBuffer
  0
IDBUFFER
  5
AA7
330
0
100
AcDbIdBuffer
330
9AF
  0
IDBUFFER
  5
AA8
330
0
100
AcDbIdBuffer
330
A8C
330
A8F
330
A90
330
A94
330
A95
330
A9B
330
A9D
330
A9E
330
9DA
330
9E1
330
9E2
330
9E3
330
9E4
330
9E6
330
9F5
330
9FD
330
9FE
330
A0F
330
A10
330
A11
330
A12
330
A13
330
A14
330
A15
330
A16
330
A19
330
A1E
330
A1F
330
A20
330
A21
330
A23
330
A2A
330
A2E
330
A2F
330
A31
330
A36
330
A37
330
A39
330
A43
330
A4D
330
A4E
330
A4F
330
A54
330
A58
330
A5A
330
A72
330
A73
330
A7B
330
A84
330
A85
330
A86
330
A87
330
A88
330
A89
330
A8A
330
A8B
  0
ENDSEC
  0
EOF
