  0
SECTION
  2
HEADER
  9
$ACADVER
  1
AC1015
  9
$ACADMAINTVER
 70
    13
  9
$DWGCODEPAGE
  3
ANSI_932
  9
$INSBASE
 10
0.0
 20
0.0
 30
0.0
  9
$EXTMIN
 10
-63.40234642165448
 20
-61.903566891594
 30
0.0
  9
$EXTMAX
 10
203.2363153172394
 20
283.8852465082439
 30
0.0
  9
$LIMMIN
 10
0.0
 20
0.0
  9
$LIMMAX
 10
200.0
 20
150.0
  9
$ORTHOMODE
 70
     1
  9
$REGENMODE
 70
     1
  9
$FILLMODE
 70
     1
  9
$QTEXTMODE
 70
     0
  9
$MIRRTEXT
 70
     1
  9
$LTSCALE
 40
1.0
  9
$ATTMODE
 70
     1
  9
$TEXTSIZE
 40
2.5
  9
$TRACEWID
 40
1.0
  9
$TEXTSTYLE
  7
STANDARD
  9
$CLAYER
  8
0
  9
$CELTYPE
  6
ByLayer
  9
$CECOLOR
 62
   256
  9
$CELTSCALE
 40
1.0
  9
$DISPSILH
 70
     0
  9
$DIMSCALE
 40
1.0
  9
$DIMASZ
 40
2.5
  9
$DIMEXO
 40
0.625
  9
$DIMDLI
 40
3.75
  9
$DIMRND
 40
0.0
  9
$DIMDLE
 40
0.0
  9
$DIMEXE
 40
1.25
  9
$DIMTP
 40
0.0
  9
$DIMTM
 40
0.0
  9
$DIMTXT
 40
2.5
  9
$DIMCEN
 40
2.5
  9
$DIMTSZ
 40
0.0
  9
$DIMTOL
 70
     0
  9
$DIMLIM
 70
     0
  9
$DIMTIH
 70
     0
  9
$DIMTOH
 70
     0
  9
$DIMSE1
 70
     0
  9
$DIMSE2
 70
     0
  9
$DIMTAD
 70
     1
  9
$DIMZIN
 70
     8
  9
$DIMBLK
  1

  9
$DIMASO
 70
     1
  9
$DIMSHO
 70
     1
  9
$DIMPOST
  1

  9
$DIMAPOST
  1

  9
$DIMALT
 70
     0
  9
$DIMALTD
 70
     4
  9
$DIMALTF
 40
0.0394
  9
$DIMLFAC
 40
1.0
  9
$DIMTOFL
 70
     1
  9
$DIMTVP
 40
0.0
  9
$DIMTIX
 70
     0
  9
$DIMSOXD
 70
     0
  9
$DIMSAH
 70
     0
  9
$DIMBLK1
  1

  9
$DIMBLK2
  1

  9
$DIMSTYLE
  2
STANDARD
  9
$DIMCLRD
 70
     0
  9
$DIMCLRE
 70
     0
  9
$DIMCLRT
 70
     0
  9
$DIMTFAC
 40
1.0
  9
$DIMGAP
 40
0.625
  9
$DIMJUST
 70
     0
  9
$DIMSD1
 70
     0
  9
$DIMSD2
 70
     0
  9
$DIMTOLJ
 70
     1
  9
$DIMTZIN
 70
     0
  9
$DIMALTZ
 70
     0
  9
$DIMALTTZ
 70
     0
  9
$DIMUPT
 70
     0
  9
$DIMDEC
 70
     4
  9
$DIMTDEC
 70
     4
  9
$DIMALTU
 70
     2
  9
$DIMALTTD
 70
     2
  9
$DIMTXSTY
  7
STANDARD
  9
$DIMAUNIT
 70
     0
  9
$DIMADEC
 70
     0
  9
$DIMALTRND
 40
0.0
  9
$DIMAZIN
 70
     0
  9
$DIMDSEP
 70
    46
  9
$DIMATFIT
 70
     3
  9
$DIMFRAC
 70
     0
  9
$DIMLDRBLK
  1

  9
$DIMLUNIT
 70
     2
  9
$DIMLWD
 70
    -2
  9
$DIMLWE
 70
    -2
  9
$DIMTMOVE
 70
     0
  9
$LUNITS
 70
     2
  9
$LUPREC
 70
     4
  9
$SKETCHINC
 40
1.0
  9
$FILLETRAD
 40
1.0
  9
$AUNITS
 70
     0
  9
$AUPREC
 70
     0
  9
$MENU
  1
.
  9
$ELEVATION
 40
0.0
  9
$PELEVATION
 40
0.0
  9
$THICKNESS
 40
0.0
  9
$LIMCHECK
 70
     0
  9
$CHAMFERA
 40
10.0
  9
$CHAMFERB
 40
10.0
  9
$CHAMFERC
 40
0.0
  9
$CHAMFERD
 40
0.0
  9
$SKPOLY
 70
     0
  9
$TDCREATE
 40
2452125.683722997
  9
$TDUCREATE
 40
2452125.308722997
  9
$TDUPDATE
 40
2454700.619443356
  9
$TDUUPDATE
 40
2454700.244443356
  9
$TDINDWG
 40
0.0463756134
  9
$TDUSRTIMER
 40
0.0463752546
  9
$USRTIMER
 70
     1
  9
$ANGBASE
 50
0.0
  9
$ANGDIR
 70
     0
  9
$PDMODE
 70
     0
  9
$PDSIZE
 40
0.0
  9
$PLINEWID
 40
0.0
  9
$SPLFRAME
 70
     0
  9
$SPLINETYPE
 70
     6
  9
$SPLINESEGS
 70
     8
  9
$HANDSEED
  5
EF5
  9
$SURFTAB1
 70
     6
  9
$SURFTAB2
 70
     6
  9
$SURFTYPE
 70
     6
  9
$SURFU
 70
     6
  9
$SURFV
 70
     6
  9
$UCSBASE
  2

  9
$UCSNAME
  2

  9
$UCSORG
 10
0.0
 20
0.0
 30
0.0
  9
$UCSXDIR
 10
1.0
 20
0.0
 30
0.0
  9
$UCSYDIR
 10
0.0
 20
1.0
 30
0.0
  9
$UCSORTHOREF
  2

  9
$UCSORTHOVIEW
 70
     0
  9
$UCSORGTOP
 10
0.0
 20
0.0
 30
0.0
  9
$UCSORGBOTTOM
 10
0.0
 20
0.0
 30
0.0
  9
$UCSORGLEFT
 10
0.0
 20
0.0
 30
0.0
  9
$UCSORGRIGHT
 10
0.0
 20
0.0
 30
0.0
  9
$UCSORGFRONT
 10
0.0
 20
0.0
 30
0.0
  9
$UCSORGBACK
 10
0.0
 20
0.0
 30
0.0
  9
$PUCSBASE
  2

  9
$PUCSNAME
  2

  9
$PUCSORG
 10
0.0
 20
0.0
 30
0.0
  9
$PUCSXDIR
 10
1.0
 20
0.0
 30
0.0
  9
$PUCSYDIR
 10
0.0
 20
1.0
 30
0.0
  9
$PUCSORTHOREF
  2

  9
$PUCSORTHOVIEW
 70
     0
  9
$PUCSORGTOP
 10
0.0
 20
0.0
 30
0.0
  9
$PUCSORGBOTTOM
 10
0.0
 20
0.0
 30
0.0
  9
$PUCSORGLEFT
 10
0.0
 20
0.0
 30
0.0
  9
$PUCSORGRIGHT
 10
0.0
 20
0.0
 30
0.0
  9
$PUCSORGFRONT
 10
0.0
 20
0.0
 30
0.0
  9
$PUCSORGBACK
 10
0.0
 20
0.0
 30
0.0
  9
$USERI1
 70
     0
  9
$USERI2
 70
     0
  9
$USERI3
 70
     0
  9
$USERI4
 70
     0
  9
$USERI5
 70
     0
  9
$USERR1
 40
0.0
  9
$USERR2
 40
0.0
  9
$USERR3
 40
0.0
  9
$USERR4
 40
0.0
  9
$USERR5
 40
0.0
  9
$WORLDVIEW
 70
     1
  9
$SHADEDGE
 70
     3
  9
$SHADEDIF
 70
    70
  9
$TILEMODE
 70
     1
  9
$MAXACTVP
 70
    48
  9
$PINSBASE
 10
0.0
 20
0.0
 30
0.0
  9
$PLIMCHECK
 70
     0
  9
$PEXTMIN
 10
1.000000000000000E+20
 20
1.000000000000000E+20
 30
1.000000000000000E+20
  9
$PEXTMAX
 10
-1.000000000000000E+20
 20
-1.000000000000000E+20
 30
-1.000000000000000E+20
  9
$PLIMMIN
 10
0.0
 20
0.0
  9
$PLIMMAX
 10
420.0
 20
297.0
  9
$UNITMODE
 70
     0
  9
$VISRETAIN
 70
     1
  9
$PLINEGEN
 70
     0
  9
$PSLTSCALE
 70
     1
  9
$TREEDEPTH
 70
  3020
  9
$CMLSTYLE
  2
Standard
  9
$CMLJUST
 70
     0
  9
$CMLSCALE
 40
1.0
  9
$PROXYGRAPHICS
 70
     1
  9
$MEASUREMENT
 70
     0
  9
$CELWEIGHT
370
    -1
  9
$ENDCAPS
280
     0
  9
$JOINSTYLE
280
     0
  9
$LWDISPLAY
290
     0
  9
$INSUNITS
 70
     0
  9
$HYPERLINKBASE
  1

  9
$STYLESHEET
  1

  9
$XEDIT
290
     1
  9
$CEPSNTYPE
380
     0
  9
$PSTYLEMODE
290
     1
  9
$FINGERPRINTGUID
  2
{A10496DF-95F9-45CE-9E69-95AC451A2C1D}
  9
$VERSIONGUID
  2
{F1CB1652-771F-47EB-8C0F-E789FA136A5B}
  9
$EXTNAMES
290
     1
  9
$PSVPSCALE
 40
0.0
  9
$OLESTARTUP
290
     0
  0
ENDSEC
  0
SECTION
  2
CLASSES
  0
CLASS
  1
ACDBDICTIONARYWDFLT
  2
AcDbDictionaryWithDefault
  3
AutoCAD 2000
 90
        0
280
     0
281
     0
  0
CLASS
  1
ACDBPLACEHOLDER
  2
AcDbPlaceHolder
  3
AutoCAD 2000
 90
        0
280
     0
281
     0
  0
CLASS
  1
LAYOUT
  2
AcDbLayout
  3
AutoCAD 2000
 90
        0
280
     0
281
     0
  0
CLASS
  1
AMGSETTINGSOBJ
  2
AmgSettingsObj
  3
"AcadM|Product Description: AutoCAD Mechanical 2000|Company: Autodesk"
 90
        0
280
     0
281
     0
  0
CLASS
  1
ACME_DOCUMENT
  2
AcMeDbDoc
  3
AcMeServices
 90
        0
280
     0
281
     0
  0
CLASS
  1
ACMESCOPE
  2
AcMeScope
  3
AcMeServices
 90
        0
280
     0
281
     0
  0
CLASS
  1
ACMECOMMANDHISTORY
  2
AcMeCommandHistory
  3
AcMeServices
 90
        0
280
     0
281
     0
  0
CLASS
  1
ACIMSYSVARMAN
  2
AcImSysVarManager
  3
AcMeServices
 90
        0
280
     0
281
     0
  0
CLASS
  1
ACIMREALSYSVAR
  2
AcImRealSysVar
  3
AcMeServices
 90
        0
280
     0
281
     0
  0
CLASS
  1
ACIMINTSYSVAR
  2
AcImIntSysVar
  3
AcMeServices
 90
        0
280
     0
281
     0
  0
CLASS
  1
ACMEDRAWINGMAN
  2
AcMeDrawingMan
  3
AcMeServices
 90
        0
280
     0
281
     0
  0
CLASS
  1
ACMEVIEW
  2
AcMeView
  3
AcMeServices
 90
        0
280
     0
281
     0
  0
CLASS
  1
ACDBENTITYCACHE
  2
AcMeEntityCache
  3
AcMeServices
 90
        0
280
     0
281
     0
  0
CLASS
  1
GSMANAGER
  2
AcMeGSManager
  3
AcMeServices
 90
        0
280
     0
281
     0
  0
CLASS
  1
AMDTINTERNALREACTOR
  2
AmdtInternalReactor
  3
AcMeServices
 90
        0
280
     0
281
     0
  0
CLASS
  1
ACMESTATEMGR
  2
AcMeStateMgr
  3
AcMeServices
 90
        0
280
     0
281
     0
  0
CLASS
  1
ACGREFMASTER
  2
AcGrefMaster
  3
AcAttribServices
 90
        0
280
     0
281
     0
  0
CLASS
  1
AM_DRAWING_MGR
  2
AcDmDwgMgr
  3
AcMechDwgViewMgmt
 90
        0
280
     0
281
     0
  0
CLASS
  1
AM_DWG_DOCUMENT
  2
AcDmDwgDocument
  3
AcMechDwgViewMgmt
 90
        0
280
     0
281
     0
  0
CLASS
  1
AM_DWG_SHEET
  2
AcDmSheet
  3
AcMechDwgViewMgmt
 90
        0
280
     0
281
     0
  0
CLASS
  1
AM_VIEWDIMPARMAP
  2
AcDmViewDimParMap
  3
AcMechDwgViewMgmt
 90
        0
280
     0
281
     0
  0
CLASS
  1
AM_DWGMGR_NAME
  2
AcDmDwgMgrName
  3
AcMechDwgViewMgmt
 90
        0
280
     0
281
     0
  0
CLASS
  1
ACME_DATABASE
  2
AcMeDbDatabase
  3
AcMeServices
 90
        0
280
     0
281
     0
  0
CLASS
  1
ACRFINSADJUSTERMGR
  2
AcRfInsAdjusterMgr
  3
AcMeServices
 90
        0
280
     0
281
     0
  0
CLASS
  1
ACGREFACADMASTER
  2
AcGrefacadMaster
  3
AcGrefServices
 90
        0
280
     0
281
     0
  0
CLASS
  1
AMDTMENUSTATEMGR
  2
AmdtMenuStateMgr
  3
McadcomServices
 90
        0
280
     0
281
     0
  0
CLASS
  1
AMDTMCOMMENUSTATE
  2
AmdtMcomMenuState
  3
McadcomServices
 90
        0
280
     0
281
     0
  0
CLASS
  1
AMIMASTER
  2
AmiMaster
  3
AmiServices
 90
        0
280
     0
281
     0
  0
CLASS
  1
ASAPP
  2
AcAsAppObject
  3
AutoSurfServices
 90
        0
280
     0
281
     0
  0
CLASS
  1
IM_STATIC_MAN
  2
AcImStaticVarManager
  3
AcMeServices
 90
        0
280
     0
281
     0
  0
CLASS
  1
ACIMSTRSYSVAR
  2
AcImStrSysVar
  3
AcMeServices
 90
        0
280
     0
281
     0
  0
CLASS
  1
ACIMDBLSTATICVAR
  2
AcImDblStaticVar
  3
AcMeServices
 90
        0
280
     0
281
     0
  0
CLASS
  1
ACIMSTRSTATICVAR
  2
AcImStrStaticVar
  3
AcMeServices
 90
        0
280
     0
281
     0
  0
CLASS
  1
ACIMINTSTATICVAR
  2
AcImIntStaticVar
  3
AcMeServices
 90
        0
280
     0
281
     0
  0
CLASS
  1
ACASGREFMASTER
  2
AcAsGrefMaster
  3
AutoSurfResolverServices
 90
        0
280
     0
281
     0
  0
CLASS
  1
ACADGREFMODULE
  2
AcAdGrefModule
  3
AdGrefServices
 90
        0
280
     0
281
     0
  0
CLASS
  1
AMDTMAPISURFMOUDULE
  2
AmdtMApiSurfModule
  3
MApiSurfServices
 90
        0
280
     0
281
     0
  0
CLASS
  1
MAPIAMMOUDLE
  2
MApiAmModule
  3
MApiAmServices
 90
        0
280
     0
281
     0
  0
CLASS
  1
AMDTADMENUSTATE
  2
AmdtAdMenuState
  3
DesignerServices
 90
        0
280
     0
281
     0
  0
CLASS
  1
ADAPPL
  2
AcAdAppl
  3
DesignerServices
 90
        0
280
     0
281
     0
  0
CLASS
  1
DEPMGR
  2
AcAdDepMgr
  3
DesignerServices
 90
        0
280
     0
281
     0
  0
CLASS
  1
PARAMMGR
  2
AcAdParamMgr
  3
DesignerServices
 90
        0
280
     0
281
     0
  0
CLASS
  1
PARAMSCOPE
  2
AcAdParamScope
  3
DesignerServices
 90
        0
280
     0
281
     0
  0
CLASS
  1
NAMEDAPPL
  2
AcAdNamedAppl
  3
DesignerServices
 90
        0
280
     0
281
     0
  0
CLASS
  1
AMDTDMMENUSTATE
  2
AmdtDmMenuState
  3
AcMechDwgViewMgmt
 90
        0
280
     0
281
     0
  0
CLASS
  1
MAPIADMODULE
  2
MApiAdModule
  3
MApiAdServices
 90
        0
280
     0
281
     0
  0
CLASS
  1
AMDTAMMENUSTATE
  2
AmdtAmMenuState
  3
DesignerAssemblies
 90
        0
280
     0
281
     0
  0
CLASS
  1
ACAMPROJECT
  2
AcAmProject
  3
DesignerAssemblies
 90
        0
280
     0
281
     0
  0
CLASS
  1
ACAMGRCOMPDEF
  2
AcAmGrCompDef
  3
DesignerAssemblies
 90
        0
280
     0
281
     0
  0
CLASS
  1
ACCMCONTEXT
  2
AcCmContext
  3
DesignerAssemblies
 90
        0
280
     0
281
     0
  0
CLASS
  1
ACAMCOMPDEF
  2
AcAmCompDef
  3
DesignerAssemblies
 90
        0
280
     0
281
     0
  0
CLASS
  1
ACAMCOMPDEFMGR
  2
AcAmCompDefMgr
  3
DesignerAssemblies
 90
        0
280
     0
281
     0
  0
CLASS
  1
AMCONTEXTMGR
  2
AcAmContextMgr
  3
DesignerAssemblies
 90
        0
280
     0
281
     0
  0
CLASS
  1
ACAMCONTEXTMODELER
  2
AcAmContextModeler
  3
DesignerAssemblies
 90
        0
280
     0
281
     0
  0
CLASS
  1
ACMDATADICTIONARY
  2
AcmDataDictionary
  3
"AcmSymBB|Product Description: AutoCAD Mechanical 2000|Company: Autodesk"
 90
        0
280
     0
281
     0
  0
CLASS
  1
ACMDATAENTRYBLOCK
  2
AcmDataEntryBlock
  3
"AcmSymBB|Product Description: AutoCAD Mechanical 2000|Company: Autodesk"
 90
        0
280
     0
281
     0
  0
CLASS
  1
CATALOGSTATE
  2
AcAmCatalogState
  3
DesignerAssemblies
 90
        0
280
     0
281
     0
  0
CLASS
  1
ACAMGRCOMPDEFSET
  2
AcAmGrCompDefSet
  3
DesignerAssemblies
 90
        0
280
     0
281
     0
  0
CLASS
  1
AMDTBROWSERDBTAB
  2
AmdtBrowserDbTab
  3
McadcomServices
 90
        0
280
     0
281
     0
  0
CLASS
  1
CBROWSERAPPOBJECT
  2
CBrowserAppObject
  3
McadcomServices
 90
        0
280
     0
281
     0
  0
CLASS
  1
DM_PLACEHOLDER
  2
AcDmSelsetPlaceholder
  3
AcMechDwgViewMgmt
 90
        0
280
     0
281
     0
  0
CLASS
  1
ACMSTANDARDANSI
  2
AcmStandardANSI
  3
"Amdt_StdImp|Product Description: AutoCAD Mechanical 2000|Company: Autodesk"
 90
        0
280
     0
281
     0
  0
CLASS
  1
AMGOBJPROPCFG
  2
AmgObjPropCfg
  3
"AmgLay|Product Description: AutoCAD Mechanical 2000|Company: Autodesk"
 90
        1
280
     0
281
     0
  0
CLASS
  1
ACMSURFSTANDARDANSI
  2
AcmSurfTextStdANSI
  3
"Amdt_StdImp|Product Description: AutoCAD Mechanical 2000|Company: Autodesk"
 90
        0
280
     0
281
     0
  0
CLASS
  1
ACMFCFSTANDARDANSI
  2
AcmFCFStdANSI
  3
"Amdt_StdImp|Product Description: AutoCAD Mechanical 2000|Company: Autodesk"
 90
        0
280
     0
281
     0
  0
CLASS
  1
ACMWELDSTANDARDANSI
  2
AcmWeldingStdANSI
  3
"Amdt_StdImp|Product Description: AutoCAD Mechanical 2000|Company: Autodesk"
 90
        0
280
     0
281
     0
  0
CLASS
  1
ACMIDSTANDARDANSI
  2
AcmIdStdANSI
  3
"Amdt_StdImp|Product Description: AutoCAD Mechanical 2000|Company: Autodesk"
 90
        0
280
     0
281
     0
  0
CLASS
  1
ACMDATUMSTANDARDANSI
  2
AcmDatumStdANSI
  3
"Amdt_StdImp|Product Description: AutoCAD Mechanical 2000|Company: Autodesk"
 90
        0
280
     0
281
     0
  0
CLASS
  1
ACMBOMSTANDARDANSI
  2
AcmBOMStdANSI
  3
"Amdt_StdImp|Product Description: AutoCAD Mechanical 2000|Company: Autodesk"
 90
        0
280
     0
281
     0
  0
CLASS
  1
ACMDETAILSTANDARDANSI
  2
AmdtDetailSymStdANSI
  3
"Amdt_StdImp|Product Description: AutoCAD Mechanical 2000|Company: Autodesk"
 90
        0
280
     0
281
     0
  0
CLASS
  1
ACMSECTIONSTANDARDANSI
  2
AmdtSectionSymStdANSI
  3
"Amdt_StdImp|Product Description: AutoCAD Mechanical 2000|Company: Autodesk"
 90
        0
280
     0
281
     0
  0
CLASS
  1
ACMCENTERLINESTANDARDANSI
  2
AmdtCenterLineStdANSI
  3
"Amdt_StdImp|Product Description: AutoCAD Mechanical 2000|Company: Autodesk"
 90
        0
280
     0
281
     0
  0
CLASS
  1
ACMTHREADLINESTANDARDANSI
  2
AmdtThreadLineStdANSI
  3
"Amdt_StdImp|Product Description: AutoCAD Mechanical 2000|Company: Autodesk"
 90
        0
280
     0
281
     0
  0
CLASS
  1
ACMNOTESTANDARDANSI
  2
AmdtNoteStdANSI
  3
"Amdt_StdImp|Product Description: AutoCAD Mechanical 2000|Company: Autodesk"
 90
        0
280
     0
281
     0
  0
CLASS
  1
ACAMGLAYSTD
  2
AcAmgLayStd
  3
"AcAmgLayStd|Product Description: AutoCAD Mechanical 2000|Company: Autodesk"
 90
        0
280
     0
281
     0
  0
CLASS
  1
ACAMGDIMSTD
  2
AcAmgDimStd
  3
"AcAmgDimStd|Product Description: AutoCAD Mechanical 2000|Company: Autodesk"
 90
        0
280
     0
281
     0
  0
CLASS
  1
ACAMGHOLECHARTSTDANSI
  2
AcAmgHoleChartStdANSI
  3
ACMSYMBB_MODULE_NAME
 90
        0
280
     0
281
     0
  0
CLASS
  1
ACAMGTITLESTD
  2
AcAmgTitleStd
  3
"TITLEAPP"
 90
        0
280
     0
281
     0
  0
CLASS
  1
LAYER_INDEX
  2
AcDbLayerIndex
  3
AutoCAD 2000
 90
        0
280
     0
281
     0
  0
CLASS
  1
IDBUFFER
  2
AcDbIdBuffer
  3
AutoCAD 2000
 90
        0
280
     0
281
     0
  0
CLASS
  1
DICTIONARYVAR
  2
AcDbDictionaryVar
  3
AutoCAD 2000
 90
        0
280
     0
281
     0
  0
CLASS
  1
ACAMGFILTERDAT
  2
AcAmgFilterDat
  3
"AcadM|Product Description: AutoCAD Mechanical 2000|Company: Autodesk"
 90
        0
280
     0
281
     0
  0
CLASS
  1
AMDTFORMULAUPDATEDISPATCHER
  2
AmdtFormulaUpdateDispatcher
  3
AcMeServices
 90
        0
280
     0
281
     0
  0
ENDSEC
  0
SECTION
  2
TABLES
  0
TABLE
  2
VPORT
  5
42D
330
0
100
AcDbSymbolTable
 70
     5
  0
VPORT
  5
EF4
330
42D
100
AcDbSymbolTableRecord
100
AcDbViewportTableRecord
  2
*Active
 70
     0
 10
0.0
 20
0.0
 11
1.0
 21
1.0
 12
-85.61361081193672
 22
26.01237866535678
 13
0.0
 23
0.0
 14
0.5
 24
0.5
 15
1.0
 25
1.0
 16
0.0
 26
0.0
 36
1.0
 17
113.7736169056603
 27
75.0
 37
0.0
 40
361.911357622275
 41
1.516981132075471
 42
50.0
 43
0.0
 44
0.0
 50
0.0
 51
0.0
 71
     0
 72
   100
 73
     1
 74
     1
 75
     0
 76
     0
 77
     0
 78
     0
281
     0
 65
     0
110
0.0
120
0.0
130
0.0
111
1.0
121
0.0
131
0.0
112
0.0
122
1.0
132
0.0
 79
     0
146
0.0
  0
ENDTAB
  0
TABLE
  2
LTYPE
  5
42A
330
0
100
AcDbSymbolTable
 70
    18
  0
LTYPE
  5
438
330
42A
100
AcDbSymbolTableRecord
100
AcDbLinetypeTableRecord
  2
ByBlock
 70
     0
  3

 72
    65
 73
     0
 40
0.0
  0
LTYPE
  5
439
330
42A
100
AcDbSymbolTableRecord
100
AcDbLinetypeTableRecord
  2
ByLayer
 70
     0
  3

 72
    65
 73
     0
 40
0.0
  0
LTYPE
  5
43A
330
42A
100
AcDbSymbolTableRecord
100
AcDbLinetypeTableRecord
  2
CONTINUOUS
 70
     0
  3
Solid line
 72
    65
 73
     0
 40
0.0
  0
LTYPE
  5
448
330
42A
100
AcDbSymbolTableRecord
100
AcDbLinetypeTableRecord
  2
CENTER
 70
     0
  3
____ _ ____ _ ____ _ ____ _ ____ _ ____ _ ____
 72
    65
 73
     4
 40
2.0
 49
1.25
 74
     0
 49
-0.25
 74
     0
 49
0.25
 74
     0
 49
-0.25
 74
     0
  0
LTYPE
  5
792
330
42A
100
AcDbSymbolTableRecord
100
AcDbLinetypeTableRecord
  2
HIDDEN
 70
     0
  3
Hidden __ __ __ __ __ __ __ __ __ __ __ __ __ _
 72
    65
 73
     2
 40
0.375
 49
0.25
 74
     0
 49
-0.125
 74
     0
  0
LTYPE
  5
793
330
42A
100
AcDbSymbolTableRecord
100
AcDbLinetypeTableRecord
  2
PHANTOM2
 70
     0
  3
Phantom (.5x) ___ _ _ ___ _ _ ___ _ _ ___ _ _
 72
    65
 73
     6
 40
1.25
 49
0.625
 74
     0
 49
-0.125
 74
     0
 49
0.125
 74
     0
 49
-0.125
 74
     0
 49
0.125
 74
     0
 49
-0.125
 74
     0
  0
LTYPE
  5
7F5
330
42A
100
AcDbSymbolTableRecord
100
AcDbLinetypeTableRecord
  2
ASULTYPE
 70
     0
  3
実線
 72
    65
 73
     2
 40
3.0
 49
2.5
 74
     0
 49
0.5
 74
     0
  0
LTYPE
  5
7F6
330
42A
100
AcDbSymbolTableRecord
100
AcDbLinetypeTableRecord
  2
ASVLTYPE
 70
     0
  3
__ __ __ __ __ __ __ __ __ __ __ __ __ __ __ __ __ __ __ __ __
 72
    65
 73
     2
 40
0.75
 49
0.5
 74
     0
 49
-0.25
 74
     0
  0
LTYPE
  5
83A
330
42A
100
AcDbSymbolTableRecord
100
AcDbLinetypeTableRecord
  2
AM_ISO02W050
 70
     0
  3
__ __ __ __ __ __ __ __ __ __ __ __ __ __ __
 72
    65
 73
     2
 40
7.5
 49
6.0
 74
     0
 49
-1.5
 74
     0
  0
LTYPE
  5
83B
330
42A
100
AcDbSymbolTableRecord
100
AcDbLinetypeTableRecord
  2
AM_ISO08W050
 70
     0
  3
____ . ____ . ____ . ____ . ____ . ____ . ____
 72
    65
 73
     4
 40
18.0
 49
12.0
 74
     0
 49
-1.5
 74
     0
 49
3.0
 74
     0
 49
-1.5
 74
     0
  0
LTYPE
  5
83C
330
42A
100
AcDbSymbolTableRecord
100
AcDbLinetypeTableRecord
  2
AM_ISO09W050
 70
     0
  3
_____ . . _____ . . _____ . . ____ .. ____
 72
    65
 73
     6
 40
22.5
 49
12.0
 74
     0
 49
-1.5
 74
     0
 49
3.0
 74
     0
 49
-1.5
 74
     0
 49
3.0
 74
     0
 49
-1.5
 74
     0
  0
LTYPE
  5
83D
330
42A
100
AcDbSymbolTableRecord
100
AcDbLinetypeTableRecord
  2
Amconstr
 70
     0
  3
_______________________
 72
    65
 73
     2
 40
9999.0
 49
9999.0
 74
     0
 49
0.0
 74
     0
  0
LTYPE
  5
83E
330
42A
100
AcDbSymbolTableRecord
100
AcDbLinetypeTableRecord
  2
AM_ISO08W050x2
 70
     0
  3
__ . __ . __ . __ . __ . __
 72
    65
 73
     4
 40
9.0
 49
6.0
 74
     0
 49
-0.75
 74
     0
 49
1.5
 74
     0
 49
-0.75
 74
     0
  0
LTYPE
  5
83F
330
42A
100
AcDbSymbolTableRecord
100
AcDbLinetypeTableRecord
  2
AM_ISO02W050x2
 70
     0
  3
 _ _ _ _ _ _ _ _ _ _ _ _
 72
    65
 73
     2
 40
3.75
 49
3.0
 74
     0
 49
-0.75
 74
     0
  0
LTYPE
  5
842
330
42A
100
AcDbSymbolTableRecord
100
AcDbLinetypeTableRecord
  2
Amzigzag
 70
     0
  3
/\/-/\/-/\/-/\/-/\/-/\/
 72
    65
 73
     2
 40
11.00009999999999
 49
0.0001
 74
     4
 75
   135
340
841
 46
0.04
 50
0.0
 44
0.0
 45
0.0
 49
-11.0
 74
     0
  0
LTYPE
  5
843
330
42A
100
AcDbSymbolTableRecord
100
AcDbLinetypeTableRecord
  2
CENTER2
 70
     0
  3
Center (.5x) ___ _ ___ _ ___ _ ___ _ ___ _ ___
 72
    65
 73
     4
 40
1.125
 49
0.75
 74
     0
 49
-0.125
 74
     0
 49
0.125
 74
     0
 49
-0.125
 74
     0
  0
LTYPE
  5
844
330
42A
100
AcDbSymbolTableRecord
100
AcDbLinetypeTableRecord
  2
HIDDEN2
 70
     0
  3
Hidden (.5x) _ _ _ _ _ _ _ _ _ _ _ _ _ _ _ _ _
 72
    65
 73
     2
 40
0.1875
 49
0.125
 74
     0
 49
-0.0625
 74
     0
  0
LTYPE
  5
845
330
42A
100
AcDbSymbolTableRecord
100
AcDbLinetypeTableRecord
  2
Amzigzag2
 70
     0
  3
/\/-/\/-/\/-/\/-/\/-/\/
 72
    65
 73
     2
 40
0.4401
 49
0.0001
 74
     4
 75
   135
340
841
 46
0.0016
 50
0.0
 44
0.0
 45
0.0
 49
-0.4400000000000001
 74
     0
  0
LTYPE
  5
853
330
42A
100
AcDbSymbolTableRecord
100
AcDbLinetypeTableRecord
  2
ACANSTGB
 70
     0
  3
__ . . __ . .
 72
    65
 73
     6
 40
0.35433070866
 49
0.15748031496
 74
     0
 49
-0.03937007874
 74
     0
 49
0.03937007874
 74
     0
 49
-0.03937007874
 74
     0
 49
0.03937007874
 74
     0
 49
-0.03937007874
 74
     0
  0
LTYPE
  5
854
330
42A
100
AcDbSymbolTableRecord
100
AcDbLinetypeTableRecord
  2
ACANSTGL
 70
     0
  3
_ _ _ _ _
 72
    65
 73
     2
 40
0.11811023622
 49
0.07874015748
 74
     0
 49
-0.03937007874
 74
     0
  0
ENDTAB
  0
TABLE
  2
LAYER
  5
427
330
0
100
AcDbSymbolTable
 70
     5
  0
LAYER
  5
435
330
427
100
AcDbSymbolTableRecord
100
AcDbLayerTableRecord
  2
0
 70
     0
 62
     7
  6
CONTINUOUS
370
    -3
390
434
  0
LAYER
  5
449
330
427
100
AcDbSymbolTableRecord
100
AcDbLayerTableRecord
  2
1
 70
     0
 62
     1
  6
CENTER
370
    -3
390
434
  0
LAYER
  5
44A
330
427
100
AcDbSymbolTableRecord
100
AcDbLayerTableRecord
  2
DEFPOINTS
 70
     0
 62
     7
  6
CONTINUOUS
290
     0
370
    -3
390
434
  0
LAYER
  5
8AE
330
427
100
AcDbSymbolTableRecord
100
AcDbLayerTableRecord
  2
3
 70
     0
 62
     3
  6
CONTINUOUS
370
    -3
390
434
  0
LAYER
  5
8AF
330
427
100
AcDbSymbolTableRecord
100
AcDbLayerTableRecord
  2
2
 70
     0
 62
     2
  6
HIDDEN
370
    -3
390
434
  0
ENDTAB
  0
TABLE
  2
STYLE
  5
428
330
0
100
AcDbSymbolTable
 70
     6
  0
STYLE
  5
436
330
428
100
AcDbSymbolTableRecord
100
AcDbTextStyleTableRecord
  2
STANDARD
 70
     0
 40
0.0
 41
1.0
 50
0.0
 71
     0
 42
2.5
  3
txt
  4

  0
STYLE
  5
44B
330
428
100
AcDbSymbolTableRecord
100
AcDbTextStyleTableRecord
  2
BIGFONT
 70
     0
 40
10.0
 41
0.8
 50
0.0
 71
     0
 42
10.0
  3
txt.shx
  4
bigfont
  0
STYLE
  5
841
330
428
100
AcDbSymbolTableRecord
100
AcDbTextStyleTableRecord
  2

 70
     1
 40
0.0
 41
1.0
 50
0.0
 71
     0
 42
2.5
  3
ltypeshp.shx
  4

  0
STYLE
  5
846
330
428
100
AcDbSymbolTableRecord
100
AcDbTextStyleTableRecord
  2
ACANSTS
 70
     0
 40
1.0
 41
1.0
 50
0.0
 71
     0
 42
2.5
  3
romans.shx
  4
extfont.shx
  0
STYLE
  5
852
330
428
100
AcDbSymbolTableRecord
100
AcDbTextStyleTableRecord
  2
ACANSGDT
 70
     0
 40
0.0
 41
1.0
 50
0.0
 71
     0
 42
2.5
  3
amgdtans.shx
  4

  0
STYLE
  5
8B0
330
428
100
AcDbSymbolTableRecord
100
AcDbTextStyleTableRecord
  2
04500
 70
     0
 40
0.0
 41
0.45
 50
0.0
 71
     0
 42
4.000000000000048
  3
ROMANS
  4
EXTFONT
  0
ENDTAB
  0
TABLE
  2
VIEW
  5
42B
330
0
100
AcDbSymbolTable
 70
     0
  0
ENDTAB
  0
TABLE
  2
UCS
  5
42C
330
0
100
AcDbSymbolTable
 70
     0
  0
ENDTAB
  0
TABLE
  2
APPID
  5
42E
330
0
100
AcDbSymbolTable
 70
    13
  0
APPID
  5
437
330
42E
100
AcDbSymbolTableRecord
100
AcDbRegAppTableRecord
  2
ACAD
 70
     0
  0
APPID
  5
770
330
42E
100
AcDbSymbolTableRecord
100
AcDbRegAppTableRecord
  2
GENIUS_GENDIM_13
 70
     0
  0
APPID
  5
771
330
42E
100
AcDbSymbolTableRecord
100
AcDbRegAppTableRecord
  2
GENIUS_GENDTOL_13
 70
     0
  0
APPID
  5
772
330
42E
100
AcDbSymbolTableRecord
100
AcDbRegAppTableRecord
  2
GENIUS_GE3DTOL_13
 70
     0
  0
APPID
  5
775
330
42E
100
AcDbSymbolTableRecord
100
AcDbRegAppTableRecord
  2
MCAD_NO_VIS
 70
     0
  0
APPID
  5
776
330
42E
100
AcDbSymbolTableRecord
100
AcDbRegAppTableRecord
  2
ACAD_TEMP_GRAPHIC
 70
     0
  0
APPID
  5
7A8
330
42E
100
AcDbSymbolTableRecord
100
AcDbRegAppTableRecord
  2
AD_DRAW
 70
     0
  0
APPID
  5
7AB
330
42E
100
AcDbSymbolTableRecord
100
AcDbRegAppTableRecord
  2
ACATTRIBSERVICES
 70
     0
  0
APPID
  5
7F7
330
42E
100
AcDbSymbolTableRecord
100
AcDbRegAppTableRecord
  2
ASURF_PCURVE_APPNAME
 70
     0
  0
APPID
  5
7FC
330
42E
100
AcDbSymbolTableRecord
100
AcDbRegAppTableRecord
  2
AMG_3D2D_5.0
 70
     0
  0
APPID
  5
827
330
42E
100
AcDbSymbolTableRecord
100
AcDbRegAppTableRecord
  2
DESIGNERASSEMBLIES
 70
     0
  0
APPID
  5
82F
330
42E
100
AcDbSymbolTableRecord
100
AcDbRegAppTableRecord
  2
ACADM_DIM_EDIT
 70
     0
  0
APPID
  5
830
330
42E
100
AcDbSymbolTableRecord
100
AcDbRegAppTableRecord
  2
AMDT_DM_ADJ
 70
     0
  0
ENDTAB
  0
TABLE
  2
DIMSTYLE
  5
42F
330
0
100
AcDbSymbolTable
 70
     7
100
AcDbDimStyleTable
 71
     1
340
44C
  0
DIMSTYLE
105
44C
330
42F
100
AcDbSymbolTableRecord
100
AcDbDimStyleTableRecord
  2
STANDARD
 70
     0
274
     4
279
     2
284
     8
285
     8
286
     8
340
436
  0
DIMSTYLE
105
859
330
42F
100
AcDbSymbolTableRecord
100
AcDbDimStyleTableRecord
  2
AM_ANSI
 70
     0
  4
mm
 41
0.1
 42
0.05
 43
0.5
 44
0.1
 47
0.1
 48
0.1
 78
     7
 79
     2
140
0.12
141
0.0
146
0.71
147
0.06
176
   256
177
   256
178
     2
274
     4
284
     7
340
436
371
    -1
372
    -1
  0
DIMSTYLE
105
85A
330
42F
100
AcDbSymbolTableRecord
100
AcDbDimStyleTableRecord
  2
AM_ANSI$3
 70
     0
  4
mm
 41
0.1
 42
0.05
 43
0.5
 44
0.1
 47
0.1
 48
0.1
 78
     7
 79
     2
140
0.12
141
0.0
146
0.71
147
0.06
176
   256
177
   256
178
     2
274
     4
284
     7
288
     1
289
     0
340
436
371
    -1
372
    -1
  0
DIMSTYLE
105
85B
330
42F
100
AcDbSymbolTableRecord
100
AcDbDimStyleTableRecord
  2
AM_ANSI$4
 70
     0
  4
mm
 41
0.1
 42
0.05
 43
0.5
 44
0.1
 47
0.1
 48
0.1
 78
     7
 79
     2
140
0.12
141
0.0
146
0.71
147
0.06
176
   256
177
   256
178
     2
274
     4
284
     7
288
     1
289
     0
340
436
371
    -1
372
    -1
  0
DIMSTYLE
105
85C
330
42F
100
AcDbSymbolTableRecord
100
AcDbDimStyleTableRecord
  2
AM_ANSI$7
 70
     0
  4
mm
 41
0.1
 42
0.05
 43
0.5
 44
0.1
 47
0.1
 48
0.1
 78
     7
 79
     2
140
0.24
141
0.0
146
0.71
147
0.06
176
   256
177
   256
178
     2
274
     4
284
     7
340
436
371
    -1
372
    -1
  0
DIMSTYLE
105
85D
330
42F
100
AcDbSymbolTableRecord
100
AcDbDimStyleTableRecord
  2
AM_ANSI$SF
 70
     0
  4
mm
 41
0.1
 42
0.05
 43
0.5
 44
0.1
 47
0.1
 48
0.1
 75
     1
 76
     1
 78
     7
 79
     2
140
0.12
141
0.0
146
0.71
147
0.06
176
   256
177
   256
178
     2
274
     4
284
     7
340
436
371
    -1
372
    -1
  0
DIMSTYLE
105
862
330
42F
100
AcDbSymbolTableRecord
100
AcDbDimStyleTableRecord
  2
AM_ANSI$SH
 70
     0
  4
mm
 41
0.1
 42
0.05
 43
0.5
 44
0.1
 47
0.1
 48
0.1
 75
     1
 76
     1
 78
     7
 79
     2
140
0.12
141
0.0
146
0.71
147
0.06
173
     1
176
   256
177
   256
178
     2
274
     4
284
     7
340
436
343
85E
371
    -1
372
    -1
  0
ENDTAB
  0
TABLE
  2
BLOCK_RECORD
  5
426
330
0
100
AcDbSymbolTable
 70
     6
  0
BLOCK_RECORD
  5
443
102
{ACAD_XDICTIONARY
360
866
102
}
330
426
100
AcDbSymbolTableRecord
100
AcDbBlockTableRecord
  2
*Model_Space
340
446
  0
BLOCK_RECORD
  5
43F
330
426
100
AcDbSymbolTableRecord
100
AcDbBlockTableRecord
  2
*Paper_Space
340
442
  0
BLOCK_RECORD
  5
44F
330
426
100
AcDbSymbolTableRecord
100
AcDbBlockTableRecord
  2
$MODEL_SPACE
340
0
  0
BLOCK_RECORD
  5
452
330
426
100
AcDbSymbolTableRecord
100
AcDbBlockTableRecord
  2
$PAPER_SPACE
340
0
  0
BLOCK_RECORD
  5
455
330
426
100
AcDbSymbolTableRecord
100
AcDbBlockTableRecord
  2
A$C0C13436D
340
0
  0
BLOCK_RECORD
  5
81E
330
426
100
AcDbSymbolTableRecord
100
AcDbBlockTableRecord
  2
*U3
340
0
  0
BLOCK_RECORD
  5
85E
330
426
100
AcDbSymbolTableRecord
100
AcDbBlockTableRecord
  2
GENAXEH
340
0
  0
ENDTAB
  0
ENDSEC
  0
SECTION
  2
BLOCKS
  0
BLOCK
  5
444
330
443
100
AcDbEntity
  8
0
100
AcDbBlockBegin
  2
*Model_Space
 70
     0
 10
0.0
 20
0.0
 30
0.0
  3
*Model_Space
  1

  0
ENDBLK
  5
445
330
443
100
AcDbEntity
  8
0
100
AcDbBlockEnd
  0
BLOCK
  5
440
330
43F
100
AcDbEntity
 67
     1
  8
0
100
AcDbBlockBegin
  2
*Paper_Space
 70
     0
 10
0.0
 20
0.0
 30
0.0
  3
*Paper_Space
  1

  0
ENDBLK
  5
441
330
43F
100
AcDbEntity
 67
     1
  8
0
100
AcDbBlockEnd
  0
BLOCK
  5
450
330
44F
100
AcDbEntity
  8
0
100
AcDbBlockBegin
  2
$MODEL_SPACE
 70
     0
 10
0.0
 20
0.0
 30
0.0
  3
$MODEL_SPACE
  1

  0
ENDBLK
  5
451
330
44F
100
AcDbEntity
  8
0
100
AcDbBlockEnd
  0
BLOCK
  5
453
330
452
100
AcDbEntity
  8
0
100
AcDbBlockBegin
  2
$PAPER_SPACE
 70
     0
 10
0.0
 20
0.0
 30
0.0
  3
$PAPER_SPACE
  1

  0
ENDBLK
  5
454
330
452
100
AcDbEntity
  8
0
100
AcDbBlockEnd
  0
BLOCK
  5
456
330
455
100
AcDbEntity
  8
0
100
AcDbBlockBegin
  2
A$C0C13436D
 70
     0
 10
0.0
 20
0.0
 30
0.0
  3
A$C0C13436D
  1

  0
ARC
  5
457
330
455
100
AcDbEntity
  8
0
100
AcDbCircle
 10
55.0
 20
38.004234
 30
0.0
 40
1.0
100
AcDbArc
 50
180.0
 51
285.0428009999999
  0
LINE
  5
458
330
455
100
AcDbEntity
  8
0
100
AcDbLine
 10
54.73933399999999
 20
55.69962
 30
0.0
 11
102.7393339999999
 21
68.65961999999999
 31
0.0
  0
LINE
  5
459
330
455
100
AcDbEntity
  8
1
100
AcDbLine
 10
8.0
 20
70.5
 30
0.0
 11
8.0
 21
0.0
 31
0.0
  0
LINE
  5
45A
330
455
100
AcDbEntity
  8
0
100
AcDbLine
 10
14.0
 20
33.5
 30
0.0
 11
14.0
 21
37.26708099999999
 31
0.0
  0
LINE
  5
45B
330
455
100
AcDbEntity
  8
0
100
AcDbLine
 10
2.0
 20
33.5
 30
0.0
 11
2.0
 21
37.26708099999999
 31
0.0
  0
LINE
  5
45C
330
455
100
AcDbEntity
  8
0
100
AcDbLine
 10
5.0
 20
33.5
 30
0.0
 11
5.0
 21
4.0
 31
0.0
  0
LINE
  5
45D
330
455
100
AcDbEntity
  8
0
100
AcDbLine
 10
5.5
 20
3.5
 30
0.0
 11
5.5
 21
32.5
 31
0.0
  0
LINE
  5
45E
330
455
100
AcDbEntity
  8
0
100
AcDbLine
 10
10.5
 20
3.5
 30
0.0
 11
10.5
 21
32.5
 31
0.0
  0
LINE
  5
45F
330
455
100
AcDbEntity
  8
0
100
AcDbLine
 10
11.0
 20
33.5
 30
0.0
 11
11.0
 21
4.0
 31
0.0
  0
LINE
  5
460
330
455
100
AcDbEntity
  8
0
100
AcDbLine
 10
10.5
 20
3.5
 30
0.0
 11
8.0
 21
3.5
 31
0.0
  0
LINE
  5
461
330
455
100
AcDbEntity
  8
0
100
AcDbLine
 10
11.0
 20
4.0
 30
0.0
 11
8.0
 21
4.0
 31
0.0
  0
LINE
  5
462
330
455
100
AcDbEntity
  8
0
100
AcDbLine
 10
5.5
 20
3.5
 30
0.0
 11
8.0
 21
3.5
 31
0.0
  0
LINE
  5
463
330
455
100
AcDbEntity
  8
0
100
AcDbLine
 10
5.0
 20
4.0
 30
0.0
 11
8.0
 21
4.0
 31
0.0
  0
LINE
  5
464
330
455
100
AcDbEntity
  8
0
100
AcDbLine
 10
5.0
 20
4.0
 30
0.0
 11
5.5
 21
3.5
 31
0.0
  0
LINE
  5
465
330
455
100
AcDbEntity
  8
0
100
AcDbLine
 10
11.0
 20
4.0
 30
0.0
 11
10.5
 21
3.5
 31
0.0
  0
LINE
  5
466
330
455
100
AcDbEntity
  8
0
100
AcDbLine
 10
11.0
 20
32.5
 30
0.0
 11
8.0
 21
32.5
 31
0.0
  0
LINE
  5
467
330
455
100
AcDbEntity
  8
0
100
AcDbLine
 10
8.0
 20
33.5
 30
0.0
 11
14.0
 21
33.5
 31
0.0
  0
LINE
  5
468
330
455
100
AcDbEntity
  8
0
100
AcDbLine
 10
8.0
 20
33.5
 30
0.0
 11
2.0
 21
33.5
 31
0.0
  0
LINE
  5
469
330
455
100
AcDbEntity
  8
0
100
AcDbLine
 10
5.0
 20
32.5
 30
0.0
 11
8.0
 21
32.5
 31
0.0
  0
LINE
  5
46A
330
455
100
AcDbEntity
  8
0
100
AcDbLine
 10
16.0
 20
38.5
 30
0.0
 11
16.0
 21
57.5
 31
0.0
  0
ARC
  5
46B
330
455
100
AcDbEntity
  8
0
100
AcDbCircle
 10
8.0
 20
65.0
 30
0.0
 40
8.5
100
AcDbArc
 50
241.9275129999999
 51
298.072487
  0
POLYLINE
  5
46C
330
455
100
AcDbEntity
  8
0
100
AcDb3dPolyline
 66
     1
 10
0.0
 20
0.0
 30
0.0
 70
     8
  0
VERTEX
  5
46D
330
46C
100
AcDbEntity
  8
0
100
AcDbVertex
100
AcDb3dPolylineVertex
 10
0.267585
 20
58.0129
 30
0.0
 70
    32
  0
VERTEX
  5
46E
330
46C
100
AcDbEntity
  8
0
100
AcDbVertex
100
AcDb3dPolylineVertex
 10
0.212081
 20
57.9575
 30
0.0
 70
    32
  0
VERTEX
  5
46F
330
46C
100
AcDbEntity
  8
0
100
AcDbVertex
100
AcDb3dPolylineVertex
 10
0.162945
 20
57.9016
 30
0.0
 70
    32
  0
VERTEX
  5
470
330
46C
100
AcDbEntity
  8
0
100
AcDbVertex
100
AcDb3dPolylineVertex
 10
0.120218
 20
57.84539999999999
 30
0.0
 70
    32
  0
VERTEX
  5
471
330
46C
100
AcDbEntity
  8
0
100
AcDbVertex
100
AcDb3dPolylineVertex
 10
0.0839342
 20
57.789
 30
0.0
 70
    32
  0
VERTEX
  5
472
330
46C
100
AcDbEntity
  8
0
100
AcDbVertex
100
AcDb3dPolylineVertex
 10
0.0541232
 20
57.7323
 30
0.0
 70
    32
  0
VERTEX
  5
473
330
46C
100
AcDbEntity
  8
0
100
AcDbVertex
100
AcDb3dPolylineVertex
 10
0.0308095
 20
57.6754
 30
0.0
 70
    32
  0
VERTEX
  5
474
330
46C
100
AcDbEntity
  8
0
100
AcDbVertex
100
AcDb3dPolylineVertex
 10
0.0140121
 20
57.61829999999999
 30
0.0
 70
    32
  0
VERTEX
  5
475
330
46C
100
AcDbEntity
  8
0
100
AcDbVertex
100
AcDb3dPolylineVertex
 10
0.00374481
 20
57.5612
 30
0.0
 70
    32
  0
VERTEX
  5
476
330
46C
100
AcDbEntity
  8
0
100
AcDbVertex
100
AcDb3dPolylineVertex
 10
0.0000160367
 20
57.50399999999999
 30
0.0
 70
    32
  0
VERTEX
  5
477
330
46C
100
AcDbEntity
  8
0
100
AcDbVertex
100
AcDb3dPolylineVertex
 10
0.00282881
 20
57.4468
 30
0.0
 70
    32
  0
VERTEX
  5
478
330
46C
100
AcDbEntity
  8
0
100
AcDbVertex
100
AcDb3dPolylineVertex
 10
0.0121808
 20
57.3897
 30
0.0
 70
    32
  0
VERTEX
  5
479
330
46C
100
AcDbEntity
  8
0
100
AcDbVertex
100
AcDb3dPolylineVertex
 10
0.0280644
 20
57.3326
 30
0.0
 70
    32
  0
VERTEX
  5
47A
330
46C
100
AcDbEntity
  8
0
100
AcDbVertex
100
AcDb3dPolylineVertex
 10
0.0504667
 20
57.2757
 30
0.0
 70
    32
  0
VERTEX
  5
47B
330
46C
100
AcDbEntity
  8
0
100
AcDbVertex
100
AcDb3dPolylineVertex
 10
0.0793692
 20
57.219
 30
0.0
 70
    32
  0
VERTEX
  5
47C
330
46C
100
AcDbEntity
  8
0
100
AcDbVertex
100
AcDb3dPolylineVertex
 10
0.114748
 20
57.1625
 30
0.0
 70
    32
  0
VERTEX
  5
47D
330
46C
100
AcDbEntity
  8
0
100
AcDbVertex
100
AcDb3dPolylineVertex
 10
0.156575
 20
57.1062
 30
0.0
 70
    32
  0
VERTEX
  5
47E
330
46C
100
AcDbEntity
  8
0
100
AcDbVertex
100
AcDb3dPolylineVertex
 10
0.204816
 20
57.0503
 30
0.0
 70
    32
  0
VERTEX
  5
47F
330
46C
100
AcDbEntity
  8
0
100
AcDbVertex
100
AcDb3dPolylineVertex
 10
0.25943
 20
56.9948
 30
0.0
 70
    32
  0
VERTEX
  5
480
330
46C
100
AcDbEntity
  8
0
100
AcDbVertex
100
AcDb3dPolylineVertex
 10
0.320374
 20
56.9397
 30
0.0
 70
    32
  0
VERTEX
  5
481
330
46C
100
AcDbEntity
  8
0
100
AcDbVertex
100
AcDb3dPolylineVertex
 10
0.387598
 20
56.885
 30
0.0
 70
    32
  0
VERTEX
  5
482
330
46C
100
AcDbEntity
  8
0
100
AcDbVertex
100
AcDb3dPolylineVertex
 10
0.461046
 20
56.83089999999999
 30
0.0
 70
    32
  0
VERTEX
  5
483
330
46C
100
AcDbEntity
  8
0
100
AcDbVertex
100
AcDb3dPolylineVertex
 10
0.540659
 20
56.7772
 30
0.0
 70
    32
  0
VERTEX
  5
484
330
46C
100
AcDbEntity
  8
0
100
AcDbVertex
100
AcDb3dPolylineVertex
 10
0.626371
 20
56.7242
 30
0.0
 70
    32
  0
VERTEX
  5
485
330
46C
100
AcDbEntity
  8
0
100
AcDbVertex
100
AcDb3dPolylineVertex
 10
0.718112
 20
56.6718
 30
0.0
 70
    32
  0
VERTEX
  5
486
330
46C
100
AcDbEntity
  8
0
100
AcDbVertex
100
AcDb3dPolylineVertex
 10
0.8158079999999999
 20
56.6201
 30
0.0
 70
    32
  0
VERTEX
  5
487
330
46C
100
AcDbEntity
  8
0
100
AcDbVertex
100
AcDb3dPolylineVertex
 10
0.9193789999999999
 20
56.56909999999999
 30
0.0
 70
    32
  0
VERTEX
  5
488
330
46C
100
AcDbEntity
  8
0
100
AcDbVertex
100
AcDb3dPolylineVertex
 10
1.028739999999999
 20
56.5189
 30
0.0
 70
    32
  0
VERTEX
  5
489
330
46C
100
AcDbEntity
  8
0
100
AcDbVertex
100
AcDb3dPolylineVertex
 10
1.143799999999999
 20
56.4695
 30
0.0
 70
    32
  0
VERTEX
  5
48A
330
46C
100
AcDbEntity
  8
0
100
AcDbVertex
100
AcDb3dPolylineVertex
 10
1.264469999999999
 20
56.4209
 30
0.0
 70
    32
  0
VERTEX
  5
48B
330
46C
100
AcDbEntity
  8
0
100
AcDbVertex
100
AcDb3dPolylineVertex
 10
1.390639999999999
 20
56.37319999999999
 30
0.0
 70
    32
  0
VERTEX
  5
48C
330
46C
100
AcDbEntity
  8
0
100
AcDbVertex
100
AcDb3dPolylineVertex
 10
1.52222
 20
56.3264
 30
0.0
 70
    32
  0
VERTEX
  5
48D
330
46C
100
AcDbEntity
  8
0
100
AcDbVertex
100
AcDb3dPolylineVertex
 10
1.6591
 20
56.2806
 30
0.0
 70
    32
  0
VERTEX
  5
48E
330
46C
100
AcDbEntity
  8
0
100
AcDbVertex
100
AcDb3dPolylineVertex
 10
1.801159999999999
 20
56.2357
 30
0.0
 70
    32
  0
VERTEX
  5
48F
330
46C
100
AcDbEntity
  8
0
100
AcDbVertex
100
AcDb3dPolylineVertex
 10
1.94829
 20
56.19189999999999
 30
0.0
 70
    32
  0
VERTEX
  5
490
330
46C
100
AcDbEntity
  8
0
100
AcDbVertex
100
AcDb3dPolylineVertex
 10
2.100359999999999
 20
56.1492
 30
0.0
 70
    32
  0
VERTEX
  5
491
330
46C
100
AcDbEntity
  8
0
100
AcDbVertex
100
AcDb3dPolylineVertex
 10
2.25727
 20
56.10759999999999
 30
0.0
 70
    32
  0
VERTEX
  5
492
330
46C
100
AcDbEntity
  8
0
100
AcDbVertex
100
AcDb3dPolylineVertex
 10
2.41886
 20
56.0671
 30
0.0
 70
    32
  0
VERTEX
  5
493
330
46C
100
AcDbEntity
  8
0
100
AcDbVertex
100
AcDb3dPolylineVertex
 10
2.58502
 20
56.0278
 30
0.0
 70
    32
  0
VERTEX
  5
494
330
46C
100
AcDbEntity
  8
0
100
AcDbVertex
100
AcDb3dPolylineVertex
 10
2.755609999999999
 20
55.9897
 30
0.0
 70
    32
  0
VERTEX
  5
495
330
46C
100
AcDbEntity
  8
0
100
AcDbVertex
100
AcDb3dPolylineVertex
 10
2.93049
 20
55.9528
 30
0.0
 70
    32
  0
VERTEX
  5
496
330
46C
100
AcDbEntity
  8
0
100
AcDbVertex
100
AcDb3dPolylineVertex
 10
3.109509999999999
 20
55.9172
 30
0.0
 70
    32
  0
VERTEX
  5
497
330
46C
100
AcDbEntity
  8
0
100
AcDbVertex
100
AcDb3dPolylineVertex
 10
3.29254
 20
55.8829
 30
0.0
 70
    32
  0
VERTEX
  5
498
330
46C
100
AcDbEntity
  8
0
100
AcDbVertex
100
AcDb3dPolylineVertex
 10
3.479409999999999
 20
55.8499
 30
0.0
 70
    32
  0
VERTEX
  5
499
330
46C
100
AcDbEntity
  8
0
100
AcDbVertex
100
AcDb3dPolylineVertex
 10
3.669969999999999
 20
55.8183
 30
0.0
 70
    32
  0
VERTEX
  5
49A
330
46C
100
AcDbEntity
  8
0
100
AcDbVertex
100
AcDb3dPolylineVertex
 10
3.86408
 20
55.788
 30
0.0
 70
    32
  0
VERTEX
  5
49B
330
46C
100
AcDbEntity
  8
0
100
AcDbVertex
100
AcDb3dPolylineVertex
 10
4.061569999999999
 20
55.75919999999999
 30
0.0
 70
    32
  0
VERTEX
  5
49C
330
46C
100
AcDbEntity
  8
0
100
AcDbVertex
100
AcDb3dPolylineVertex
 10
4.26228
 20
55.7317
 30
0.0
 70
    32
  0
VERTEX
  5
49D
330
46C
100
AcDbEntity
  8
0
100
AcDbVertex
100
AcDb3dPolylineVertex
 10
4.46605
 20
55.7057
 30
0.0
 70
    32
  0
VERTEX
  5
49E
330
46C
100
AcDbEntity
  8
0
100
AcDbVertex
100
AcDb3dPolylineVertex
 10
4.672709999999999
 20
55.6812
 30
0.0
 70
    32
  0
VERTEX
  5
49F
330
46C
100
AcDbEntity
  8
0
100
AcDbVertex
100
AcDb3dPolylineVertex
 10
4.88208
 20
55.65809999999999
 30
0.0
 70
    32
  0
VERTEX
  5
4A0
330
46C
100
AcDbEntity
  8
0
100
AcDbVertex
100
AcDb3dPolylineVertex
 10
5.094009999999999
 20
55.6366
 30
0.0
 70
    32
  0
VERTEX
  5
4A1
330
46C
100
AcDbEntity
  8
0
100
AcDbVertex
100
AcDb3dPolylineVertex
 10
5.308309999999999
 20
55.61659999999999
 30
0.0
 70
    32
  0
VERTEX
  5
4A2
330
46C
100
AcDbEntity
  8
0
100
AcDbVertex
100
AcDb3dPolylineVertex
 10
5.52482
 20
55.5981
 30
0.0
 70
    32
  0
VERTEX
  5
4A3
330
46C
100
AcDbEntity
  8
0
100
AcDbVertex
100
AcDb3dPolylineVertex
 10
5.74335
 20
55.5812
 30
0.0
 70
    32
  0
VERTEX
  5
4A4
330
46C
100
AcDbEntity
  8
0
100
AcDbVertex
100
AcDb3dPolylineVertex
 10
5.963719999999999
 20
55.56589999999999
 30
0.0
 70
    32
  0
VERTEX
  5
4A5
330
46C
100
AcDbEntity
  8
0
100
AcDbVertex
100
AcDb3dPolylineVertex
 10
6.18576
 20
55.5521
 30
0.0
 70
    32
  0
VERTEX
  5
4A6
330
46C
100
AcDbEntity
  8
0
100
AcDbVertex
100
AcDb3dPolylineVertex
 10
6.409279999999999
 20
55.5399
 30
0.0
 70
    32
  0
VERTEX
  5
4A7
330
46C
100
AcDbEntity
  8
0
100
AcDbVertex
100
AcDb3dPolylineVertex
 10
6.6341
 20
55.5294
 30
0.0
 70
    32
  0
VERTEX
  5
4A8
330
46C
100
AcDbEntity
  8
0
100
AcDbVertex
100
AcDb3dPolylineVertex
 10
6.860039999999999
 20
55.5204
 30
0.0
 70
    32
  0
VERTEX
  5
4A9
330
46C
100
AcDbEntity
  8
0
100
AcDbVertex
100
AcDb3dPolylineVertex
 10
7.08691
 20
55.5131
 30
0.0
 70
    32
  0
VERTEX
  5
4AA
330
46C
100
AcDbEntity
  8
0
100
AcDbVertex
100
AcDb3dPolylineVertex
 10
7.31453
 20
55.5074
 30
0.0
 70
    32
  0
VERTEX
  5
4AB
330
46C
100
AcDbEntity
  8
0
100
AcDbVertex
100
AcDb3dPolylineVertex
 10
7.54271
 20
55.5033
 30
0.0
 70
    32
  0
VERTEX
  5
4AC
330
46C
100
AcDbEntity
  8
0
100
AcDbVertex
100
AcDb3dPolylineVertex
 10
7.77126
 20
55.5008
 30
0.0
 70
    32
  0
VERTEX
  5
4AD
330
46C
100
AcDbEntity
  8
0
100
AcDbVertex
100
AcDb3dPolylineVertex
 10
8.0
 20
55.5
 30
0.0
 70
    32
  0
VERTEX
  5
4AE
330
46C
100
AcDbEntity
  8
0
100
AcDbVertex
100
AcDb3dPolylineVertex
 10
8.22874
 20
55.5008
 30
0.0
 70
    32
  0
VERTEX
  5
4AF
330
46C
100
AcDbEntity
  8
0
100
AcDbVertex
100
AcDb3dPolylineVertex
 10
8.457289999999998
 20
55.5033
 30
0.0
 70
    32
  0
VERTEX
  5
4B0
330
46C
100
AcDbEntity
  8
0
100
AcDbVertex
100
AcDb3dPolylineVertex
 10
8.68547
 20
55.5074
 30
0.0
 70
    32
  0
VERTEX
  5
4B1
330
46C
100
AcDbEntity
  8
0
100
AcDbVertex
100
AcDb3dPolylineVertex
 10
8.913089999999998
 20
55.5131
 30
0.0
 70
    32
  0
VERTEX
  5
4B2
330
46C
100
AcDbEntity
  8
0
100
AcDbVertex
100
AcDb3dPolylineVertex
 10
9.13996
 20
55.5204
 30
0.0
 70
    32
  0
VERTEX
  5
4B3
330
46C
100
AcDbEntity
  8
0
100
AcDbVertex
100
AcDb3dPolylineVertex
 10
9.365899999999999
 20
55.5294
 30
0.0
 70
    32
  0
VERTEX
  5
4B4
330
46C
100
AcDbEntity
  8
0
100
AcDbVertex
100
AcDb3dPolylineVertex
 10
9.590719999999999
 20
55.5399
 30
0.0
 70
    32
  0
VERTEX
  5
4B5
330
46C
100
AcDbEntity
  8
0
100
AcDbVertex
100
AcDb3dPolylineVertex
 10
9.814239999999999
 20
55.5521
 30
0.0
 70
    32
  0
VERTEX
  5
4B6
330
46C
100
AcDbEntity
  8
0
100
AcDbVertex
100
AcDb3dPolylineVertex
 10
10.0363
 20
55.56589999999999
 30
0.0
 70
    32
  0
VERTEX
  5
4B7
330
46C
100
AcDbEntity
  8
0
100
AcDbVertex
100
AcDb3dPolylineVertex
 10
10.2567
 20
55.5812
 30
0.0
 70
    32
  0
VERTEX
  5
4B8
330
46C
100
AcDbEntity
  8
0
100
AcDbVertex
100
AcDb3dPolylineVertex
 10
10.4752
 20
55.5981
 30
0.0
 70
    32
  0
VERTEX
  5
4B9
330
46C
100
AcDbEntity
  8
0
100
AcDbVertex
100
AcDb3dPolylineVertex
 10
10.6917
 20
55.61659999999999
 30
0.0
 70
    32
  0
VERTEX
  5
4BA
330
46C
100
AcDbEntity
  8
0
100
AcDbVertex
100
AcDb3dPolylineVertex
 10
10.906
 20
55.6366
 30
0.0
 70
    32
  0
VERTEX
  5
4BB
330
46C
100
AcDbEntity
  8
0
100
AcDbVertex
100
AcDb3dPolylineVertex
 10
11.1179
 20
55.65809999999999
 30
0.0
 70
    32
  0
VERTEX
  5
4BC
330
46C
100
AcDbEntity
  8
0
100
AcDbVertex
100
AcDb3dPolylineVertex
 10
11.3273
 20
55.6812
 30
0.0
 70
    32
  0
VERTEX
  5
4BD
330
46C
100
AcDbEntity
  8
0
100
AcDbVertex
100
AcDb3dPolylineVertex
 10
11.53389999999999
 20
55.7057
 30
0.0
 70
    32
  0
VERTEX
  5
4BE
330
46C
100
AcDbEntity
  8
0
100
AcDbVertex
100
AcDb3dPolylineVertex
 10
11.73769999999999
 20
55.7317
 30
0.0
 70
    32
  0
VERTEX
  5
4BF
330
46C
100
AcDbEntity
  8
0
100
AcDbVertex
100
AcDb3dPolylineVertex
 10
11.9384
 20
55.75919999999999
 30
0.0
 70
    32
  0
VERTEX
  5
4C0
330
46C
100
AcDbEntity
  8
0
100
AcDbVertex
100
AcDb3dPolylineVertex
 10
12.13589999999999
 20
55.788
 30
0.0
 70
    32
  0
VERTEX
  5
4C1
330
46C
100
AcDbEntity
  8
0
100
AcDbVertex
100
AcDb3dPolylineVertex
 10
12.33
 20
55.8183
 30
0.0
 70
    32
  0
VERTEX
  5
4C2
330
46C
100
AcDbEntity
  8
0
100
AcDbVertex
100
AcDb3dPolylineVertex
 10
12.5206
 20
55.8499
 30
0.0
 70
    32
  0
VERTEX
  5
4C3
330
46C
100
AcDbEntity
  8
0
100
AcDbVertex
100
AcDb3dPolylineVertex
 10
12.7075
 20
55.8829
 30
0.0
 70
    32
  0
VERTEX
  5
4C4
330
46C
100
AcDbEntity
  8
0
100
AcDbVertex
100
AcDb3dPolylineVertex
 10
12.8905
 20
55.9172
 30
0.0
 70
    32
  0
VERTEX
  5
4C5
330
46C
100
AcDbEntity
  8
0
100
AcDbVertex
100
AcDb3dPolylineVertex
 10
13.0695
 20
55.9528
 30
0.0
 70
    32
  0
VERTEX
  5
4C6
330
46C
100
AcDbEntity
  8
0
100
AcDbVertex
100
AcDb3dPolylineVertex
 10
13.2444
 20
55.9897
 30
0.0
 70
    32
  0
VERTEX
  5
4C7
330
46C
100
AcDbEntity
  8
0
100
AcDbVertex
100
AcDb3dPolylineVertex
 10
13.41499999999999
 20
56.0278
 30
0.0
 70
    32
  0
VERTEX
  5
4C8
330
46C
100
AcDbEntity
  8
0
100
AcDbVertex
100
AcDb3dPolylineVertex
 10
13.58109999999999
 20
56.0671
 30
0.0
 70
    32
  0
VERTEX
  5
4C9
330
46C
100
AcDbEntity
  8
0
100
AcDbVertex
100
AcDb3dPolylineVertex
 10
13.7427
 20
56.10759999999999
 30
0.0
 70
    32
  0
VERTEX
  5
4CA
330
46C
100
AcDbEntity
  8
0
100
AcDbVertex
100
AcDb3dPolylineVertex
 10
13.8996
 20
56.1492
 30
0.0
 70
    32
  0
VERTEX
  5
4CB
330
46C
100
AcDbEntity
  8
0
100
AcDbVertex
100
AcDb3dPolylineVertex
 10
14.0517
 20
56.19189999999999
 30
0.0
 70
    32
  0
VERTEX
  5
4CC
330
46C
100
AcDbEntity
  8
0
100
AcDbVertex
100
AcDb3dPolylineVertex
 10
14.1988
 20
56.2357
 30
0.0
 70
    32
  0
VERTEX
  5
4CD
330
46C
100
AcDbEntity
  8
0
100
AcDbVertex
100
AcDb3dPolylineVertex
 10
14.3409
 20
56.2806
 30
0.0
 70
    32
  0
VERTEX
  5
4CE
330
46C
100
AcDbEntity
  8
0
100
AcDbVertex
100
AcDb3dPolylineVertex
 10
14.4778
 20
56.3264
 30
0.0
 70
    32
  0
VERTEX
  5
4CF
330
46C
100
AcDbEntity
  8
0
100
AcDbVertex
100
AcDb3dPolylineVertex
 10
14.6094
 20
56.37319999999999
 30
0.0
 70
    32
  0
VERTEX
  5
4D0
330
46C
100
AcDbEntity
  8
0
100
AcDbVertex
100
AcDb3dPolylineVertex
 10
14.7355
 20
56.4209
 30
0.0
 70
    32
  0
VERTEX
  5
4D1
330
46C
100
AcDbEntity
  8
0
100
AcDbVertex
100
AcDb3dPolylineVertex
 10
14.85619999999999
 20
56.4695
 30
0.0
 70
    32
  0
VERTEX
  5
4D2
330
46C
100
AcDbEntity
  8
0
100
AcDbVertex
100
AcDb3dPolylineVertex
 10
14.9713
 20
56.5189
 30
0.0
 70
    32
  0
VERTEX
  5
4D3
330
46C
100
AcDbEntity
  8
0
100
AcDbVertex
100
AcDb3dPolylineVertex
 10
15.0806
 20
56.56909999999999
 30
0.0
 70
    32
  0
VERTEX
  5
4D4
330
46C
100
AcDbEntity
  8
0
100
AcDbVertex
100
AcDb3dPolylineVertex
 10
15.1842
 20
56.6201
 30
0.0
 70
    32
  0
VERTEX
  5
4D5
330
46C
100
AcDbEntity
  8
0
100
AcDbVertex
100
AcDb3dPolylineVertex
 10
15.2819
 20
56.6718
 30
0.0
 70
    32
  0
VERTEX
  5
4D6
330
46C
100
AcDbEntity
  8
0
100
AcDbVertex
100
AcDb3dPolylineVertex
 10
15.3736
 20
56.7242
 30
0.0
 70
    32
  0
VERTEX
  5
4D7
330
46C
100
AcDbEntity
  8
0
100
AcDbVertex
100
AcDb3dPolylineVertex
 10
15.4593
 20
56.7772
 30
0.0
 70
    32
  0
VERTEX
  5
4D8
330
46C
100
AcDbEntity
  8
0
100
AcDbVertex
100
AcDb3dPolylineVertex
 10
15.539
 20
56.83089999999999
 30
0.0
 70
    32
  0
VERTEX
  5
4D9
330
46C
100
AcDbEntity
  8
0
100
AcDbVertex
100
AcDb3dPolylineVertex
 10
15.61239999999999
 20
56.885
 30
0.0
 70
    32
  0
VERTEX
  5
4DA
330
46C
100
AcDbEntity
  8
0
100
AcDbVertex
100
AcDb3dPolylineVertex
 10
15.6796
 20
56.9397
 30
0.0
 70
    32
  0
VERTEX
  5
4DB
330
46C
100
AcDbEntity
  8
0
100
AcDbVertex
100
AcDb3dPolylineVertex
 10
15.7406
 20
56.9948
 30
0.0
 70
    32
  0
VERTEX
  5
4DC
330
46C
100
AcDbEntity
  8
0
100
AcDbVertex
100
AcDb3dPolylineVertex
 10
15.7952
 20
57.0503
 30
0.0
 70
    32
  0
VERTEX
  5
4DD
330
46C
100
AcDbEntity
  8
0
100
AcDbVertex
100
AcDb3dPolylineVertex
 10
15.8434
 20
57.1062
 30
0.0
 70
    32
  0
VERTEX
  5
4DE
330
46C
100
AcDbEntity
  8
0
100
AcDbVertex
100
AcDb3dPolylineVertex
 10
15.8853
 20
57.1625
 30
0.0
 70
    32
  0
VERTEX
  5
4DF
330
46C
100
AcDbEntity
  8
0
100
AcDbVertex
100
AcDb3dPolylineVertex
 10
15.9206
 20
57.219
 30
0.0
 70
    32
  0
VERTEX
  5
4E0
330
46C
100
AcDbEntity
  8
0
100
AcDbVertex
100
AcDb3dPolylineVertex
 10
15.9495
 20
57.2757
 30
0.0
 70
    32
  0
VERTEX
  5
4E1
330
46C
100
AcDbEntity
  8
0
100
AcDbVertex
100
AcDb3dPolylineVertex
 10
15.9719
 20
57.3326
 30
0.0
 70
    32
  0
VERTEX
  5
4E2
330
46C
100
AcDbEntity
  8
0
100
AcDbVertex
100
AcDb3dPolylineVertex
 10
15.9878
 20
57.3897
 30
0.0
 70
    32
  0
VERTEX
  5
4E3
330
46C
100
AcDbEntity
  8
0
100
AcDbVertex
100
AcDb3dPolylineVertex
 10
15.9972
 20
57.4468
 30
0.0
 70
    32
  0
VERTEX
  5
4E4
330
46C
100
AcDbEntity
  8
0
100
AcDbVertex
100
AcDb3dPolylineVertex
 10
16.0
 20
57.50399999999999
 30
0.0
 70
    32
  0
VERTEX
  5
4E5
330
46C
100
AcDbEntity
  8
0
100
AcDbVertex
100
AcDb3dPolylineVertex
 10
15.9963
 20
57.5612
 30
0.0
 70
    32
  0
VERTEX
  5
4E6
330
46C
100
AcDbEntity
  8
0
100
AcDbVertex
100
AcDb3dPolylineVertex
 10
15.986
 20
57.61829999999999
 30
0.0
 70
    32
  0
VERTEX
  5
4E7
330
46C
100
AcDbEntity
  8
0
100
AcDbVertex
100
AcDb3dPolylineVertex
 10
15.9692
 20
57.6754
 30
0.0
 70
    32
  0
VERTEX
  5
4E8
330
46C
100
AcDbEntity
  8
0
100
AcDbVertex
100
AcDb3dPolylineVertex
 10
15.9459
 20
57.7323
 30
0.0
 70
    32
  0
VERTEX
  5
4E9
330
46C
100
AcDbEntity
  8
0
100
AcDbVertex
100
AcDb3dPolylineVertex
 10
15.9161
 20
57.789
 30
0.0
 70
    32
  0
VERTEX
  5
4EA
330
46C
100
AcDbEntity
  8
0
100
AcDbVertex
100
AcDb3dPolylineVertex
 10
15.87979999999999
 20
57.84539999999999
 30
0.0
 70
    32
  0
VERTEX
  5
4EB
330
46C
100
AcDbEntity
  8
0
100
AcDbVertex
100
AcDb3dPolylineVertex
 10
15.83709999999999
 20
57.9016
 30
0.0
 70
    32
  0
VERTEX
  5
4EC
330
46C
100
AcDbEntity
  8
0
100
AcDbVertex
100
AcDb3dPolylineVertex
 10
15.7879
 20
57.9575
 30
0.0
 70
    32
  0
VERTEX
  5
4ED
330
46C
100
AcDbEntity
  8
0
100
AcDbVertex
100
AcDb3dPolylineVertex
 10
15.7324
 20
58.0129
 30
0.0
 70
    32
  0
SEQEND
  5
4EE
330
46C
100
AcDbEntity
  8
0
  0
LINE
  5
4EF
330
455
100
AcDbEntity
  8
0
100
AcDbLine
 10
0.0
 20
38.5
 30
0.0
 11
0.0
 21
57.5
 31
0.0
  0
POLYLINE
  5
4F0
330
455
100
AcDbEntity
  8
0
100
AcDb3dPolyline
 66
     1
 10
0.0
 20
0.0
 30
0.0
 70
     8
  0
VERTEX
  5
4F1
330
4F0
100
AcDbEntity
  8
0
100
AcDbVertex
100
AcDb3dPolylineVertex
 10
0.0
 20
38.5
 30
0.0
 70
    32
  0
VERTEX
  5
4F2
330
4F0
100
AcDbEntity
  8
0
100
AcDbVertex
100
AcDb3dPolylineVertex
 10
0.00240945
 20
38.4543
 30
0.0
 70
    32
  0
VERTEX
  5
4F3
330
4F0
100
AcDbEntity
  8
0
100
AcDbVertex
100
AcDb3dPolylineVertex
 10
0.00963635
 20
38.40849999999999
 30
0.0
 70
    32
  0
VERTEX
  5
4F4
330
4F0
100
AcDbEntity
  8
0
100
AcDbVertex
100
AcDb3dPolylineVertex
 10
0.0216763
 20
38.3629
 30
0.0
 70
    32
  0
VERTEX
  5
4F5
330
4F0
100
AcDbEntity
  8
0
100
AcDbVertex
100
AcDb3dPolylineVertex
 10
0.0385222
 20
38.3173
 30
0.0
 70
    32
  0
VERTEX
  5
4F6
330
4F0
100
AcDbEntity
  8
0
100
AcDbVertex
100
AcDb3dPolylineVertex
 10
0.0601637
 20
38.2718
 30
0.0
 70
    32
  0
VERTEX
  5
4F7
330
4F0
100
AcDbEntity
  8
0
100
AcDbVertex
100
AcDb3dPolylineVertex
 10
0.0865879
 20
38.2265
 30
0.0
 70
    32
  0
VERTEX
  5
4F8
330
4F0
100
AcDbEntity
  8
0
100
AcDbVertex
100
AcDb3dPolylineVertex
 10
0.117779
 20
38.1813
 30
0.0
 70
    32
  0
VERTEX
  5
4F9
330
4F0
100
AcDbEntity
  8
0
100
AcDbVertex
100
AcDb3dPolylineVertex
 10
0.153718
 20
38.1364
 30
0.0
 70
    32
  0
VERTEX
  5
4FA
330
4F0
100
AcDbEntity
  8
0
100
AcDbVertex
100
AcDb3dPolylineVertex
 10
0.194383
 20
38.0916
 30
0.0
 70
    32
  0
VERTEX
  5
4FB
330
4F0
100
AcDbEntity
  8
0
100
AcDbVertex
100
AcDb3dPolylineVertex
 10
0.23975
 20
38.0471
 30
0.0
 70
    32
  0
VERTEX
  5
4FC
330
4F0
100
AcDbEntity
  8
0
100
AcDbVertex
100
AcDb3dPolylineVertex
 10
0.2897909999999999
 20
38.0028
 30
0.0
 70
    32
  0
VERTEX
  5
4FD
330
4F0
100
AcDbEntity
  8
0
100
AcDbVertex
100
AcDb3dPolylineVertex
 10
0.344477
 20
37.95889999999999
 30
0.0
 70
    32
  0
VERTEX
  5
4FE
330
4F0
100
AcDbEntity
  8
0
100
AcDbVertex
100
AcDb3dPolylineVertex
 10
0.403775
 20
37.9153
 30
0.0
 70
    32
  0
VERTEX
  5
4FF
330
4F0
100
AcDbEntity
  8
0
100
AcDbVertex
100
AcDb3dPolylineVertex
 10
0.4676470000000001
 20
37.872
 30
0.0
 70
    32
  0
VERTEX
  5
500
330
4F0
100
AcDbEntity
  8
0
100
AcDbVertex
100
AcDb3dPolylineVertex
 10
0.5360580000000001
 20
37.8292
 30
0.0
 70
    32
  0
VERTEX
  5
501
330
4F0
100
AcDbEntity
  8
0
100
AcDbVertex
100
AcDb3dPolylineVertex
 10
0.6089640000000001
 20
37.7867
 30
0.0
 70
    32
  0
VERTEX
  5
502
330
4F0
100
AcDbEntity
  8
0
100
AcDbVertex
100
AcDb3dPolylineVertex
 10
0.686322
 20
37.74459999999999
 30
0.0
 70
    32
  0
VERTEX
  5
503
330
4F0
100
AcDbEntity
  8
0
100
AcDbVertex
100
AcDb3dPolylineVertex
 10
0.768086
 20
37.703
 30
0.0
 70
    32
  0
VERTEX
  5
504
330
4F0
100
AcDbEntity
  8
0
100
AcDbVertex
100
AcDb3dPolylineVertex
 10
0.8542059999999999
 20
37.6619
 30
0.0
 70
    32
  0
VERTEX
  5
505
330
4F0
100
AcDbEntity
  8
0
100
AcDbVertex
100
AcDb3dPolylineVertex
 10
0.9446299999999999
 20
37.62129999999999
 30
0.0
 70
    32
  0
VERTEX
  5
506
330
4F0
100
AcDbEntity
  8
0
100
AcDbVertex
100
AcDb3dPolylineVertex
 10
1.039299999999999
 20
37.5812
 30
0.0
 70
    32
  0
VERTEX
  5
507
330
4F0
100
AcDbEntity
  8
0
100
AcDbVertex
100
AcDb3dPolylineVertex
 10
1.13817
 20
37.5417
 30
0.0
 70
    32
  0
VERTEX
  5
508
330
4F0
100
AcDbEntity
  8
0
100
AcDbVertex
100
AcDb3dPolylineVertex
 10
1.24117
 20
37.5028
 30
0.0
 70
    32
  0
VERTEX
  5
509
330
4F0
100
AcDbEntity
  8
0
100
AcDbVertex
100
AcDb3dPolylineVertex
 10
1.348239999999999
 20
37.46439999999999
 30
0.0
 70
    32
  0
VERTEX
  5
50A
330
4F0
100
AcDbEntity
  8
0
100
AcDbVertex
100
AcDb3dPolylineVertex
 10
1.45932
 20
37.42669999999999
 30
0.0
 70
    32
  0
VERTEX
  5
50B
330
4F0
100
AcDbEntity
  8
0
100
AcDbVertex
100
AcDb3dPolylineVertex
 10
1.57434
 20
37.3896
 30
0.0
 70
    32
  0
VERTEX
  5
50C
330
4F0
100
AcDbEntity
  8
0
100
AcDbVertex
100
AcDb3dPolylineVertex
 10
1.693229999999999
 20
37.3532
 30
0.0
 70
    32
  0
VERTEX
  5
50D
330
4F0
100
AcDbEntity
  8
0
100
AcDbVertex
100
AcDb3dPolylineVertex
 10
1.81592
 20
37.3175
 30
0.0
 70
    32
  0
VERTEX
  5
50E
330
4F0
100
AcDbEntity
  8
0
100
AcDbVertex
100
AcDb3dPolylineVertex
 10
1.942329999999999
 20
37.2825
 30
0.0
 70
    32
  0
VERTEX
  5
50F
330
4F0
100
AcDbEntity
  8
0
100
AcDbVertex
100
AcDb3dPolylineVertex
 10
2.072389999999999
 20
37.24819999999999
 30
0.0
 70
    32
  0
VERTEX
  5
510
330
4F0
100
AcDbEntity
  8
0
100
AcDbVertex
100
AcDb3dPolylineVertex
 10
2.20602
 20
37.2147
 30
0.0
 70
    32
  0
VERTEX
  5
511
330
4F0
100
AcDbEntity
  8
0
100
AcDbVertex
100
AcDb3dPolylineVertex
 10
2.34315
 20
37.182
 30
0.0
 70
    32
  0
VERTEX
  5
512
330
4F0
100
AcDbEntity
  8
0
100
AcDbVertex
100
AcDb3dPolylineVertex
 10
2.48368
 20
37.14999999999999
 30
0.0
 70
    32
  0
VERTEX
  5
513
330
4F0
100
AcDbEntity
  8
0
100
AcDbVertex
100
AcDb3dPolylineVertex
 10
2.62753
 20
37.11889999999999
 30
0.0
 70
    32
  0
VERTEX
  5
514
330
4F0
100
AcDbEntity
  8
0
100
AcDbVertex
100
AcDb3dPolylineVertex
 10
2.77462
 20
37.0886
 30
0.0
 70
    32
  0
VERTEX
  5
515
330
4F0
100
AcDbEntity
  8
0
100
AcDbVertex
100
AcDb3dPolylineVertex
 10
2.92485
 20
37.0591
 30
0.0
 70
    32
  0
VERTEX
  5
516
330
4F0
100
AcDbEntity
  8
0
100
AcDbVertex
100
AcDb3dPolylineVertex
 10
3.078149999999999
 20
37.0305
 30
0.0
 70
    32
  0
VERTEX
  5
517
330
4F0
100
AcDbEntity
  8
0
100
AcDbVertex
100
AcDb3dPolylineVertex
 10
3.23441
 20
37.0028
 30
0.0
 70
    32
  0
VERTEX
  5
518
330
4F0
100
AcDbEntity
  8
0
100
AcDbVertex
100
AcDb3dPolylineVertex
 10
3.39353
 20
36.97599999999999
 30
0.0
 70
    32
  0
VERTEX
  5
519
330
4F0
100
AcDbEntity
  8
0
100
AcDbVertex
100
AcDb3dPolylineVertex
 10
3.555439999999999
 20
36.95009999999999
 30
0.0
 70
    32
  0
VERTEX
  5
51A
330
4F0
100
AcDbEntity
  8
0
100
AcDbVertex
100
AcDb3dPolylineVertex
 10
3.720019999999999
 20
36.9252
 30
0.0
 70
    32
  0
VERTEX
  5
51B
330
4F0
100
AcDbEntity
  8
0
100
AcDbVertex
100
AcDb3dPolylineVertex
 10
3.88718
 20
36.9012
 30
0.0
 70
    32
  0
VERTEX
  5
51C
330
4F0
100
AcDbEntity
  8
0
100
AcDbVertex
100
AcDb3dPolylineVertex
 10
4.056809999999999
 20
36.8782
 30
0.0
 70
    32
  0
VERTEX
  5
51D
330
4F0
100
AcDbEntity
  8
0
100
AcDbVertex
100
AcDb3dPolylineVertex
 10
4.22883
 20
36.8561
 30
0.0
 70
    32
  0
VERTEX
  5
51E
330
4F0
100
AcDbEntity
  8
0
100
AcDbVertex
100
AcDb3dPolylineVertex
 10
4.403109999999999
 20
36.835
 30
0.0
 70
    32
  0
VERTEX
  5
51F
330
4F0
100
AcDbEntity
  8
0
100
AcDbVertex
100
AcDb3dPolylineVertex
 10
4.579559999999999
 20
36.81499999999999
 30
0.0
 70
    32
  0
VERTEX
  5
520
330
4F0
100
AcDbEntity
  8
0
100
AcDbVertex
100
AcDb3dPolylineVertex
 10
4.75807
 20
36.7959
 30
0.0
 70
    32
  0
VERTEX
  5
521
330
4F0
100
AcDbEntity
  8
0
100
AcDbVertex
100
AcDb3dPolylineVertex
 10
4.93853
 20
36.7779
 30
0.0
 70
    32
  0
VERTEX
  5
522
330
4F0
100
AcDbEntity
  8
0
100
AcDbVertex
100
AcDb3dPolylineVertex
 10
5.12084
 20
36.7609
 30
0.0
 70
    32
  0
VERTEX
  5
523
330
4F0
100
AcDbEntity
  8
0
100
AcDbVertex
100
AcDb3dPolylineVertex
 10
5.30488
 20
36.745
 30
0.0
 70
    32
  0
VERTEX
  5
524
330
4F0
100
AcDbEntity
  8
0
100
AcDbVertex
100
AcDb3dPolylineVertex
 10
5.490549999999999
 20
36.7301
 30
0.0
 70
    32
  0
VERTEX
  5
525
330
4F0
100
AcDbEntity
  8
0
100
AcDbVertex
100
AcDb3dPolylineVertex
 10
5.677719999999999
 20
36.71629999999999
 30
0.0
 70
    32
  0
VERTEX
  5
526
330
4F0
100
AcDbEntity
  8
0
100
AcDbVertex
100
AcDb3dPolylineVertex
 10
5.866299999999999
 20
36.7035
 30
0.0
 70
    32
  0
VERTEX
  5
527
330
4F0
100
AcDbEntity
  8
0
100
AcDbVertex
100
AcDb3dPolylineVertex
 10
6.05616
 20
36.69189999999999
 30
0.0
 70
    32
  0
VERTEX
  5
528
330
4F0
100
AcDbEntity
  8
0
100
AcDbVertex
100
AcDb3dPolylineVertex
 10
6.247189999999999
 20
36.6813
 30
0.0
 70
    32
  0
VERTEX
  5
529
330
4F0
100
AcDbEntity
  8
0
100
AcDbVertex
100
AcDb3dPolylineVertex
 10
6.43928
 20
36.6718
 30
0.0
 70
    32
  0
VERTEX
  5
52A
330
4F0
100
AcDbEntity
  8
0
100
AcDbVertex
100
AcDb3dPolylineVertex
 10
6.632299999999999
 20
36.6634
 30
0.0
 70
    32
  0
VERTEX
  5
52B
330
4F0
100
AcDbEntity
  8
0
100
AcDbVertex
100
AcDb3dPolylineVertex
 10
6.82616
 20
36.6562
 30
0.0
 70
    32
  0
VERTEX
  5
52C
330
4F0
100
AcDbEntity
  8
0
100
AcDbVertex
100
AcDb3dPolylineVertex
 10
7.02071
 20
36.65
 30
0.0
 70
    32
  0
VERTEX
  5
52D
330
4F0
100
AcDbEntity
  8
0
100
AcDbVertex
100
AcDb3dPolylineVertex
 10
7.21586
 20
36.645
 30
0.0
 70
    32
  0
VERTEX
  5
52E
330
4F0
100
AcDbEntity
  8
0
100
AcDbVertex
100
AcDb3dPolylineVertex
 10
7.41148
 20
36.6411
 30
0.0
 70
    32
  0
VERTEX
  5
52F
330
4F0
100
AcDbEntity
  8
0
100
AcDbVertex
100
AcDb3dPolylineVertex
 10
7.60746
 20
36.63819999999999
 30
0.0
 70
    32
  0
VERTEX
  5
530
330
4F0
100
AcDbEntity
  8
0
100
AcDbVertex
100
AcDb3dPolylineVertex
 10
7.803669999999999
 20
36.6366
 30
0.0
 70
    32
  0
VERTEX
  5
531
330
4F0
100
AcDbEntity
  8
0
100
AcDbVertex
100
AcDb3dPolylineVertex
 10
8.0
 20
36.636
 30
0.0
 70
    32
  0
VERTEX
  5
532
330
4F0
100
AcDbEntity
  8
0
100
AcDbVertex
100
AcDb3dPolylineVertex
 10
8.196329999999999
 20
36.6366
 30
0.0
 70
    32
  0
VERTEX
  5
533
330
4F0
100
AcDbEntity
  8
0
100
AcDbVertex
100
AcDb3dPolylineVertex
 10
8.392539999999998
 20
36.63819999999999
 30
0.0
 70
    32
  0
VERTEX
  5
534
330
4F0
100
AcDbEntity
  8
0
100
AcDbVertex
100
AcDb3dPolylineVertex
 10
8.588519999999999
 20
36.6411
 30
0.0
 70
    32
  0
VERTEX
  5
535
330
4F0
100
AcDbEntity
  8
0
100
AcDbVertex
100
AcDb3dPolylineVertex
 10
8.784139999999998
 20
36.645
 30
0.0
 70
    32
  0
VERTEX
  5
536
330
4F0
100
AcDbEntity
  8
0
100
AcDbVertex
100
AcDb3dPolylineVertex
 10
8.979289999999998
 20
36.65
 30
0.0
 70
    32
  0
VERTEX
  5
537
330
4F0
100
AcDbEntity
  8
0
100
AcDbVertex
100
AcDb3dPolylineVertex
 10
9.17384
 20
36.6562
 30
0.0
 70
    32
  0
VERTEX
  5
538
330
4F0
100
AcDbEntity
  8
0
100
AcDbVertex
100
AcDb3dPolylineVertex
 10
9.367699999999999
 20
36.6634
 30
0.0
 70
    32
  0
VERTEX
  5
539
330
4F0
100
AcDbEntity
  8
0
100
AcDbVertex
100
AcDb3dPolylineVertex
 10
9.560719999999999
 20
36.6718
 30
0.0
 70
    32
  0
VERTEX
  5
53A
330
4F0
100
AcDbEntity
  8
0
100
AcDbVertex
100
AcDb3dPolylineVertex
 10
9.75281
 20
36.6813
 30
0.0
 70
    32
  0
VERTEX
  5
53B
330
4F0
100
AcDbEntity
  8
0
100
AcDbVertex
100
AcDb3dPolylineVertex
 10
9.943839999999999
 20
36.69189999999999
 30
0.0
 70
    32
  0
VERTEX
  5
53C
330
4F0
100
AcDbEntity
  8
0
100
AcDbVertex
100
AcDb3dPolylineVertex
 10
10.13369999999999
 20
36.7035
 30
0.0
 70
    32
  0
VERTEX
  5
53D
330
4F0
100
AcDbEntity
  8
0
100
AcDbVertex
100
AcDb3dPolylineVertex
 10
10.32229999999999
 20
36.71629999999999
 30
0.0
 70
    32
  0
VERTEX
  5
53E
330
4F0
100
AcDbEntity
  8
0
100
AcDbVertex
100
AcDb3dPolylineVertex
 10
10.5095
 20
36.7301
 30
0.0
 70
    32
  0
VERTEX
  5
53F
330
4F0
100
AcDbEntity
  8
0
100
AcDbVertex
100
AcDb3dPolylineVertex
 10
10.69509999999999
 20
36.745
 30
0.0
 70
    32
  0
VERTEX
  5
540
330
4F0
100
AcDbEntity
  8
0
100
AcDbVertex
100
AcDb3dPolylineVertex
 10
10.8792
 20
36.7609
 30
0.0
 70
    32
  0
VERTEX
  5
541
330
4F0
100
AcDbEntity
  8
0
100
AcDbVertex
100
AcDb3dPolylineVertex
 10
11.0615
 20
36.7779
 30
0.0
 70
    32
  0
VERTEX
  5
542
330
4F0
100
AcDbEntity
  8
0
100
AcDbVertex
100
AcDb3dPolylineVertex
 10
11.2419
 20
36.7959
 30
0.0
 70
    32
  0
VERTEX
  5
543
330
4F0
100
AcDbEntity
  8
0
100
AcDbVertex
100
AcDb3dPolylineVertex
 10
11.4204
 20
36.81499999999999
 30
0.0
 70
    32
  0
VERTEX
  5
544
330
4F0
100
AcDbEntity
  8
0
100
AcDbVertex
100
AcDb3dPolylineVertex
 10
11.5969
 20
36.835
 30
0.0
 70
    32
  0
VERTEX
  5
545
330
4F0
100
AcDbEntity
  8
0
100
AcDbVertex
100
AcDb3dPolylineVertex
 10
11.7712
 20
36.8561
 30
0.0
 70
    32
  0
VERTEX
  5
546
330
4F0
100
AcDbEntity
  8
0
100
AcDbVertex
100
AcDb3dPolylineVertex
 10
11.9432
 20
36.8782
 30
0.0
 70
    32
  0
VERTEX
  5
547
330
4F0
100
AcDbEntity
  8
0
100
AcDbVertex
100
AcDb3dPolylineVertex
 10
12.1128
 20
36.9012
 30
0.0
 70
    32
  0
VERTEX
  5
548
330
4F0
100
AcDbEntity
  8
0
100
AcDbVertex
100
AcDb3dPolylineVertex
 10
12.27999999999999
 20
36.9252
 30
0.0
 70
    32
  0
VERTEX
  5
549
330
4F0
100
AcDbEntity
  8
0
100
AcDbVertex
100
AcDb3dPolylineVertex
 10
12.4446
 20
36.95009999999999
 30
0.0
 70
    32
  0
VERTEX
  5
54A
330
4F0
100
AcDbEntity
  8
0
100
AcDbVertex
100
AcDb3dPolylineVertex
 10
12.6065
 20
36.97599999999999
 30
0.0
 70
    32
  0
VERTEX
  5
54B
330
4F0
100
AcDbEntity
  8
0
100
AcDbVertex
100
AcDb3dPolylineVertex
 10
12.76559999999999
 20
37.0028
 30
0.0
 70
    32
  0
VERTEX
  5
54C
330
4F0
100
AcDbEntity
  8
0
100
AcDbVertex
100
AcDb3dPolylineVertex
 10
12.9219
 20
37.0305
 30
0.0
 70
    32
  0
VERTEX
  5
54D
330
4F0
100
AcDbEntity
  8
0
100
AcDbVertex
100
AcDb3dPolylineVertex
 10
13.0751
 20
37.0591
 30
0.0
 70
    32
  0
VERTEX
  5
54E
330
4F0
100
AcDbEntity
  8
0
100
AcDbVertex
100
AcDb3dPolylineVertex
 10
13.2254
 20
37.0886
 30
0.0
 70
    32
  0
VERTEX
  5
54F
330
4F0
100
AcDbEntity
  8
0
100
AcDbVertex
100
AcDb3dPolylineVertex
 10
13.3725
 20
37.11889999999999
 30
0.0
 70
    32
  0
VERTEX
  5
550
330
4F0
100
AcDbEntity
  8
0
100
AcDbVertex
100
AcDb3dPolylineVertex
 10
13.5163
 20
37.14999999999999
 30
0.0
 70
    32
  0
VERTEX
  5
551
330
4F0
100
AcDbEntity
  8
0
100
AcDbVertex
100
AcDb3dPolylineVertex
 10
13.6569
 20
37.182
 30
0.0
 70
    32
  0
VERTEX
  5
552
330
4F0
100
AcDbEntity
  8
0
100
AcDbVertex
100
AcDb3dPolylineVertex
 10
13.794
 20
37.2147
 30
0.0
 70
    32
  0
VERTEX
  5
553
330
4F0
100
AcDbEntity
  8
0
100
AcDbVertex
100
AcDb3dPolylineVertex
 10
13.92759999999999
 20
37.24819999999999
 30
0.0
 70
    32
  0
VERTEX
  5
554
330
4F0
100
AcDbEntity
  8
0
100
AcDbVertex
100
AcDb3dPolylineVertex
 10
14.0577
 20
37.2825
 30
0.0
 70
    32
  0
VERTEX
  5
555
330
4F0
100
AcDbEntity
  8
0
100
AcDbVertex
100
AcDb3dPolylineVertex
 10
14.1841
 20
37.3175
 30
0.0
 70
    32
  0
VERTEX
  5
556
330
4F0
100
AcDbEntity
  8
0
100
AcDbVertex
100
AcDb3dPolylineVertex
 10
14.3068
 20
37.3532
 30
0.0
 70
    32
  0
VERTEX
  5
557
330
4F0
100
AcDbEntity
  8
0
100
AcDbVertex
100
AcDb3dPolylineVertex
 10
14.4257
 20
37.3896
 30
0.0
 70
    32
  0
VERTEX
  5
558
330
4F0
100
AcDbEntity
  8
0
100
AcDbVertex
100
AcDb3dPolylineVertex
 10
14.54069999999999
 20
37.42669999999999
 30
0.0
 70
    32
  0
VERTEX
  5
559
330
4F0
100
AcDbEntity
  8
0
100
AcDbVertex
100
AcDb3dPolylineVertex
 10
14.6518
 20
37.46439999999999
 30
0.0
 70
    32
  0
VERTEX
  5
55A
330
4F0
100
AcDbEntity
  8
0
100
AcDbVertex
100
AcDb3dPolylineVertex
 10
14.7588
 20
37.5028
 30
0.0
 70
    32
  0
VERTEX
  5
55B
330
4F0
100
AcDbEntity
  8
0
100
AcDbVertex
100
AcDb3dPolylineVertex
 10
14.8618
 20
37.5417
 30
0.0
 70
    32
  0
VERTEX
  5
55C
330
4F0
100
AcDbEntity
  8
0
100
AcDbVertex
100
AcDb3dPolylineVertex
 10
14.9607
 20
37.5812
 30
0.0
 70
    32
  0
VERTEX
  5
55D
330
4F0
100
AcDbEntity
  8
0
100
AcDbVertex
100
AcDb3dPolylineVertex
 10
15.0554
 20
37.62129999999999
 30
0.0
 70
    32
  0
VERTEX
  5
55E
330
4F0
100
AcDbEntity
  8
0
100
AcDbVertex
100
AcDb3dPolylineVertex
 10
15.1458
 20
37.6619
 30
0.0
 70
    32
  0
VERTEX
  5
55F
330
4F0
100
AcDbEntity
  8
0
100
AcDbVertex
100
AcDb3dPolylineVertex
 10
15.2319
 20
37.703
 30
0.0
 70
    32
  0
VERTEX
  5
560
330
4F0
100
AcDbEntity
  8
0
100
AcDbVertex
100
AcDb3dPolylineVertex
 10
15.3137
 20
37.74459999999999
 30
0.0
 70
    32
  0
VERTEX
  5
561
330
4F0
100
AcDbEntity
  8
0
100
AcDbVertex
100
AcDb3dPolylineVertex
 10
15.391
 20
37.7867
 30
0.0
 70
    32
  0
VERTEX
  5
562
330
4F0
100
AcDbEntity
  8
0
100
AcDbVertex
100
AcDb3dPolylineVertex
 10
15.4639
 20
37.8292
 30
0.0
 70
    32
  0
VERTEX
  5
563
330
4F0
100
AcDbEntity
  8
0
100
AcDbVertex
100
AcDb3dPolylineVertex
 10
15.5324
 20
37.872
 30
0.0
 70
    32
  0
VERTEX
  5
564
330
4F0
100
AcDbEntity
  8
0
100
AcDbVertex
100
AcDb3dPolylineVertex
 10
15.59619999999999
 20
37.9153
 30
0.0
 70
    32
  0
VERTEX
  5
565
330
4F0
100
AcDbEntity
  8
0
100
AcDbVertex
100
AcDb3dPolylineVertex
 10
15.65549999999999
 20
37.95889999999999
 30
0.0
 70
    32
  0
VERTEX
  5
566
330
4F0
100
AcDbEntity
  8
0
100
AcDbVertex
100
AcDb3dPolylineVertex
 10
15.7102
 20
38.0028
 30
0.0
 70
    32
  0
VERTEX
  5
567
330
4F0
100
AcDbEntity
  8
0
100
AcDbVertex
100
AcDb3dPolylineVertex
 10
15.7603
 20
38.0471
 30
0.0
 70
    32
  0
VERTEX
  5
568
330
4F0
100
AcDbEntity
  8
0
100
AcDbVertex
100
AcDb3dPolylineVertex
 10
15.8056
 20
38.0916
 30
0.0
 70
    32
  0
VERTEX
  5
569
330
4F0
100
AcDbEntity
  8
0
100
AcDbVertex
100
AcDb3dPolylineVertex
 10
15.84629999999999
 20
38.1364
 30
0.0
 70
    32
  0
VERTEX
  5
56A
330
4F0
100
AcDbEntity
  8
0
100
AcDbVertex
100
AcDb3dPolylineVertex
 10
15.88219999999999
 20
38.1813
 30
0.0
 70
    32
  0
VERTEX
  5
56B
330
4F0
100
AcDbEntity
  8
0
100
AcDbVertex
100
AcDb3dPolylineVertex
 10
15.91339999999999
 20
38.2265
 30
0.0
 70
    32
  0
VERTEX
  5
56C
330
4F0
100
AcDbEntity
  8
0
100
AcDbVertex
100
AcDb3dPolylineVertex
 10
15.9398
 20
38.2718
 30
0.0
 70
    32
  0
VERTEX
  5
56D
330
4F0
100
AcDbEntity
  8
0
100
AcDbVertex
100
AcDb3dPolylineVertex
 10
15.96149999999999
 20
38.3173
 30
0.0
 70
    32
  0
VERTEX
  5
56E
330
4F0
100
AcDbEntity
  8
0
100
AcDbVertex
100
AcDb3dPolylineVertex
 10
15.9783
 20
38.3629
 30
0.0
 70
    32
  0
VERTEX
  5
56F
330
4F0
100
AcDbEntity
  8
0
100
AcDbVertex
100
AcDb3dPolylineVertex
 10
15.9904
 20
38.40849999999999
 30
0.0
 70
    32
  0
VERTEX
  5
570
330
4F0
100
AcDbEntity
  8
0
100
AcDbVertex
100
AcDb3dPolylineVertex
 10
15.9976
 20
38.4543
 30
0.0
 70
    32
  0
VERTEX
  5
571
330
4F0
100
AcDbEntity
  8
0
100
AcDbVertex
100
AcDb3dPolylineVertex
 10
16.0
 20
38.5
 30
0.0
 70
    32
  0
SEQEND
  5
572
330
4F0
100
AcDbEntity
  8
0
  0
LINE
  5
573
330
455
100
AcDbEntity
  8
0
100
AcDbLine
 10
2.029365
 20
56.16884599999999
 30
0.0
 11
2.0
 21
56.0
 31
0.0
  0
LINE
  5
574
330
455
100
AcDbEntity
  8
0
100
AcDbLine
 10
13.970635
 20
56.16884599999999
 30
0.0
 11
14.0
 21
56.0
 31
0.0
  0
LINE
  5
575
330
455
100
AcDbEntity
  8
0
100
AcDbLine
 10
8.0
 20
60.0
 30
0.0
 11
11.5
 21
60.0
 31
0.0
  0
ARC
  5
576
330
455
100
AcDbEntity
  8
0
100
AcDbCircle
 10
8.0
 20
62.916667
 30
0.0
 40
6.083333
100
AcDbArc
 50
48.88791
 51
131.1120899999999
  0
LINE
  5
577
330
455
100
AcDbEntity
  8
0
100
AcDbLine
 10
4.0
 20
67.5
 30
0.0
 11
2.514031999999999
 21
58.95568199999999
 31
0.0
  0
ARC
  5
578
330
455
100
AcDbEntity
  8
0
100
AcDbCircle
 10
4.5
 20
59.5
 30
0.0
 40
0.5
100
AcDbArc
 50
90.0
 51
180.0
  0
LINE
  5
579
330
455
100
AcDbEntity
  8
0
100
AcDbLine
 10
4.0
 20
59.5
 30
0.0
 11
4.0
 21
57.5
 31
0.0
  0
LINE
  5
57A
330
455
100
AcDbEntity
  8
0
100
AcDbLine
 10
8.0
 20
60.0
 30
0.0
 11
4.5
 21
60.0
 31
0.0
  0
LINE
  5
57B
330
455
100
AcDbEntity
  8
0
100
AcDbLine
 10
12.0
 20
67.5
 30
0.0
 11
13.485968
 21
58.95568199999999
 31
0.0
  0
ARC
  5
57C
330
455
100
AcDbEntity
  8
0
100
AcDbCircle
 10
11.5
 20
59.5
 30
0.0
 40
0.5
100
AcDbArc
 50
0.0
 51
90.0
  0
LINE
  5
57D
330
455
100
AcDbEntity
  8
0
100
AcDbLine
 10
12.0
 20
59.5
 30
0.0
 11
12.0
 21
57.5
 31
0.0
  0
LINE
  5
57E
330
455
100
AcDbEntity
  8
0
100
AcDbLine
 10
54.0
 20
54.734191
 30
0.0
 11
54.0
 21
38.004234
 31
0.0
  0
ARC
  5
57F
330
455
100
AcDbEntity
  8
0
100
AcDbCircle
 10
55.0
 20
54.734191
 30
0.0
 40
1.0
100
AcDbArc
 50
105.1095749999999
 51
180.0
  0
LINE
  5
580
330
455
100
AcDbEntity
  8
1
100
AcDbLine
 10
62.0
 20
63.0
 30
0.0
 11
62.0
 21
0.0
 31
0.0
  0
LINE
  5
581
330
455
100
AcDbEntity
  8
0
100
AcDbLine
 10
68.0
 20
33.5
 30
0.0
 11
68.0
 21
40.46249999999999
 31
0.0
  0
LINE
  5
582
330
455
100
AcDbEntity
  8
0
100
AcDbLine
 10
56.0
 20
33.5
 30
0.0
 11
56.0
 21
37.23749999999999
 31
0.0
  0
LINE
  5
583
330
455
100
AcDbEntity
  8
0
100
AcDbLine
 10
59.0
 20
33.5
 30
0.0
 11
59.0
 21
4.0
 31
0.0
  0
LINE
  5
584
330
455
100
AcDbEntity
  8
0
100
AcDbLine
 10
59.5
 20
3.5
 30
0.0
 11
59.5
 21
32.5
 31
0.0
  0
LINE
  5
585
330
455
100
AcDbEntity
  8
0
100
AcDbLine
 10
64.5
 20
3.5
 30
0.0
 11
64.5
 21
32.5
 31
0.0
  0
LINE
  5
586
330
455
100
AcDbEntity
  8
0
100
AcDbLine
 10
65.0
 20
33.5
 30
0.0
 11
65.0
 21
4.0
 31
0.0
  0
LINE
  5
587
330
455
100
AcDbEntity
  8
0
100
AcDbLine
 10
64.5
 20
3.5
 30
0.0
 11
62.0
 21
3.5
 31
0.0
  0
LINE
  5
588
330
455
100
AcDbEntity
  8
0
100
AcDbLine
 10
65.0
 20
4.0
 30
0.0
 11
62.0
 21
4.0
 31
0.0
  0
LINE
  5
589
330
455
100
AcDbEntity
  8
0
100
AcDbLine
 10
59.5
 20
3.5
 30
0.0
 11
62.0
 21
3.5
 31
0.0
  0
LINE
  5
58A
330
455
100
AcDbEntity
  8
0
100
AcDbLine
 10
59.0
 20
4.0
 30
0.0
 11
62.0
 21
4.0
 31
0.0
  0
LINE
  5
58B
330
455
100
AcDbEntity
  8
0
100
AcDbLine
 10
59.0
 20
4.0
 30
0.0
 11
59.5
 21
3.5
 31
0.0
  0
LINE
  5
58C
330
455
100
AcDbEntity
  8
0
100
AcDbLine
 10
65.0
 20
4.0
 30
0.0
 11
64.5
 21
3.5
 31
0.0
  0
LINE
  5
58D
330
455
100
AcDbEntity
  8
0
100
AcDbLine
 10
65.0
 20
32.5
 30
0.0
 11
62.0
 21
32.5
 31
0.0
  0
LINE
  5
58E
330
455
100
AcDbEntity
  8
0
100
AcDbLine
 10
62.0
 20
33.5
 30
0.0
 11
68.0
 21
33.5
 31
0.0
  0
LINE
  5
58F
330
455
100
AcDbEntity
  8
0
100
AcDbLine
 10
62.0
 20
33.5
 30
0.0
 11
56.0
 21
33.5
 31
0.0
  0
LINE
  5
590
330
455
100
AcDbEntity
  8
0
100
AcDbLine
 10
59.0
 20
32.5
 30
0.0
 11
62.0
 21
32.5
 31
0.0
  0
LINE
  5
591
330
455
100
AcDbEntity
  8
0
100
AcDbLine
 10
91.5
 20
57.0
 30
0.0
 11
68.0
 21
50.0
 31
0.0
  0
LINE
  5
592
330
455
100
AcDbEntity
  8
0
100
AcDbLine
 10
68.0
 20
50.0
 30
0.0
 11
68.0
 21
59.28
 31
0.0
  0
LINE
  5
593
330
455
100
AcDbEntity
  8
0
100
AcDbLine
 10
58.0
 20
56.58
 30
0.0
 11
58.0
 21
59.5
 31
0.0
  0
LINE
  5
594
330
455
100
AcDbEntity
  8
0
100
AcDbLine
 10
70.0
 20
41.766734
 30
0.0
 11
70.0
 21
50.595745
 31
0.0
  0
LINE
  5
595
330
455
100
AcDbEntity
  8
0
100
AcDbLine
 10
69.25954
 20
40.801001
 30
0.0
 11
55.25954
 21
37.038501
 31
0.0
  0
ARC
  5
596
330
455
100
AcDbEntity
  8
0
100
AcDbCircle
 10
69.0
 20
41.766734
 30
0.0
 40
1.0
100
AcDbArc
 50
285.0428009999999
 51
0.0
  0
LINE
  5
597
330
455
100
AcDbEntity
  8
0
100
AcDbLine
 10
58.5
 20
60.0
 30
0.0
 11
65.5
 21
60.0
 31
0.0
  0
ARC
  5
598
330
455
100
AcDbEntity
  8
0
100
AcDbCircle
 10
58.5
 20
59.5
 30
0.0
 40
0.5
100
AcDbArc
 50
90.0
 51
180.0
  0
ARC
  5
599
330
455
100
AcDbEntity
  8
0
100
AcDbCircle
 10
65.5
 20
59.5
 30
0.0
 40
0.5
100
AcDbArc
 50
0.0
 51
90.0
  0
LINE
  5
59A
330
455
100
AcDbEntity
  8
0
100
AcDbLine
 10
66.0
 20
59.5
 30
0.0
 11
66.0
 21
58.74
 31
0.0
  0
LINE
  5
59B
330
455
100
AcDbEntity
  8
0
100
AcDbLine
 10
103.2524219999999
 20
58.80498000000001
 30
0.0
 11
93.05439399999999
 21
56.144624
 31
0.0
  0
ARC
  5
59C
330
455
100
AcDbEntity
  8
0
100
AcDbCircle
 10
92.80197199999999
 20
57.112242
 30
0.0
 40
1.0
100
AcDbArc
 50
225.0
 51
284.620874
  0
LINE
  5
59D
330
455
100
AcDbEntity
  8
0
100
AcDbLine
 10
92.094865
 20
56.40513499999999
 30
0.0
 11
91.5
 21
57.0
 31
0.0
  0
ARC
  5
59E
330
455
100
AcDbEntity
  8
0
100
AcDbCircle
 10
103.0
 20
67.694191
 30
0.0
 40
1.0
100
AcDbArc
 50
0.0
 51
105.1095749999999
  0
LINE
  5
59F
330
455
100
AcDbEntity
  8
0
100
AcDbLine
 10
104.0
 20
67.694191
 30
0.0
 11
104.0
 21
59.772597
 31
0.0
  0
ARC
  5
5A0
330
455
100
AcDbEntity
  8
0
100
AcDbCircle
 10
103.0
 20
59.772597
 30
0.0
 40
1.0
100
AcDbArc
 50
284.620874
 51
0.0
  0
ENDBLK
  5
5A1
330
455
100
AcDbEntity
  8
0
100
AcDbBlockEnd
  0
BLOCK
  5
81F
330
81E
100
AcDbEntity
  8
0
100
AcDbBlockBegin
  2
*U3
 70
     1
 10
0.0
 20
0.0
 30
0.0
  3
*U3
  1

  0
ENDBLK
  5
820
330
81E
100
AcDbEntity
  8
0
100
AcDbBlockEnd
  0
BLOCK
  5
860
330
85E
100
AcDbEntity
  8
0
100
AcDbBlockBegin
  2
GENAXEH
 70
     0
 10
0.0
 20
0.0
 30
0.0
  3
GENAXEH
  1

  0
LINE
  5
85F
330
85E
100
AcDbEntity
  8
0
100
AcDbLine
 10
-1.0
 20
0.0
 30
0.0
 11
1.0
 21
0.0
 31
0.0
  0
ENDBLK
  5
861
330
85E
100
AcDbEntity
  8
0
100
AcDbBlockEnd
  0
ENDSEC
  0
SECTION
  2
ENTITIES
  0
CIRCLE
  5
DFB
330
443
100
AcDbEntity
  8
0
100
AcDbCircle
 10
-15.78953254474567
 20
99.86680120384097
 30
0.0
 40
6.9175
  0
CIRCLE
  5
DFC
330
443
100
AcDbEntity
  8
3
100
AcDbCircle
 10
-15.78953254474567
 20
99.86680120384097
 30
0.0
 40
8.0
  0
ARC
  5
DFD
330
443
100
AcDbEntity
  8
0
100
AcDbCircle
 10
-15.78953254474567
 20
99.86680120384097
 30
0.0
 40
50.0
100
AcDbArc
 50
85.13587443102057
 51
94.86412556897944
  0
ARC
  5
DFE
330
443
100
AcDbEntity
  8
0
100
AcDbCircle
 10
-15.78953254474567
 20
99.86680120384097
 30
0.0
 40
49.0
100
AcDbArc
 50
85.02584855537183
 51
94.97415144462818
  0
ARC
  5
DFF
330
443
100
AcDbEntity
  8
0
100
AcDbCircle
 10
-15.78953254474544
 20
64.90958920130123
 30
0.0
 40
18.0
100
AcDbArc
 50
71.20000000000072
 51
108.7999999999992
  0
CIRCLE
  5
E00
330
443
100
AcDbEntity
  8
0
100
AcDbCircle
 10
-15.78953254474578
 20
99.86680120384097
 30
0.0
 40
16.0
  0
CIRCLE
  5
E01
330
443
100
AcDbEntity
  8
0
100
AcDbCircle
 10
-15.78953254474578
 20
99.86680120384097
 30
0.0
 40
14.8
  0
CIRCLE
  5
E02
330
443
100
AcDbEntity
  8
0
100
AcDbCircle
 10
-15.78953254474578
 20
99.86680120384097
 30
0.0
 40
9.5
  0
ARC
  5
E03
330
443
100
AcDbEntity
  8
0
100
AcDbCircle
 10
-15.7895326254582
 20
63.94482480926678
 30
0.0
 40
18.0
100
AcDbArc
 50
71.19999999999905
 51
108.7999999999992
  0
LINE
  5
E04
330
443
100
AcDbEntity
  8
1
100
AcDbLine
 10
-63.11089112664814
 20
99.866801203841
 30
0.0
 11
29.99609775353741
 21
99.86680120384093
 31
0.0
  0
LINE
  5
E05
330
443
100
AcDbEntity
  8
0
100
AcDbLine
 10
-59.69441205343509
 20
81.48935767001139
 30
0.0
 11
-34.206955902287
 21
103.8019388449875
 31
0.0
  0
LINE
  5
E06
330
443
100
AcDbEntity
  8
0
100
AcDbLine
 10
-60.31484281035949
 20
82.16002792337794
 30
0.0
 11
-35.04246637445561
 21
104.2843210410047
 31
0.0
  0
LINE
  5
E07
330
443
100
AcDbEntity
  8
0
100
AcDbLine
 10
-53.65730525600082
 20
71.03278196613572
 30
0.0
 11
-21.59031505889464
 21
81.94927588338382
 31
0.0
  0
LINE
  5
E08
330
443
100
AcDbEntity
  8
0
100
AcDbLine
 10
-53.38670315748498
 20
70.16013804266671
 30
0.0
 11
-21.59031513960741
 21
80.9845114913493
 31
0.0
  0
ARC
  5
E09
330
443
100
AcDbEntity
  8
0
100
AcDbCircle
 10
-54.3535002431766
 20
73.00008582301382
 30
0.0
 40
3.0
100
AcDbArc
 50
214.8641255689796
 51
288.7999999999992
  0
ARC
  5
E0A
330
443
100
AcDbEntity
  8
0
100
AcDbCircle
 10
-54.30183664646182
 20
72.92608048636708
 30
0.0
 40
2.0
100
AcDbArc
 50
214.9741514446285
 51
288.7999999999992
  0
ARC
  5
E0B
330
443
100
AcDbEntity
  8
0
100
AcDbCircle
 10
-15.78953254474555
 20
99.86680120384086
 30
0.0
 40
49.0
100
AcDbArc
 50
205.0258485553723
 51
214.9741514446273
  0
ARC
  5
E0C
330
443
100
AcDbEntity
  8
0
100
AcDbCircle
 10
-15.78953254474555
 20
99.86680120384086
 30
0.0
 40
50.0
100
AcDbArc
 50
205.1358744310212
 51
214.8641255689782
  0
ARC
  5
E0D
330
443
100
AcDbEntity
  8
0
100
AcDbCircle
 10
-58.33877443000341
 20
79.90278319669073
 30
0.0
 40
3.0
100
AcDbArc
 50
131.2000000000005
 51
205.1358744310216
  0
ARC
  5
E0E
330
443
100
AcDbEntity
  8
0
100
AcDbCircle
 10
-58.3770331331977
 20
79.98452785221991
 30
0.0
 40
2.0
100
AcDbArc
 50
131.2000000000005
 51
205.0258485553723
  0
LINE
  5
E0F
330
443
100
AcDbEntity
  8
0
100
AcDbLine
 10
-22.71767219762006
 20
147.2802376454781
 30
0.0
 11
-29.24168386030641
 21
114.3315710791683
 31
0.0
  0
LINE
  5
E10
330
443
100
AcDbEntity
  8
0
100
AcDbLine
 10
-21.82663934217992
 20
147.0782639753758
 30
0.0
 11
-28.40617338813791
 21
113.8491888831511
 31
0.0
  0
ARC
  5
E11
330
443
100
AcDbEntity
  8
0
100
AcDbCircle
 10
-46.89887665659187
 20
117.8277894011279
 30
0.0
 40
18.0
100
AcDbArc
 50
311.1999999999994
 51
348.7999999999998
  0
ARC
  5
E12
330
443
100
AcDbEntity
  8
0
100
AcDbCircle
 10
-46.06336618442327
 20
117.3454072051107
 30
0.0
 40
18.0
100
AcDbArc
 50
311.2000000000006
 51
348.7999999999998
  0
ARC
  5
E13
330
443
100
AcDbEntity
  8
0
100
AcDbCircle
 10
-19.77480673157248
 20
146.6975345918183
 30
0.0
 40
3.0
100
AcDbArc
 50
94.86412556897777
 51
168.7999999999994
  0
ARC
  5
E14
330
443
100
AcDbEntity
  8
0
100
AcDbCircle
 10
-19.86472903148154
 20
146.6897952729358
 30
0.0
 40
2.0
100
AcDbArc
 50
94.97415144462818
 51
168.7999999999998
  0
LINE
  5
E15
330
443
100
AcDbEntity
  8
0
100
AcDbLine
 10
28.11534696394386
 20
81.48935767001139
 30
0.0
 11
2.627890812795783
 21
103.8019388449878
 31
0.0
  0
LINE
  5
E16
330
443
100
AcDbEntity
  8
0
100
AcDbLine
 10
28.73577772086827
 20
82.16002792337789
 30
0.0
 11
3.463403444571952
 21
104.2843191504114
 31
0.0
  0
LINE
  5
E17
330
443
100
AcDbEntity
  8
1
100
AcDbLine
 10
-15.78953254474564
 20
154.8668012038409
 30
0.0
 11
-15.78953254474567
 21
67.61004643849364
 31
0.0
  0
LINE
  5
E18
330
443
100
AcDbEntity
  8
0
100
AcDbLine
 10
150.131179630285
 20
81.36680120384093
 30
0.0
 11
150.1311796302849
 21
118.3668012038409
 31
0.0
  0
LINE
  5
E19
330
443
100
AcDbEntity
  8
0
100
AcDbLine
 10
120.50234040356
 20
80.70811648219493
 30
0.0
 11
133.6163364134036
 21
102.7984250508344
 31
0.0
  0
LINE
  5
E1A
330
443
100
AcDbEntity
  8
0
100
AcDbLine
 10
134.4311796302849
 20
102.2045893837153
 30
0.0
 11
134.4311796302849
 21
82.25681585123865
 31
0.0
  0
LINE
  5
E1B
330
443
100
AcDbEntity
  8
0
100
AcDbLine
 10
151.1311796302849
 20
117.3668012038409
 30
0.0
 11
151.1311796302849
 21
82.36680120384093
 31
0.0
  0
LINE
  5
E1C
330
443
100
AcDbEntity
  8
0
100
AcDbLine
 10
120.457438393876
 20
106.0799567611682
 30
0.0
 11
108.6797721782117
 21
81.28013737847274
 31
0.0
  0
LINE
  5
E1D
330
443
100
AcDbEntity
  8
0
100
AcDbLine
 10
21.80763806799387
 20
70.16013804266671
 30
0.0
 11
-9.988750111309002
 21
80.98451149134925
 31
0.0
  0
LINE
  5
E1E
330
443
100
AcDbEntity
  8
0
100
AcDbLine
 10
22.07824016650971
 20
71.03278196613572
 30
0.0
 11
-9.988750030596236
 21
81.94927588338382
 31
0.0
  0
ARC
  5
E1F
330
443
100
AcDbEntity
  8
0
100
AcDbCircle
 10
22.77443515368537
 20
73.00008582301379
 30
0.0
 40
3.0
100
AcDbArc
 50
251.199999999999
 51
325.1358744310218
  0
ARC
  5
E20
330
443
100
AcDbEntity
  8
0
100
AcDbCircle
 10
-15.78953254474555
 20
99.86680120384097
 30
0.0
 40
49.0
100
AcDbArc
 50
325.0258485553714
 51
334.9741514446274
  0
ARC
  5
E21
330
443
100
AcDbEntity
  8
0
100
AcDbCircle
 10
22.72277155697071
 20
72.92608048636711
 30
0.0
 40
2.0
100
AcDbArc
 50
251.2000000000007
 51
325.0258485553708
  0
ARC
  5
E22
330
443
100
AcDbEntity
  8
0
100
AcDbCircle
 10
-15.78953254474555
 20
99.86680120384097
 30
0.0
 40
50.0
100
AcDbArc
 50
325.1358744310209
 51
334.8641255689789
  0
ARC
  5
E23
330
443
100
AcDbEntity
  8
0
100
AcDbCircle
 10
26.7597093405123
 20
79.90278319669076
 30
0.0
 40
3.0
100
AcDbArc
 50
334.8641255689792
 51
48.80000000000055
  0
ARC
  5
E24
330
443
100
AcDbEntity
  8
0
100
AcDbCircle
 10
26.79796804370659
 20
79.98452785221999
 30
0.0
 40
2.0
100
AcDbArc
 50
334.9741514446274
 51
48.79999999999941
  0
LINE
  5
E25
330
443
100
AcDbEntity
  8
0
100
AcDbLine
 10
-18.43872472011929
 20
-2.537608679905389
 30
0.0
 11
-55.48181240189541
 21
9.219016850685235
 31
0.0
  0
LINE
  5
E26
330
443
100
AcDbEntity
  8
0
100
AcDbLine
 10
-55.47334788883057
 20
-1.292640554556456
 30
0.0
 11
-22.60795364911564
 21
-14.83317673462105
 31
0.0
  0
LINE
  5
E27
330
443
100
AcDbEntity
  8
0
100
AcDbLine
 10
-60.22421200949157
 20
-2.095026473042381
 30
0.0
 11
-34.95562313051164
 21
-14.68655583562414
 31
0.0
  0
LINE
  5
E28
330
443
100
AcDbEntity
  8
0
100
AcDbLine
 10
-18.02043121874453
 20
-1.097112047938622
 30
0.0
 11
-55.06351890052059
 21
10.659513482652
 31
0.0
  0
LINE
  5
E29
330
443
100
AcDbEntity
  8
0
100
AcDbLine
 10
-55.47334788883057
 20
9.732459213956516
 30
0.0
 11
-55.47334788883057
 21
-0.2926405545564563
 31
0.0
  0
LINE
  5
E2A
330
443
100
AcDbEntity
  8
0
100
AcDbLine
 10
-61.9733478881405
 20
7.778520218718469
 30
0.0
 11
-61.9733478881405
 21
0.6317553205591225
 31
0.0
  0
LINE
  5
E2B
330
443
100
AcDbEntity
  8
0
100
AcDbLine
 10
-55.90010590327023
 20
10.77852021871847
 30
0.0
 11
-58.97334788814049
 21
10.77852021871847
 31
0.0
  0
ARC
  5
E2C
330
443
100
AcDbEntity
  8
0
100
AcDbCircle
 10
-58.97334788814049
 20
7.778520218718462
 30
0.0
 40
3.0
100
AcDbArc
 50
89.99999999999998
 51
180.0
  0
ARC
  5
E2D
330
443
100
AcDbEntity
  8
0
100
AcDbCircle
 10
-55.90010590327023
 20
7.778520218718462
 30
0.0
 40
3.0
100
AcDbArc
 50
73.80768299997069
 51
89.99999999999998
  0
ARC
  5
E2E
330
443
100
AcDbEntity
  8
0
100
AcDbCircle
 10
-58.97334788814055
 20
0.6317553205591154
 30
0.0
 40
3.0
100
AcDbArc
 50
180.0
 51
245.3575258463267
  0
LINE
  5
E2F
330
443
100
AcDbEntity
  8
0
100
AcDbLine
 10
-56.47334788883063
 20
-1.292640554556456
 30
0.0
 11
-59.57500585498684
 21
-1.292640554556456
 31
0.0
  0
LINE
  5
E30
330
443
100
AcDbEntity
  8
0
100
AcDbLine
 10
28.64514692000023
 20
-2.095026473042452
 30
0.0
 11
3.376558041020473
 21
-14.68655583562403
 31
0.0
  0
LINE
  5
E31
330
443
100
AcDbEntity
  8
0
100
AcDbLine
 10
24.32104081377889
 20
10.77852021871845
 30
0.0
 11
27.39428279864921
 21
10.77852021871845
 31
0.0
  0
LINE
  5
E32
330
443
100
AcDbEntity
  8
0
100
AcDbLine
 10
24.89428279933935
 20
-1.29264055455647
 30
0.0
 11
27.99594076549556
 21
-1.29264055455647
 31
0.0
  0
LINE
  5
E33
330
443
100
AcDbEntity
  8
2
100
AcDbLine
 10
-5.789532544745554
 20
-1.221479781281715
 30
0.0
 11
-5.789532544745668
 21
-31.92147978128153
 31
0.0
  0
LINE
  5
E34
330
443
100
AcDbEntity
  8
2
100
AcDbLine
 10
-7.789532544745668
 20
-32.22147978128171
 30
0.0
 11
-7.789532544745668
 21
-2.221479781281601
 31
0.0
  0
LINE
  5
E35
330
443
100
AcDbEntity
  8
2
100
AcDbLine
 10
-8.87203254474565
 20
-31.13897978128162
 30
0.0
 11
-8.87203254474565
 21
-2.221479781281487
 31
0.0
  0
LINE
  5
E36
330
443
100
AcDbEntity
  8
2
100
AcDbLine
 10
-25.78953254474567
 20
-31.92147978128153
 30
0.0
 11
-25.78953254474567
 21
-1.221479781281487
 31
0.0
  0
LINE
  5
E37
330
443
100
AcDbEntity
  8
2
100
AcDbLine
 10
-22.70703254474568
 20
-31.13897978128173
 30
0.0
 11
-22.70703254474568
 21
-2.221479781281487
 31
0.0
  0
LINE
  5
E38
330
443
100
AcDbEntity
  8
2
100
AcDbLine
 10
-23.78953254474566
 20
-32.2214797812816
 30
0.0
 11
-23.78953254474566
 21
-2.221479781281601
 31
0.0
  0
LINE
  5
E39
330
443
100
AcDbEntity
  8
0
100
AcDbLine
 10
23.89428279933929
 20
-1.29264055455647
 30
0.0
 11
-8.97111150693189
 21
-14.83317676001703
 31
0.0
  0
LINE
  5
E3A
330
443
100
AcDbEntity
  8
1
100
AcDbLine
 10
-15.78953254474567
 20
15.77852021871839
 30
0.0
 11
-15.78953254474567
 21
-37.22147978128148
 31
0.0
  0
LINE
  5
E3B
330
443
100
AcDbEntity
  8
0
100
AcDbLine
 10
-0.9895325447456002
 20
4.778520218718398
 30
0.0
 11
-30.58953254474568
 21
4.778520218718398
 31
0.0
  0
LINE
  5
E3C
330
443
100
AcDbEntity
  8
0
100
AcDbLine
 10
0.2104674552543315
 20
3.578520218718466
 30
0.0
 11
-31.78953254474561
 21
3.578520218718466
 31
0.0
  0
LINE
  5
E3D
330
443
100
AcDbEntity
  8
0
100
AcDbLine
 10
-13.14034036937187
 20
-2.537608679905389
 30
0.0
 11
23.90274731240407
 21
9.219016850685221
 31
0.0
  0
LINE
  5
E3E
330
443
100
AcDbEntity
  8
0
100
AcDbLine
 10
-13.55863387074669
 20
-1.097112047938622
 30
0.0
 11
23.48445381102931
 21
10.65951348265198
 31
0.0
  0
LINE
  5
E3F
330
443
100
AcDbEntity
  8
0
100
AcDbLine
 10
-25.47172557124514
 20
4.778520218718398
 30
0.0
 11
-21.64617438450528
 21
9.634925139708485
 31
0.0
  0
LINE
  5
E40
330
443
100
AcDbEntity
  8
0
100
AcDbLine
 10
-6.107339518246078
 20
4.778520218718398
 30
0.0
 11
-9.932890704985936
 21
9.634925139708485
 31
0.0
  0
ARC
  5
E41
330
443
100
AcDbEntity
  8
0
100
AcDbCircle
 10
-19.28953254295953
 20
7.778520218718455
 30
0.0
 40
3.0
100
AcDbArc
 50
89.99999999999998
 51
141.7713233843396
  0
LINE
  5
E42
330
443
100
AcDbEntity
  8
0
100
AcDbLine
 10
-12.28953254474532
 20
10.77852021871845
 30
0.0
 11
-19.28953254295953
 21
10.77852021871845
 31
0.0
  0
ARC
  5
E43
330
443
100
AcDbEntity
  8
0
100
AcDbCircle
 10
-12.28953254474532
 20
7.778520218718455
 30
0.0
 40
3.0
100
AcDbArc
 50
38.22867661565865
 51
89.99999999999998
  0
LINE
  5
E44
330
443
100
AcDbEntity
  8
2
100
AcDbLine
 10
-6.789532544745668
 20
-2.221479781281601
 30
0.0
 11
-24.78953254474566
 21
-2.221479781281601
 31
0.0
  0
LINE
  5
E45
330
443
100
AcDbEntity
  8
2
100
AcDbLine
 10
-5.789532544745554
 20
-1.221479781281601
 30
0.0
 11
-25.78953254474567
 21
-1.221479781281715
 31
0.0
  0
LINE
  5
E46
330
443
100
AcDbEntity
  8
2
100
AcDbLine
 10
-6.789532544745668
 20
-0.2214797812816016
 30
0.0
 11
-24.78953254474566
 21
-0.2214797812816016
 31
0.0
  0
LINE
  5
E47
330
443
100
AcDbEntity
  8
2
100
AcDbLine
 10
-24.78953254474566
 20
-0.2214797812814879
 30
0.0
 11
-25.78953254474567
 21
-1.221479781281487
 31
0.0
  0
LINE
  5
E48
330
443
100
AcDbEntity
  8
2
100
AcDbLine
 10
-25.78953254474567
 20
4.778520218718625
 30
0.0
 11
-25.78953254474567
 21
-1.221479781281487
 31
0.0
  0
LINE
  5
E49
330
443
100
AcDbEntity
  8
0
100
AcDbLine
 10
-31.78953254474561
 20
3.578520218718466
 30
0.0
 11
-31.78953254474561
 21
2.901179566651052
 31
0.0
  0
LINE
  5
E4A
330
443
100
AcDbEntity
  8
0
100
AcDbLine
 10
-30.58953254474568
 20
4.778520218718398
 30
0.0
 11
-31.78953254474561
 21
3.578520218718466
 31
0.0
  0
LINE
  5
E4B
330
443
100
AcDbEntity
  8
2
100
AcDbLine
 10
-24.78953254474566
 20
-1.221479781281601
 30
0.0
 11
-24.78953254474566
 21
-2.221479781281601
 31
0.0
  0
LINE
  5
E4C
330
443
100
AcDbEntity
  8
2
100
AcDbLine
 10
-6.789532544745668
 20
-0.2214797812816016
 30
0.0
 11
-5.789532544745668
 21
-1.221479781281601
 31
0.0
  0
LINE
  5
E4D
330
443
100
AcDbEntity
  8
2
100
AcDbLine
 10
-5.789532544745554
 20
4.778520218718284
 30
0.0
 11
-5.789532544745554
 21
-1.221479781281715
 31
0.0
  0
ARC
  5
E4E
330
443
100
AcDbEntity
  8
0
100
AcDbCircle
 10
-15.78953254474561
 20
6.585536655884169
 30
0.0
 40
8.0
100
AcDbArc
 50
253.8076829999706
 51
286.1923170000292
  0
LINE
  5
E4F
330
443
100
AcDbEntity
  8
2
100
AcDbLine
 10
-6.789532544745668
 20
-1.221479781281601
 30
0.0
 11
-6.789532544745668
 21
-2.221479781281601
 31
0.0
  0
LINE
  5
E50
330
443
100
AcDbEntity
  8
0
100
AcDbLine
 10
23.89428279933923
 20
9.732459213956502
 30
0.0
 11
23.89428279933929
 21
-0.2926405545564705
 31
0.0
  0
ARC
  5
E51
330
443
100
AcDbEntity
  8
0
100
AcDbCircle
 10
24.32104081377889
 20
7.778520218718448
 30
0.0
 40
3.0
100
AcDbArc
 50
89.99999999999998
 51
106.1923170000292
  0
LINE
  5
E52
330
443
100
AcDbEntity
  8
0
100
AcDbLine
 10
0.2104674552543315
 20
3.578520218718466
 30
0.0
 11
0.2104674552543315
 21
2.901179566651052
 31
0.0
  0
LINE
  5
E53
330
443
100
AcDbEntity
  8
0
100
AcDbLine
 10
-0.9895325447456002
 20
4.778520218718398
 30
0.0
 11
0.2104674552543315
 21
3.578520218718466
 31
0.0
  0
LINE
  5
E54
330
443
100
AcDbEntity
  8
0
100
AcDbLine
 10
-33.78953254474566
 20
-30.92147978128153
 30
0.0
 11
2.210467455254388
 21
-30.92147978128148
 31
0.0
  0
LINE
  5
E55
330
443
100
AcDbEntity
  8
0
100
AcDbLine
 10
1.498625070794332
 20
-15.22147978128143
 30
0.0
 11
-7.183711585223704
 21
-15.22147978128143
 31
0.0
  0
LINE
  5
E56
330
443
100
AcDbEntity
  8
0
100
AcDbLine
 10
1.210467455254388
 20
-31.92147978128153
 30
0.0
 11
-32.78953254474572
 21
-31.92147978128153
 31
0.0
  0
LINE
  5
E57
330
443
100
AcDbEntity
  8
0
100
AcDbLine
 10
-33.78953254474566
 20
-16.50441036469183
 30
0.0
 11
-33.78953254474566
 21
-30.92147978128153
 31
0.0
  0
LINE
  5
E58
330
443
100
AcDbEntity
  8
0
100
AcDbLine
 10
-20.56059543488356
 20
-14.86645192875292
 30
0.0
 11
-16.76738669935457
 21
-13.55862537533559
 31
0.0
  0
ARC
  5
E59
330
443
100
AcDbEntity
  8
0
100
AcDbCircle
 10
-35.78953254474567
 20
-16.50441036469183
 30
0.0
 40
2.0
100
AcDbArc
 50
0.0
 51
65.35752584632665
  0
LINE
  5
E5A
330
443
100
AcDbEntity
  8
0
100
AcDbLine
 10
-24.39535350426763
 20
-15.22147978128143
 30
0.0
 11
-32.89951789734795
 21
-15.22147978128143
 31
0.0
  0
ARC
  5
E5B
330
443
100
AcDbEntity
  8
0
100
AcDbCircle
 10
-21.53844956545793
 20
-12.03029232476043
 30
0.0
 40
3.0
100
AcDbArc
 50
249.1145125711465
 51
289.0232238262723
  0
LINE
  5
E5C
330
443
100
AcDbEntity
  8
0
100
AcDbLine
 10
-14.81167841290783
 20
-13.55862538405787
 30
0.0
 11
-11.01846974467127
 21
-14.86645194604401
 31
0.0
  0
ARC
  5
E5D
330
443
100
AcDbEntity
  8
0
100
AcDbCircle
 10
-15.7895325687802
 20
-16.39478497932808
 30
0.0
 40
3.0
100
AcDbArc
 50
70.97677566265989
 51
109.0232238262723
  0
ARC
  5
E5E
330
443
100
AcDbEntity
  8
0
100
AcDbCircle
 10
-10.04061559058959
 20
-12.03029235015643
 30
0.0
 40
3.0
100
AcDbArc
 50
250.9767756988349
 51
290.8854874288534
  0
LINE
  5
E5F
330
443
100
AcDbEntity
  8
0
100
AcDbLine
 10
-5.789532544745668
 20
-32.2214797812816
 30
0.0
 11
-25.78953254474567
 21
-32.2214797812816
 31
0.0
  0
LINE
  5
E60
330
443
100
AcDbEntity
  8
2
100
AcDbLine
 10
-8.87203254474565
 20
-31.13897978128162
 30
0.0
 11
-22.70703254474568
 21
-31.13897978128173
 31
0.0
  0
LINE
  5
E61
330
443
100
AcDbEntity
  8
0
100
AcDbLine
 10
-32.78953254474567
 20
-31.92147978128153
 30
0.0
 11
-33.78953254474566
 21
-30.92147978128153
 31
0.0
  0
LINE
  5
E62
330
443
100
AcDbEntity
  8
0
100
AcDbLine
 10
-25.78953254474567
 20
-31.92147978128153
 30
0.0
 11
-25.78953254474567
 21
-32.2214797812816
 31
0.0
  0
LINE
  5
E63
330
443
100
AcDbEntity
  8
2
100
AcDbLine
 10
-23.78953254474566
 20
-32.2214797812816
 30
0.0
 11
-22.70703254474568
 21
-31.13897978128173
 31
0.0
  0
LINE
  5
E64
330
443
100
AcDbEntity
  8
0
100
AcDbLine
 10
-5.789532544745668
 20
-31.92147978128153
 30
0.0
 11
-5.789532544745668
 21
-32.2214797812816
 31
0.0
  0
LINE
  5
E65
330
443
100
AcDbEntity
  8
2
100
AcDbLine
 10
-7.789532544745668
 20
-32.2214797812816
 30
0.0
 11
-8.87203254474565
 21
-31.13897978128173
 31
0.0
  0
LINE
  5
E66
330
443
100
AcDbEntity
  8
0
100
AcDbLine
 10
2.210467455254502
 20
-16.50441036469172
 30
0.0
 11
2.210467455254388
 21
-30.92147978128153
 31
0.0
  0
ARC
  5
E67
330
443
100
AcDbEntity
  8
0
100
AcDbCircle
 10
4.210467455254502
 20
-16.50441036469172
 30
0.0
 40
2.0
100
AcDbArc
 50
114.6424741536733
 51
180.0
  0
LINE
  5
E68
330
443
100
AcDbEntity
  8
0
100
AcDbLine
 10
2.210467455254388
 20
-30.92147978128153
 30
0.0
 11
1.210467455254388
 21
-31.92147978128153
 31
0.0
  0
LINE
  5
E69
330
443
100
AcDbEntity
  8
0
100
AcDbLine
 10
121.3730953336298
 20
70.28606989412097
 30
0.0
 11
133.8506763435717
 21
80.80927876309132
 31
0.0
  0
LINE
  5
E6A
330
443
100
AcDbEntity
  8
0
100
AcDbLine
 10
30.39428279864921
 20
7.778520218718455
 30
0.0
 11
30.39428279864921
 21
0.6317553205591083
 31
0.0
  0
ARC
  5
E6B
330
443
100
AcDbEntity
  8
0
100
AcDbCircle
 10
27.39428279864921
 20
7.778520218718448
 30
0.0
 40
3.0
100
AcDbArc
 50
0.0
 51
89.99999999999998
  0
ARC
  5
E6C
330
443
100
AcDbEntity
  8
0
100
AcDbCircle
 10
27.39428279864921
 20
0.6317553205591011
 30
0.0
 40
3.0
100
AcDbArc
 50
294.6424741536733
 51
0.0
  0
LINE
  5
E6D
330
443
100
AcDbEntity
  8
0
100
AcDbLine
 10
109.530918111621
 20
80.70811648219493
 30
0.0
 11
119.5023404035623
 21
80.70811648219493
 31
0.0
  0
LINE
  5
E6E
330
443
100
AcDbEntity
  8
0
100
AcDbLine
 10
111.4311796302849
 20
69.44978623299661
 30
0.0
 11
119.295035756793
 21
69.44978623299656
 31
0.0
  0
ARC
  5
E6F
330
443
100
AcDbEntity
  8
0
100
AcDbCircle
 10
111.4311796302849
 20
72.44978623299662
 30
0.0
 40
3.0
100
AcDbArc
 50
180.0
 51
270.0
  0
LINE
  5
E70
330
443
100
AcDbEntity
  8
0
100
AcDbLine
 10
108.4311796302851
 20
80.08441289821993
 30
0.0
 11
108.4311796302849
 21
72.44978623299662
 31
0.0
  0
ARC
  5
E71
330
443
100
AcDbEntity
  8
0
100
AcDbCircle
 10
111.4311796302851
 20
80.08441289821993
 30
0.0
 40
3.0
100
AcDbArc
 50
156.5108857960224
 51
179.9999999999996
  0
ARC
  5
E72
330
443
100
AcDbEntity
  8
0
100
AcDbCircle
 10
119.295035756793
 20
72.44978623299656
 30
0.0
 40
3.0
100
AcDbArc
 50
270.0
 51
313.8431486923566
  0
LINE
  5
E73
330
443
100
AcDbEntity
  8
0
100
AcDbLine
 10
120.50234040356
 20
70.85529086144672
 30
0.0
 11
120.50234040356
 21
79.70811648219487
 31
0.0
  0
LINE
  5
E74
330
443
100
AcDbEntity
  8
0
100
AcDbLine
 10
135.2360493947962
 20
81.36680120384093
 30
0.0
 11
150.131179630285
 21
81.36680120384093
 31
0.0
  0
ARC
  5
E75
330
443
100
AcDbEntity
  8
0
100
AcDbCircle
 10
135.2360493947962
 20
79.36680120384093
 30
0.0
 40
2.0
100
AcDbArc
 50
90.0
 51
133.8431486923566
  0
LINE
  5
E76
330
443
100
AcDbEntity
  8
0
100
AcDbLine
 10
151.131179630285
 20
82.36680120384093
 30
0.0
 11
150.131179630285
 21
81.36680120384093
 31
0.0
  0
LINE
  5
E77
330
443
100
AcDbEntity
  8
0
100
AcDbLine
 10
-8.861392891871162
 20
147.2802376454781
 30
0.0
 11
-2.33738174313413
 21
114.3315736748022
 31
0.0
  0
LINE
  5
E78
330
443
100
AcDbEntity
  8
0
100
AcDbLine
 10
-9.752425747311292
 20
147.0782639753758
 30
0.0
 11
-3.172891701353307
 21
113.8491888831514
 31
0.0
  0
ARC
  5
E79
330
443
100
AcDbEntity
  8
0
100
AcDbCircle
 10
15.31981156710054
 20
117.8277894011281
 30
0.0
 40
18.0
100
AcDbArc
 50
191.2000000000001
 51
228.7999999999994
  0
ARC
  5
E7A
330
443
100
AcDbEntity
  8
0
100
AcDbCircle
 10
14.48430109493205
 20
117.3454072051109
 30
0.0
 40
18.0
100
AcDbArc
 50
191.2000000000001
 51
228.7999999999994
  0
ARC
  5
E7B
330
443
100
AcDbEntity
  8
0
100
AcDbCircle
 10
-11.80425835791874
 20
146.6975345918183
 30
0.0
 40
3.0
100
AcDbArc
 50
11.19999999999978
 51
85.13587443102057
  0
ARC
  5
E7C
330
443
100
AcDbEntity
  8
0
100
AcDbCircle
 10
-11.71433605800967
 20
146.6897952729358
 30
0.0
 40
2.0
100
AcDbArc
 50
11.20000000000018
 51
85.02584855537183
  0
LINE
  5
E7D
330
443
100
AcDbEntity
  8
0
100
AcDbLine
 10
28.01971485932483
 20
209.5686077505003
 30
0.0
 11
1.875551931876742
 21
222.5617916075431
 31
0.0
  0
LINE
  5
E7E
330
443
100
AcDbEntity
  8
0
100
AcDbLine
 10
0.5946036028857123
 20
210.8472594313745
 30
0.0
 11
26.85171724422673
 21
199.6600161796984
 31
0.0
  0
LINE
  5
E7F
330
443
100
AcDbEntity
  8
0
100
AcDbLine
 10
0.0520380484633449
 20
209.4488236555327
 30
0.0
 11
26.30915168980436
 21
198.2615804038566
 31
0.0
  0
LINE
  5
E80
330
443
100
AcDbEntity
  8
0
100
AcDbLine
 10
28.64514692000023
 20
210.931998647301
 30
0.0
 11
3.376558041020274
 21
223.5235280098827
 31
0.0
  0
LINE
  5
E81
330
443
100
AcDbEntity
  8
0
100
AcDbLine
 10
133.2559254861638
 20
117.271456541547
 30
0.0
 11
119.8695906348828
 21
147.4287110939649
 31
0.0
  0
LINE
  5
E82
330
443
100
AcDbEntity
  8
0
100
AcDbLine
 10
109.9822908908515
 20
146.4785726361872
 30
0.0
 11
120.750178447464
 21
110.024319992289
 31
0.0
  0
LINE
  5
E83
330
443
100
AcDbEntity
  8
0
100
AcDbLine
 10
134.646701268014
 20
117.8333664316709
 30
0.0
 11
121.2603650917773
 21
147.9906242634692
 31
0.0
  0
LINE
  5
E84
330
443
100
AcDbEntity
  8
0
100
AcDbLine
 10
108.5334021514178
 20
146.0903440685334
 30
0.0
 11
119.7895502925912
 21
107.8138781157209
 31
0.0
  0
LINE
  5
E85
330
443
100
AcDbEntity
  8
2
100
AcDbLine
 10
151.431179630285
 20
91.86680120384094
 30
0.0
 11
121.431179630285
 21
91.86680120384094
 31
0.0
  0
LINE
  5
E86
330
443
100
AcDbEntity
  8
2
100
AcDbLine
 10
150.3486796302851
 20
92.94930120384092
 30
0.0
 11
121.4311796302849
 21
92.94930120384092
 31
0.0
  0
LINE
  5
E87
330
443
100
AcDbEntity
  8
2
100
AcDbLine
 10
150.348679630285
 20
106.7843012038409
 30
0.0
 11
121.4311796302849
 21
106.7843012038409
 31
0.0
  0
LINE
  5
E88
330
443
100
AcDbEntity
  8
2
100
AcDbLine
 10
151.4311796302851
 20
107.8668012038409
 30
0.0
 11
121.431179630285
 21
107.8668012038409
 31
0.0
  0
LINE
  5
E89
330
443
100
AcDbEntity
  8
2
100
AcDbLine
 10
151.1311796302849
 20
89.86680120384093
 30
0.0
 11
120.4311796302849
 21
89.86680120384093
 31
0.0
  0
LINE
  5
E8A
330
443
100
AcDbEntity
  8
2
100
AcDbLine
 10
120.4311796302851
 20
109.866801203841
 30
0.0
 11
151.1311796302849
 21
109.8668012038409
 31
0.0
  0
LINE
  5
E8B
330
443
100
AcDbEntity
  8
1
100
AcDbLine
 10
103.431179630285
 20
99.86680120384093
 30
0.0
 11
156.431179630285
 21
99.86680120384093
 31
0.0
  0
LINE
  5
E8C
330
443
100
AcDbEntity
  8
0
100
AcDbLine
 10
114.431179630285
 20
114.666801203841
 30
0.0
 11
115.6311796302849
 21
115.8668012038409
 31
0.0
  0
LINE
  5
E8D
330
443
100
AcDbEntity
  8
0
100
AcDbLine
 10
115.6311796302849
 20
115.8668012038409
 30
0.0
 11
115.6311796302849
 21
95.91747266291591
 31
0.0
  0
LINE
  5
E8E
330
443
100
AcDbEntity
  8
2
100
AcDbLine
 10
119.431179630285
 20
108.8668012038409
 30
0.0
 11
119.431179630285
 21
90.86680120384093
 31
0.0
  0
LINE
  5
E8F
330
443
100
AcDbEntity
  8
2
100
AcDbLine
 10
120.431179630285
 20
109.866801203841
 30
0.0
 11
120.4311796302851
 21
89.86680120384093
 31
0.0
  0
LINE
  5
E90
330
443
100
AcDbEntity
  8
2
100
AcDbLine
 10
121.431179630285
 20
108.8668012038409
 30
0.0
 11
121.431179630285
 21
90.86680120384093
 31
0.0
  0
LINE
  5
E91
330
443
100
AcDbEntity
  8
0
100
AcDbLine
 10
114.431179630285
 20
114.666801203841
 30
0.0
 11
114.431179630285
 21
94.51434440934187
 31
0.0
  0
LINE
  5
E92
330
443
100
AcDbEntity
  8
2
100
AcDbLine
 10
119.4311796302849
 20
90.86680120384093
 30
0.0
 11
120.4311796302849
 21
89.86680120384093
 31
0.0
  0
LINE
  5
E93
330
443
100
AcDbEntity
  8
2
100
AcDbLine
 10
114.4311796302848
 20
89.86680120384093
 30
0.0
 11
120.4311796302849
 21
89.86680120384093
 31
0.0
  0
LINE
  5
E94
330
443
100
AcDbEntity
  8
2
100
AcDbLine
 10
114.431179630285
 20
89.86680120384093
 30
0.0
 11
114.431179630285
 21
94.51434440934187
 31
0.0
  0
LINE
  5
E95
330
443
100
AcDbEntity
  8
2
100
AcDbLine
 10
120.431179630285
 20
90.86680120384093
 30
0.0
 11
121.431179630285
 21
90.86680120384093
 31
0.0
  0
LINE
  5
E96
330
443
100
AcDbEntity
  8
2
100
AcDbLine
 10
119.431179630285
 20
108.8668012038409
 30
0.0
 11
120.431179630285
 21
109.8668012038409
 31
0.0
  0
LINE
  5
E97
330
443
100
AcDbEntity
  8
2
100
AcDbLine
 10
114.4311796302851
 20
109.866801203841
 30
0.0
 11
120.4311796302851
 21
109.866801203841
 31
0.0
  0
ARC
  5
E98
330
443
100
AcDbEntity
  8
0
100
AcDbCircle
 10
113.9939953348568
 20
106.2609638451059
 30
0.0
 40
6.0
100
AcDbArc
 50
336.5108857960224
 51
14.99999999999998
  0
ARC
  5
E99
330
443
100
AcDbEntity
  8
0
100
AcDbCircle
 10
114.9546234897297
 20
108.4714057216739
 30
0.0
 40
6.0
100
AcDbArc
 50
336.5108857960224
 51
14.99999999999998
  0
LINE
  5
E9A
330
443
100
AcDbEntity
  8
2
100
AcDbLine
 10
120.431179630285
 20
108.8668012038409
 30
0.0
 11
121.431179630285
 21
108.8668012038409
 31
0.0
  0
LINE
  5
E9B
330
443
100
AcDbEntity
  8
0
100
AcDbLine
 10
115.6311796302849
 20
115.8668012038409
 30
0.0
 11
117.4213876894631
 21
115.8668012038409
 31
0.0
  0
LINE
  5
E9C
330
443
100
AcDbEntity
  8
0
100
AcDbLine
 10
132.8092145192609
 20
108.9721214491745
 30
0.0
 11
134.7365365619723
 21
115.8405601649543
 31
0.0
  0
ARC
  5
E9D
330
443
100
AcDbEntity
  8
0
100
AcDbCircle
 10
135.6806013769195
 20
108.1031349627056
 30
0.0
 40
3.0
100
AcDbArc
 50
163.1622687517331
 51
210.1832064013158
  0
LINE
  5
E9E
330
443
100
AcDbEntity
  8
0
100
AcDbLine
 10
133.5791635751281
 20
105.7492186495286
 30
0.0
 11
133.087334771582
 21
106.5948351537678
 31
0.0
  0
ARC
  5
E9F
330
443
100
AcDbEntity
  8
0
100
AcDbCircle
 10
130.9858969697907
 20
104.2409188405907
 30
0.0
 40
3.0
100
AcDbArc
 50
331.2602927911052
 51
30.18320640131859
  0
LINE
  5
EA0
330
443
100
AcDbEntity
  8
2
100
AcDbLine
 10
150.348679630285
 20
106.7843012038409
 30
0.0
 11
150.3486796302851
 21
92.94930120384092
 31
0.0
  0
LINE
  5
EA1
330
443
100
AcDbEntity
  8
0
100
AcDbLine
 10
151.431179630285
 20
109.8668012038409
 30
0.0
 11
151.431179630285
 21
89.86680120384093
 31
0.0
  0
LINE
  5
EA2
330
443
100
AcDbEntity
  8
2
100
AcDbLine
 10
151.431179630285
 20
91.86680120384094
 30
0.0
 11
150.3486796302851
 21
92.94930120384092
 31
0.0
  0
LINE
  5
EA3
330
443
100
AcDbEntity
  8
0
100
AcDbLine
 10
151.1311796302849
 20
89.86680120384093
 30
0.0
 11
151.431179630285
 21
89.86680120384093
 31
0.0
  0
LINE
  5
EA4
330
443
100
AcDbEntity
  8
2
100
AcDbLine
 10
151.431179630285
 20
107.8668012038409
 30
0.0
 11
150.3486796302851
 21
106.7843012038409
 31
0.0
  0
LINE
  5
EA5
330
443
100
AcDbEntity
  8
0
100
AcDbLine
 10
151.1311796302849
 20
109.8668012038409
 30
0.0
 11
151.431179630285
 21
109.8668012038409
 31
0.0
  0
LINE
  5
EA6
330
443
100
AcDbEntity
  8
0
100
AcDbLine
 10
135.7801925620614
 20
118.3668012038411
 30
0.0
 11
150.1311796302849
 21
118.3668012038409
 31
0.0
  0
ARC
  5
EA7
330
443
100
AcDbEntity
  8
0
100
AcDbCircle
 10
135.7801966639698
 20
120.366801203841
 30
0.0
 40
2.0
100
AcDbArc
 50
201.9999999999999
 51
270.0
  0
ARC
  5
EA8
330
443
100
AcDbEntity
  8
0
100
AcDbCircle
 10
131.8651497043137
 20
116.7095466514232
 30
0.0
 40
3.0
100
AcDbArc
 50
343.162268751733
 51
22.00000000000005
  0
LINE
  5
EA9
330
443
100
AcDbEntity
  8
0
100
AcDbLine
 10
150.1311796302849
 20
118.3668012038409
 30
0.0
 11
151.1311796302849
 21
117.3668012038409
 31
0.0
  0
LINE
  5
EAA
330
443
100
AcDbEntity
  8
0
100
AcDbLine
 10
111.431179630285
 20
149.8668012038411
 30
0.0
 11
118.4788184213552
 21
149.8668012038411
 31
0.0
  0
ARC
  5
EAB
330
443
100
AcDbEntity
  8
0
100
AcDbCircle
 10
111.431179630285
 20
146.8668012038411
 30
0.0
 40
3.0
100
AcDbArc
 50
89.99994848350812
 51
195.0000351864214
  0
ARC
  5
EAC
330
443
100
AcDbEntity
  8
0
100
AcDbCircle
 10
118.4788148530325
 20
146.8668012038411
 30
0.0
 40
3.0
100
AcDbArc
 50
22.00000000000005
 51
90.0
  0
LINE
  5
EAD
330
443
100
AcDbEntity
  8
0
100
AcDbLine
 10
30.39428279864921
 20
201.0584519555402
 30
0.0
 11
30.39428279864921
 21
208.2052168536995
 31
0.0
  0
ARC
  5
EAE
330
443
100
AcDbEntity
  8
0
100
AcDbCircle
 10
27.39428279864924
 20
201.0584519555402
 30
0.0
 40
3.0
100
AcDbArc
 50
248.794659189774
 51
0.0
  0
ARC
  5
EAF
330
443
100
AcDbEntity
  8
0
100
AcDbCircle
 10
27.39428279864924
 20
208.2052168536995
 30
0.0
 40
3.0
100
AcDbArc
 50
0.0
 51
65.35752584632667
  0
LINE
  5
EB0
330
443
100
AcDbEntity
  8
0
100
AcDbLine
 10
-60.22421200949171
 20
210.931998647301
 30
0.0
 11
-34.95562313051178
 21
223.5235280098827
 31
0.0
  0
LINE
  5
EB1
330
443
100
AcDbEntity
  8
0
100
AcDbLine
 10
-59.59877994881608
 20
209.5686077505003
 30
0.0
 11
-33.45461702136813
 21
222.5617916075431
 31
0.0
  0
LINE
  5
EB2
330
443
100
AcDbEntity
  8
0
100
AcDbLine
 10
-32.17366869237721
 20
210.8472594313745
 30
0.0
 11
-58.43078233371821
 21
199.6600161796984
 31
0.0
  0
LINE
  5
EB3
330
443
100
AcDbEntity
  8
0
100
AcDbLine
 10
-31.7318535678626
 20
209.409734471885
 30
0.0
 11
-57.88821677929573
 21
198.2615804038566
 31
0.0
  0
LINE
  5
EB4
330
443
100
AcDbEntity
  8
0
100
AcDbLine
 10
-60.22421200949148
 20
210.931998647301
 30
0.0
 11
-34.95562313051178
 21
223.5235280098826
 31
0.0
  0
LINE
  5
EB5
330
443
100
AcDbEntity
  8
2
100
AcDbLine
 10
-25.78953254474575
 20
210.0584519555403
 30
0.0
 11
-25.78953254474564
 21
240.7584519555401
 31
0.0
  0
LINE
  5
EB6
330
443
100
AcDbEntity
  8
2
100
AcDbLine
 10
-23.78953254474564
 20
241.0584519555403
 30
0.0
 11
-23.78953254474564
 21
211.0584519555402
 31
0.0
  0
LINE
  5
EB7
330
443
100
AcDbEntity
  8
2
100
AcDbLine
 10
-22.70703254474566
 20
239.9759519555402
 30
0.0
 11
-22.70703254474566
 21
211.0584519555401
 31
0.0
  0
LINE
  5
EB8
330
443
100
AcDbEntity
  8
2
100
AcDbLine
 10
-5.78953254474564
 20
240.7584519555401
 30
0.0
 11
-5.78953254474564
 21
210.05845195554
 31
0.0
  0
LINE
  5
EB9
330
443
100
AcDbEntity
  8
2
100
AcDbLine
 10
-8.872032544745621
 20
239.9759519555403
 30
0.0
 11
-8.872032544745621
 21
211.0584519555401
 31
0.0
  0
LINE
  5
EBA
330
443
100
AcDbEntity
  8
2
100
AcDbLine
 10
-7.78953254474564
 20
241.0584519555402
 30
0.0
 11
-7.78953254474564
 21
211.0584519555402
 31
0.0
  0
LINE
  5
EBB
330
443
100
AcDbEntity
  8
0
100
AcDbLine
 10
-29.7972628769028
 20
224.4581315353811
 30
0.0
 11
-21.57936379312892
 21
211.4093494337815
 31
0.0
  0
LINE
  5
EBC
330
443
100
AcDbEntity
  8
0
100
AcDbLine
 10
-29.66522975942362
 20
221.433728133306
 30
0.0
 11
-22.65147592019641
 21
210.2969467455861
 31
0.0
  0
LINE
  5
EBD
330
443
100
AcDbEntity
  8
0
100
AcDbLine
 10
-1.781802212588587
 20
224.4581315353811
 30
0.0
 11
-9.999701296905215
 21
211.4093494329199
 31
0.0
  0
LINE
  5
EBE
330
443
100
AcDbEntity
  8
0
100
AcDbLine
 10
-1.913835330067769
 20
221.433728133306
 30
0.0
 11
-8.927589170177412
 21
210.296946744185
 31
0.0
  0
LINE
  5
EBF
330
443
100
AcDbEntity
  8
1
100
AcDbLine
 10
-15.78953254474564
 20
193.0584519555402
 30
0.0
 11
-15.78953254474564
 21
246.0584519555401
 31
0.0
  0
LINE
  5
EC0
330
443
100
AcDbEntity
  8
2
100
AcDbLine
 10
-24.78953254474564
 20
211.0584519555402
 30
0.0
 11
-6.78953254474564
 21
211.0584519555402
 31
0.0
  0
LINE
  5
EC1
330
443
100
AcDbEntity
  8
2
100
AcDbLine
 10
-25.78953254474564
 20
210.0584519555402
 30
0.0
 11
-5.78953254474564
 21
210.0584519555403
 31
0.0
  0
LINE
  5
EC2
330
443
100
AcDbEntity
  8
2
100
AcDbLine
 10
-24.78953254474564
 20
209.0584519555402
 30
0.0
 11
-6.78953254474564
 21
209.0584519555402
 31
0.0
  0
ARC
  5
EC3
330
443
100
AcDbEntity
  8
0
100
AcDbCircle
 10
-19.28953254474608
 20
207.1296127288152
 30
0.0
 40
3.0
100
AcDbArc
 50
90.0
 51
180.0
  0
ARC
  5
EC4
330
443
100
AcDbEntity
  8
0
100
AcDbCircle
 10
-19.28953254474596
 20
201.0584519555402
 30
0.0
 40
3.0
100
AcDbArc
 50
180.0
 51
270.0
  0
LINE
  5
EC5
330
443
100
AcDbEntity
  8
0
100
AcDbLine
 10
-3.371458215639364
 20
208.3594925782001
 30
0.0
 11
-9.850416959579348
 21
199.3118222975415
 31
0.0
  0
LINE
  5
EC6
330
443
100
AcDbEntity
  8
0
100
AcDbLine
 10
-9.289532546531773
 20
201.0584519555402
 30
0.0
 11
-9.289532546531887
 21
207.1296127288152
 31
0.0
  0
LINE
  5
EC7
330
443
100
AcDbEntity
  8
0
100
AcDbLine
 10
-19.28953254474598
 20
198.0584519555402
 30
0.0
 11
-12.28953254653177
 21
198.0584519555402
 31
0.0
  0
ARC
  5
EC8
330
443
100
AcDbEntity
  8
0
100
AcDbCircle
 10
-12.28953254653176
 20
201.0584519555402
 30
0.0
 40
3.0
100
AcDbArc
 50
270.0
 51
0.0
  0
LINE
  5
EC9
330
443
100
AcDbEntity
  8
0
100
AcDbLine
 10
-0.9895325447455718
 20
204.0584519555402
 30
0.0
 11
-6.451396352840703
 21
204.0584519555402
 31
0.0
  0
ARC
  5
ECA
330
443
100
AcDbEntity
  8
0
100
AcDbCircle
 10
-0.9323426304735136
 20
206.6128629202014
 30
0.0
 40
3.0
100
AcDbArc
 50
68.79472711212699
 51
144.3938751729787
  0
LINE
  5
ECB
330
443
100
AcDbEntity
  8
0
100
AcDbLine
 10
0.2104674552543599
 20
205.2584519555401
 30
0.0
 11
0.2104674552543599
 21
209.385151003779
 31
0.0
  0
LINE
  5
ECC
330
443
100
AcDbEntity
  8
0
100
AcDbLine
 10
0.2104674552543599
 20
205.2584519555401
 30
0.0
 11
-5.592086690623233
 21
205.2584519555401
 31
0.0
  0
LINE
  5
ECD
330
443
100
AcDbEntity
  8
0
100
AcDbLine
 10
-0.9895325447455718
 20
204.0584519555402
 30
0.0
 11
0.2104674552543599
 21
205.2584519555401
 31
0.0
  0
LINE
  5
ECE
330
443
100
AcDbEntity
  8
2
100
AcDbLine
 10
-6.78953254474564
 20
209.0584519555401
 30
0.0
 11
-5.78953254474564
 21
210.05845195554
 31
0.0
  0
LINE
  5
ECF
330
443
100
AcDbEntity
  8
2
100
AcDbLine
 10
-5.789532544745526
 20
204.2844898767395
 30
0.0
 11
-5.78953254474564
 21
210.0584519555403
 31
0.0
  0
ARC
  5
ED0
330
443
100
AcDbEntity
  8
0
100
AcDbCircle
 10
-12.28953254653187
 20
207.1296127288152
 30
0.0
 40
3.0
100
AcDbArc
 50
0.0
 51
90.0
  0
LINE
  5
ED1
330
443
100
AcDbEntity
  8
0
100
AcDbLine
 10
-12.28953254653188
 20
210.1296127288152
 30
0.0
 11
-19.28953254474609
 21
210.1296127288152
 31
0.0
  0
LINE
  5
ED2
330
443
100
AcDbEntity
  8
2
100
AcDbLine
 10
-6.78953254474564
 20
210.0584519555402
 30
0.0
 11
-6.78953254474564
 21
211.0584519555402
 31
0.0
  0
LINE
  5
ED3
330
443
100
AcDbEntity
  8
0
100
AcDbLine
 10
-28.2076068738518
 20
208.3594925782001
 30
0.0
 11
-21.72864812991193
 21
199.3118222975415
 31
0.0
  0
LINE
  5
ED4
330
443
100
AcDbEntity
  8
0
100
AcDbLine
 10
-22.28953254474598
 20
201.0584519555402
 30
0.0
 11
-22.28953254474609
 21
207.1296127288152
 31
0.0
  0
ARC
  5
ED5
330
443
100
AcDbEntity
  8
0
100
AcDbCircle
 10
-30.64672245901773
 20
206.6128629202014
 30
0.0
 40
3.0
100
AcDbArc
 50
35.60612482702121
 51
111.2052728878729
  0
LINE
  5
ED6
330
443
100
AcDbEntity
  8
2
100
AcDbLine
 10
-24.78953254474564
 20
209.0584519555402
 30
0.0
 11
-25.78953254474564
 21
210.0584519555402
 31
0.0
  0
LINE
  5
ED7
330
443
100
AcDbEntity
  8
2
100
AcDbLine
 10
-25.78953254474552
 20
204.2844898767394
 30
0.0
 11
-25.78953254474564
 21
210.0584519555402
 31
0.0
  0
LINE
  5
ED8
330
443
100
AcDbEntity
  8
0
100
AcDbLine
 10
-30.58953254474571
 20
204.0584519555402
 30
0.0
 11
-25.12766873665046
 21
204.0584519555402
 31
0.0
  0
LINE
  5
ED9
330
443
100
AcDbEntity
  8
0
100
AcDbLine
 10
-31.78953254474564
 20
205.2584519555401
 30
0.0
 11
-25.98697839886793
 21
205.2584519555401
 31
0.0
  0
LINE
  5
EDA
330
443
100
AcDbEntity
  8
0
100
AcDbLine
 10
-31.78953254474564
 20
205.2584519555401
 30
0.0
 11
-31.78953254474564
 21
209.385151003779
 31
0.0
  0
LINE
  5
EDB
330
443
100
AcDbEntity
  8
0
100
AcDbLine
 10
-30.58953254474571
 20
204.0584519555402
 30
0.0
 11
-31.78953254474564
 21
205.2584519555401
 31
0.0
  0
LINE
  5
EDC
330
443
100
AcDbEntity
  8
2
100
AcDbLine
 10
-24.78953254474564
 20
210.0584519555402
 30
0.0
 11
-24.78953254474564
 21
211.0584519555402
 31
0.0
  0
LINE
  5
EDD
330
443
100
AcDbEntity
  8
0
100
AcDbLine
 10
-25.78953254474564
 20
241.0584519555402
 30
0.0
 11
-5.78953254474564
 21
241.0584519555402
 31
0.0
  0
LINE
  5
EDE
330
443
100
AcDbEntity
  8
2
100
AcDbLine
 10
-22.70703254474566
 20
239.9759519555402
 30
0.0
 11
-8.872032544745621
 21
239.9759519555403
 31
0.0
  0
LINE
  5
EDF
330
443
100
AcDbEntity
  8
0
100
AcDbLine
 10
-32.78953254474564
 20
240.7584519555401
 30
0.0
 11
1.210467455254359
 21
240.7584519555401
 31
0.0
  0
LINE
  5
EE0
330
443
100
AcDbEntity
  8
0
100
AcDbLine
 10
2.210467455254359
 20
239.7584519555401
 30
0.0
 11
-33.78953254474564
 21
239.7584519555401
 31
0.0
  0
LINE
  5
EE1
330
443
100
AcDbEntity
  8
0
100
AcDbLine
 10
-28.36376203226715
 20
224.05845195554
 30
0.0
 11
-3.21530305722436
 21
224.05845195554
 31
0.0
  0
LINE
  5
EE2
330
443
100
AcDbEntity
  8
0
100
AcDbLine
 10
2.210467455254359
 20
225.3413825389504
 30
0.0
 11
2.210467455254359
 21
239.7584519555401
 31
0.0
  0
ARC
  5
EE3
330
443
100
AcDbEntity
  8
0
100
AcDbCircle
 10
4.210467455254374
 20
225.3413825389504
 30
0.0
 40
2.0
100
AcDbArc
 50
180.0
 51
245.3575258463266
  0
ARC
  5
EE4
330
443
100
AcDbEntity
  8
0
100
AcDbCircle
 10
0.6246878105257423
 20
219.8350098139415
 30
0.0
 40
3.0
100
AcDbArc
 50
65.35752584632667
 51
147.7979801608546
  0
LINE
  5
EE5
330
443
100
AcDbEntity
  8
0
100
AcDbLine
 10
1.210467455254359
 20
240.7584519555402
 30
0.0
 11
2.210467455254359
 21
239.7584519555401
 31
0.0
  0
LINE
  5
EE6
330
443
100
AcDbEntity
  8
0
100
AcDbLine
 10
-5.78953254474564
 20
240.7584519555401
 30
0.0
 11
-5.78953254474564
 21
241.0584519555402
 31
0.0
  0
LINE
  5
EE7
330
443
100
AcDbEntity
  8
2
100
AcDbLine
 10
-7.78953254474564
 20
241.0584519555402
 30
0.0
 11
-8.872032544745621
 21
239.9759519555403
 31
0.0
  0
LINE
  5
EE8
330
443
100
AcDbEntity
  8
0
100
AcDbLine
 10
-33.78953254474586
 20
225.3413825389503
 30
0.0
 11
-33.78953254474564
 21
239.7584519555401
 31
0.0
  0
ARC
  5
EE9
330
443
100
AcDbEntity
  8
0
100
AcDbCircle
 10
-35.78953254474585
 20
225.3413825389503
 30
0.0
 40
2.0
100
AcDbArc
 50
294.6424741536734
 51
0.0
  0
ARC
  5
EEA
330
443
100
AcDbEntity
  8
0
100
AcDbCircle
 10
-32.2037529000171
 20
219.8350098139415
 30
0.0
 40
3.0
100
AcDbArc
 50
32.20201983914538
 51
114.6424741536733
  0
LINE
  5
EEB
330
443
100
AcDbEntity
  8
0
100
AcDbLine
 10
-25.78953254474564
 20
240.7584519555401
 30
0.0
 11
-25.78953254474564
 21
241.0584519555402
 31
0.0
  0
LINE
  5
EEC
330
443
100
AcDbEntity
  8
2
100
AcDbLine
 10
-23.78953254474564
 20
241.0584519555402
 30
0.0
 11
-22.70703254474566
 21
239.9759519555403
 31
0.0
  0
LINE
  5
EED
330
443
100
AcDbEntity
  8
0
100
AcDbLine
 10
-33.78953254474564
 20
239.7584519555401
 30
0.0
 11
-32.78953254474564
 21
240.7584519555401
 31
0.0
  0
LINE
  5
EEE
330
443
100
AcDbEntity
  8
0
100
AcDbLine
 10
-61.97334788814058
 20
201.0584519555402
 30
0.0
 11
-61.97334788814069
 21
208.2052168536995
 31
0.0
  0
LINE
  5
EEF
330
443
100
AcDbEntity
  8
0
100
AcDbLine
 10
-61.97334788814046
 20
201.0584519555402
 30
0.0
 11
-61.97334788814046
 21
208.2052168536995
 31
0.0
  0
ARC
  5
EF0
330
443
100
AcDbEntity
  8
0
100
AcDbCircle
 10
-58.97334788814055
 20
201.0584519555402
 30
0.0
 40
3.0
100
AcDbArc
 50
180.0
 51
291.2053408102259
  0
ARC
  5
EF1
330
443
100
AcDbEntity
  8
0
100
AcDbCircle
 10
-58.97334788814067
 20
208.2052168536996
 30
0.0
 40
3.0
100
AcDbArc
 50
114.6424741536733
 51
180.0
  0
ARC
  5
EF2
330
443
100
AcDbEntity
  8
0
100
AcDbCircle
 10
-58.97334788814044
 20
208.2052168536996
 30
0.0
 40
3.0
100
AcDbArc
 50
114.6424741536733
 51
180.0
  0
ENDSEC
  0
SECTION
  2
OBJECTS
  0
DICTIONARY
  5
431
330
0
100
AcDbDictionary
281
     1
  3
ACAD_GROUP
350
432
  3
ACAD_LAYOUT
350
43E
  3
ACAD_MLINESTYLE
350
43B
  3
ACAD_PLOTSETTINGS
350
43D
  3
ACAD_PLOTSTYLENAME
350
433
  3
AcDbVariableDictionary
350
86D
  3
AcmDictionary
350
828
  3
AMG
350
76D
  3
AMGSNAPSETTINGS
350
870
  3
DWGPROPS
350
CFD
  3
MAPISURF_MODULE
350
7FA
  0
DICTIONARY
  5
866
330
443
100
AcDbDictionary
280
     1
281
     1
  3
ACAD_INDEX
360
867
  0
DICTIONARY
  5
432
102
{ACAD_REACTORS
330
431
102
}
330
431
100
AcDbDictionary
281
     1
  0
DICTIONARY
  5
43E
102
{ACAD_REACTORS
330
431
102
}
330
431
100
AcDbDictionary
281
     1
  3
Model
350
446
  3
ﾚｲｱｳﾄ1
350
442
  0
DICTIONARY
  5
43B
102
{ACAD_REACTORS
330
431
102
}
330
431
100
AcDbDictionary
281
     1
  3
Standard
350
43C
  0
DICTIONARY
  5
43D
102
{ACAD_REACTORS
330
431
102
}
330
431
100
AcDbDictionary
281
     1
  0
ACDBDICTIONARYWDFLT
  5
433
102
{ACAD_REACTORS
330
431
102
}
330
431
100
AcDbDictionary
281
     1
  3
Normal
350
434
100
AcDbDictionaryWithDefault
340
434
  0
DICTIONARY
  5
86D
102
{ACAD_REACTORS
330
431
102
}
330
431
100
AcDbDictionary
281
     1
  3
DIMASSOC
350
86F
  3
INDEXCTL
350
86E
  0
DICTIONARY
  5
828
102
{ACAD_REACTORS
330
431
102
}
330
431
100
AcDbDictionary
281
     1
  3
AcmBOMDATA
350
829
  3
AcmStdDictionary
350
837
  0
DICTIONARY
  5
76D
102
{ACAD_REACTORS
330
431
102
}
330
431
100
AcDbDictionary
281
     1
  3
AcMgSettings
350
76E
  3
AMGLAYCFG
350
839
  0
DICTIONARY
  5
870
102
{ACAD_REACTORS
330
431
102
}
330
431
100
AcDbDictionary
281
     1
  3
DIMENSION
350
875
  3
FEA
350
874
  3
HATCH (1)
350
871
  3
HATCH (2)
350
872
  3
SIMPLE WELD
350
876
  3
SYMBOLS
350
873
  0
XRECORD
  5
CFD
102
{ACAD_REACTORS
330
431
102
}
330
431
100
AcDbXrecord
280
     1
  1
DWGPROPS COOKIE
  2

  3

  4

  6

  7

  8

  9

300
AmdtFileType=84
301
=
302
=
303
=
304
=
305
=
306
=
307
=
308
=
309
=
 40
0.0455831597222222
 41
2452125.683722997
 42
2454700.618285764
  1

 90
        1
  0
DICTIONARY
  5
867
102
{ACAD_REACTORS
330
866
102
}
330
866
100
AcDbDictionary
281
     1
  3
*A1
350
868
  0
LAYOUT
  5
446
102
{ACAD_REACTORS
330
43E
102
}
330
43E
100
AcDbPlotSettings
  1

  2
EPSON PM-3700C
  4

  6

 40
0.0
 41
0.0
 42
0.0
 43
0.0
 44
0.0
 45
0.0
 46
0.0
 47
0.0
 48
0.0
 49
0.0
140
0.0
141
0.0
142
1.0
143
1.0
 70
  1712
 72
     0
 73
     0
 74
     0
  7

 75
     0
147
1.0
148
0.0
149
0.0
100
AcDbLayout
  1
Model
 70
     1
 71
     0
 10
0.0
 20
0.0
 11
12.0
 21
9.0
 12
0.0
 22
0.0
 32
0.0
 14
0.0
 24
0.0
 34
0.0
 15
0.0
 25
0.0
 35
0.0
146
0.0
 13
0.0
 23
0.0
 33
0.0
 16
1.0
 26
0.0
 36
0.0
 17
0.0
 27
1.0
 37
0.0
 76
     0
330
443
  0
LAYOUT
  5
442
102
{ACAD_REACTORS
330
43E
102
}
330
43E
100
AcDbPlotSettings
  1

  2
EPSON PM-3700C
  4

  6

 40
0.0
 41
0.0
 42
0.0
 43
0.0
 44
0.0
 45
0.0
 46
0.0
 47
0.0
 48
0.0
 49
0.0
140
0.0
141
0.0
142
1.0
143
1.0
 70
   688
 72
     0
 73
     0
 74
     5
  7

 75
    16
147
1.0
148
0.0
149
0.0
100
AcDbLayout
  1
ﾚｲｱｳﾄ1
 70
     1
 71
     1
 10
0.0
 20
0.0
 11
420.0
 21
297.0
 12
0.0
 22
0.0
 32
0.0
 14
1.000000000000000E+20
 24
1.000000000000000E+20
 34
1.000000000000000E+20
 15
-1.000000000000000E+20
 25
-1.000000000000000E+20
 35
-1.000000000000000E+20
146
0.0
 13
0.0
 23
0.0
 33
0.0
 16
1.0
 26
0.0
 36
0.0
 17
0.0
 27
1.0
 37
0.0
 76
     0
330
43F
  0
MLINESTYLE
  5
43C
102
{ACAD_REACTORS
330
43B
102
}
330
43B
100
AcDbMlineStyle
  2
STANDARD
 70
     0
  3

 62
   256
 51
90.0
 52
90.0
 71
     2
 49
0.5
 62
   256
  6
BYLAYER
 49
-0.5
 62
   256
  6
BYLAYER
  0
ACDBPLACEHOLDER
  5
434
102
{ACAD_REACTORS
330
433
102
}
330
433
  0
DICTIONARYVAR
  5
86F
102
{ACAD_REACTORS
330
86D
102
}
330
86D
100
DictionaryVariables
280
     0
  1
1
  0
DICTIONARYVAR
  5
86E
102
{ACAD_REACTORS
330
86D
102
}
330
86D
100
DictionaryVariables
280
     0
  1
1
  0
ACMDATADICTIONARY
  5
829
102
{ACAD_REACTORS
330
828
102
}
330
828
100
AcDbDictionary
281
     1
  3
*A1
350
82A
100
AcmDataDictionary
  0
DICTIONARY
  5
837
102
{ACAD_REACTORS
330
828
102
}
330
828
100
AcDbDictionary
281
     1
  3
ANSI
350
838
  0
DICTIONARY
  5
76E
102
{ACAD_REACTORS
330
76D
102
}
330
76D
100
AcDbDictionary
281
     1
  3
DWGSETTINGS
350
76F
  3
TRANSSETTINGS
350
773
  0
ACAMGFILTERDAT
  5
875
102
{ACAD_REACTORS
330
870
102
}
330
870
100
AcAmgFilterDat
 70
    15
  1
DIMENSION,AMDT_*_DIM
  2
*
  3
*
  4
*
  5
*
290
     1
  0
ACAMGFILTERDAT
  5
874
102
{ACAD_REACTORS
330
870
102
}
330
870
100
AcAmgFilterDat
 70
    15
  1
*
  2
AM_FEA-AM_*
  3
*
  4
*
  5
*
290
     1
  0
ACAMGFILTERDAT
  5
871
102
{ACAD_REACTORS
330
870
102
}
330
870
100
AcAmgFilterDat
 70
    15
  1
HATCH
  2
*
  3
*
  4
*
  5
*
290
     1
  0
ACAMGFILTERDAT
  5
872
102
{ACAD_REACTORS
330
870
102
}
330
870
100
AcAmgFilterDat
 70
    15
  1
LINE
  2
8,8N,*-8,*-8N,AM_8,AM_8N,*-AM_8,*-AM_8N
  3
*
  4
*
  5
INSERT,STDPART2D
290
     1
  0
ACAMGFILTERDAT
  5
876
102
{ACAD_REACTORS
330
870
102
}
330
870
100
AcAmgFilterDat
 70
    15
  1
ARC
  2
AM_5
  3
*
  4
2
  5
INSERT
290
     0
  0
ACAMGFILTERDAT
  5
873
102
{ACAD_REACTORS
330
870
102
}
330
870
100
AcAmgFilterDat
 70
    15
  1
ACMFCFRAME,ACMDATUMTARGET,ACMDATUMID,ACMWELDSYM,ACMSURFSYM,ACMFEATID,ACMPARTREF,ACMBALLOON,AMDTEDGESYM,AMGSCREWCALCTABLE
  2
*
  3
*
  4
*
  5
*
290
     1
  0
LAYER_INDEX
  5
868
102
{ACAD_REACTORS
330
867
102
}
330
867
100
AcDbIndex
 40
2454700.619443356
100
AcDbLayerIndex
  8
0
360
869
 90
      187
  8
1
360
86A
 90
        5
  8
DEFPOINTS
360
86B
 90
        0
  8
3
360
AA7
 90
        1
  8
2
360
AA8
 90
       55
  0
ACMDATAENTRYBLOCK
  5
82A
102
{ACAD_REACTORS
330
829
102
}
330
829
100
AcmDataEntry
100
AcmDataEntryBlock
  0
IDBUFFER
  5
869
330
0
100
AcDbIdBuffer
330
DFB
330
DFD
330
DFE
330
DFF
330
E00
330
E01
330
E02
330
E03
330
E05
330
E06
330
E07
330
E08
330
E09
330
E0A
330
E0B
330
E0C
330
E0D
330
E0E
330
E0F
330
E10
330
E11
330
E12
330
E13
330
E14
330
E15
330
E16
330
E18
330
E19
330
E1A
330
E1B
330
E1C
330
E1D
330
E1E
330
E1F
330
E20
330
E21
330
E22
330
E23
330
E24
330
E25
330
E26
330
E27
330
E28
330
E29
330
E2A
330
E2B
330
E2C
330
E2D
330
E2E
330
E2F
330
E30
330
E31
330
E32
330
E39
330
E3B
330
E3C
330
E3D
330
E3E
330
E3F
330
E40
330
E41
330
E42
330
E43
330
E49
330
E4A
330
E4E
330
E50
330
E51
330
E52
330
E53
330
E54
330
E55
330
E56
330
E57
330
E58
330
E59
330
E5A
330
E5B
330
E5C
330
E5D
330
E5E
330
E5F
330
E61
330
E62
330
E64
330
E66
330
E67
330
E68
330
E69
330
E6A
330
E6B
330
E6C
330
E6D
330
E6E
330
E6F
330
E70
330
E71
330
E72
330
E73
330
E74
330
E75
330
E76
330
E77
330
E78
330
E79
330
E7A
330
E7B
330
E7C
330
E7D
330
E7E
330
E7F
330
E80
330
E81
330
E82
330
E83
330
E84
330
E8C
330
E8D
330
E91
330
E98
330
E99
330
E9B
330
E9C
330
E9D
330
E9E
330
E9F
330
EA1
330
EA3
330
EA5
330
EA6
330
EA7
330
EA8
330
EA9
330
EAA
330
EAB
330
EAC
330
EAD
330
EAE
330
EAF
330
EB0
330
EB1
330
EB2
330
EB3
330
EB4
330
EBB
330
EBC
330
EBD
330
EBE
330
EC3
330
EC4
330
EC5
330
EC6
330
EC7
330
EC8
330
EC9
330
ECA
330
ECB
330
ECC
330
ECD
330
ED0
330
ED1
330
ED3
330
ED4
330
ED5
330
ED8
330
ED9
330
EDA
330
EDB
330
EDD
330
EDF
330
EE0
330
EE1
330
EE2
330
EE3
330
EE4
330
EE5
330
EE6
330
EE8
330
EE9
330
EEA
330
EEB
330
EED
330
EEE
330
EEF
330
EF0
330
EF1
330
EF2
  0
IDBUFFER
  5
86A
330
0
100
AcDbIdBuffer
330
E04
330
E17
330
E3A
330
E8B
330
EBF
  0
IDBUFFER
  5
86B
330
0
100
AcDbIdBuffer
  0
IDBUFFER
  5
AA7
330
0
100
AcDbIdBuffer
330
DFC
  0
IDBUFFER
  5
AA8
330
0
100
AcDbIdBuffer
330
E33
330
E34
330
E35
330
E36
330
E37
330
E38
330
E44
330
E45
330
E46
330
E47
330
E48
330
E4B
330
E4C
330
E4D
330
E4F
330
E60
330
E63
330
E65
330
E85
330
E86
330
E87
330
E88
330
E89
330
E8A
330
E8E
330
E8F
330
E90
330
E92
330
E93
330
E94
330
E95
330
E96
330
E97
330
E9A
330
EA0
330
EA2
330
EA4
330
EB5
330
EB6
330
EB7
330
EB8
330
EB9
330
EBA
330
EC0
330
EC1
330
EC2
330
ECE
330
ECF
330
ED2
330
ED6
330
ED7
330
EDC
330
EDE
330
EE7
330
EEC
  0
ENDSEC
  0
EOF
