  0
SECTION
  2
HEADER
  9
$ACADVER
  1
AC1014
  9
$ACADMAINTVER
 70
     0
  9
$DWGCODEPAGE
  3
ANSI_932
  9
$INSBASE
 10
0.0
 20
0.0
 30
0.0
  9
$EXTMIN
 10
50.0
 20
71.0
 30
0.0
  9
$EXTMAX
 10
173.998772
 20
108.0
 30
0.0
  9
$LIMMIN
 10
0.0
 20
0.0
  9
$LIMMAX
 10
250.0
 20
160.0
  9
$ORTHOMODE
 70
     0
  9
$REGENMODE
 70
     1
  9
$FILLMODE
 70
     1
  9
$QTEXTMODE
 70
     0
  9
$MIRRTEXT
 70
     1
  9
$DRAGMODE
 70
     0
  9
$LTSCALE
 40
10.0
  9
$OSMODE
 70
     0
  9
$ATTMODE
 70
     1
  9
$TEXTSIZE
 40
5.5
  9
$TRACEWID
 40
0.05
  9
$TEXTSTYLE
  7
BIGFONT
  9
$CLAYER
  8
0
  9
$CELTYPE
  6
BYLAYER
  9
$CECOLOR
 62
   256
  9
$CELTSCALE
 40
1.0
  9
$DELOBJ
 70
     1
  9
$DISPSILH
 70
     0
  9
$DIMSCALE
 40
1.0
  9
$DIMASZ
 40
3.0
  9
$DIMEXO
 40
2.0
  9
$DIMDLI
 40
0.38
  9
$DIMRND
 40
0.0
  9
$DIMDLE
 40
0.0
  9
$DIMEXE
 40
2.0
  9
$DIMTP
 40
0.0
  9
$DIMTM
 40
0.0
  9
$DIMTXT
 40
3.2
  9
$DIMCEN
 40
0.09
  9
$DIMTSZ
 40
0.0
  9
$DIMTOL
 70
     0
  9
$DIMLIM
 70
     0
  9
$DIMTIH
 70
     0
  9
$DIMTOH
 70
     0
  9
$DIMSE1
 70
     0
  9
$DIMSE2
 70
     0
  9
$DIMTAD
 70
     1
  9
$DIMZIN
 70
     0
  9
$DIMBLK
  1

  9
$DIMASO
 70
     0
  9
$DIMSHO
 70
     0
  9
$DIMPOST
  1

  9
$DIMAPOST
  1

  9
$DIMALT
 70
     0
  9
$DIMALTD
 70
     2
  9
$DIMALTF
 40
25.4
  9
$DIMLFAC
 40
1.0
  9
$DIMTOFL
 70
     0
  9
$DIMTVP
 40
0.0
  9
$DIMTIX
 70
     0
  9
$DIMSOXD
 70
     0
  9
$DIMSAH
 70
     0
  9
$DIMBLK1
  1

  9
$DIMBLK2
  1

  9
$DIMSTYLE
  2
STANDARD
  9
$DIMCLRD
 70
     0
  9
$DIMCLRE
 70
     0
  9
$DIMCLRT
 70
     0
  9
$DIMTFAC
 40
1.0
  9
$DIMGAP
 40
0.09
  9
$DIMJUST
 70
     0
  9
$DIMSD1
 70
     0
  9
$DIMSD2
 70
     0
  9
$DIMTOLJ
 70
     1
  9
$DIMTZIN
 70
     0
  9
$DIMALTZ
 70
     0
  9
$DIMALTTZ
 70
     0
  9
$DIMFIT
 70
     5
  9
$DIMUPT
 70
     0
  9
$DIMUNIT
 70
     2
  9
$DIMDEC
 70
     4
  9
$DIMTDEC
 70
     4
  9
$DIMALTU
 70
     2
  9
$DIMALTTD
 70
     2
  9
$DIMTXSTY
  7
BIGFONT
  9
$DIMAUNIT
 70
     0
  9
$LUNITS
 70
     2
  9
$LUPREC
 70
     4
  9
$SKETCHINC
 40
0.1
  9
$FILLETRAD
 40
0.0
  9
$AUNITS
 70
     0
  9
$AUPREC
 70
     0
  9
$MENU
  1
ACAD
  9
$ELEVATION
 40
0.0
  9
$PELEVATION
 40
0.0
  9
$THICKNESS
 40
0.0
  9
$LIMCHECK
 70
     0
  9
$BLIPMODE
 70
     0
  9
$CHAMFERA
 40
0.0
  9
$CHAMFERB
 40
0.0
  9
$CHAMFERC
 40
0.0
  9
$CHAMFERD
 40
0.0
  9
$SKPOLY
 70
     0
  9
$TDCREATE
 40
2450868.768172685
  9
$TDUPDATE
 40
2453594.571727604
  9
$TDINDWG
 40
0.0001014468
  9
$TDUSRTIMER
 40
0.0001014468
  9
$USRTIMER
 70
     1
  9
$ANGBASE
 50
0.0
  9
$ANGDIR
 70
     0
  9
$PDMODE
 70
     0
  9
$PDSIZE
 40
0.0
  9
$PLINEWID
 40
0.0
  9
$COORDS
 70
     2
  9
$SPLFRAME
 70
     0
  9
$SPLINETYPE
 70
     6
  9
$SPLINESEGS
 70
     8
  9
$ATTDIA
 70
     0
  9
$ATTREQ
 70
     1
  9
$HANDLING
 70
     1
  9
$HANDSEED
  5
132
  9
$SURFTAB1
 70
     6
  9
$SURFTAB2
 70
     6
  9
$SURFTYPE
 70
     6
  9
$SURFU
 70
     6
  9
$SURFV
 70
     6
  9
$UCSNAME
  2

  9
$UCSORG
 10
0.0
 20
0.0
 30
0.0
  9
$UCSXDIR
 10
1.0
 20
0.0
 30
0.0
  9
$UCSYDIR
 10
0.0
 20
1.0
 30
0.0
  9
$PUCSNAME
  2

  9
$PUCSORG
 10
0.0
 20
0.0
 30
0.0
  9
$PUCSXDIR
 10
1.0
 20
0.0
 30
0.0
  9
$PUCSYDIR
 10
0.0
 20
1.0
 30
0.0
  9
$USERI1
 70
     0
  9
$USERI2
 70
     0
  9
$USERI3
 70
     0
  9
$USERI4
 70
     0
  9
$USERI5
 70
     0
  9
$USERR1
 40
0.0
  9
$USERR2
 40
0.0
  9
$USERR3
 40
0.0
  9
$USERR4
 40
0.0
  9
$USERR5
 40
0.0
  9
$WORLDVIEW
 70
     1
  9
$SHADEDGE
 70
     3
  9
$SHADEDIF
 70
    70
  9
$TILEMODE
 70
     1
  9
$MAXACTVP
 70
    16
  9
$PINSBASE
 10
0.0
 20
0.0
 30
0.0
  9
$PLIMCHECK
 70
     0
  9
$PEXTMIN
 10
1.000000E+20
 20
1.000000E+20
 30
1.000000E+20
  9
$PEXTMAX
 10
-1.000000E+20
 20
-1.000000E+20
 30
-1.000000E+20
  9
$PLIMMIN
 10
0.0
 20
0.0
  9
$PLIMMAX
 10
12.0
 20
9.0
  9
$UNITMODE
 70
     0
  9
$VISRETAIN
 70
     0
  9
$PLINEGEN
 70
   205
  9
$PSLTSCALE
 70
     0
  9
$TREEDEPTH
 70
  3020
  9
$PICKSTYLE
 70
     1
  9
$CMLSTYLE
  2
STANDARD
  9
$CMLJUST
 70
     0
  9
$CMLSCALE
 40
1.0
  9
$PROXYGRAPHICS
 70
     1
  9
$MEASUREMENT
 70
     0
  0
ENDSEC
  0
SECTION
  2
CLASSES
  0
CLASS
  1
DICTIONARYVAR
  2
AcDbDictionaryVar
  3
"AutoCAD"
 90
        0
280
     0
281
     0
  0
ENDSEC
  0
SECTION
  2
TABLES
  0
TABLE
  2
VPORT
  5
107
100
AcDbSymbolTable
 70
     3
  0
VPORT
  5
131
100
AcDbSymbolTableRecord
100
AcDbViewportTableRecord
  2
*ACTIVE
 70
     0
 10
0.0
 20
0.0
 11
1.0
 21
1.0
 12
141.889764
 22
98.881727
 13
0.0
 23
0.0
 14
5.0
 24
5.0
 15
10.0
 25
10.0
 16
0.0
 26
0.0
 36
1.0
 17
0.0
 27
0.0
 37
0.0
 40
197.763453
 41
1.434944
 42
50.0
 43
0.0
 44
0.0
 50
0.0
 51
0.0
 71
     0
 72
   500
 73
     1
 74
     1
 75
     1
 76
     1
 77
     0
 78
     1
  0
ENDTAB
  0
TABLE
  2
LTYPE
  5
104
100
AcDbSymbolTable
 70
     3
  0
LTYPE
  5
110
100
AcDbSymbolTableRecord
100
AcDbLinetypeTableRecord
  2
BYBLOCK
 70
     0
  3

 72
    65
 73
     0
 40
0.0
  0
LTYPE
  5
111
100
AcDbSymbolTableRecord
100
AcDbLinetypeTableRecord
  2
BYLAYER
 70
     0
  3

 72
    65
 73
     0
 40
0.0
  0
LTYPE
  5
112
100
AcDbSymbolTableRecord
100
AcDbLinetypeTableRecord
  2
CONTINUOUS
 70
     0
  3
Solid line
 72
    65
 73
     0
 40
0.0
  0
LTYPE
  5
11E
100
AcDbSymbolTableRecord
100
AcDbLinetypeTableRecord
  2
CENTER
 70
     0
  3
____ _ ____ _ ____ _ ____ _ ____ _ ____ _ ____
 72
    65
 73
     4
 40
2.0
 49
1.25
 74
     0
 49
-0.25
 74
     0
 49
0.25
 74
     0
 49
-0.25
 74
     0
  0
LTYPE
  5
11F
100
AcDbSymbolTableRecord
100
AcDbLinetypeTableRecord
  2
HIDDEN
 70
     0
  3
_ _ _ _ _ _ _ _ _ _ _ _ _ _ _ _ _ _ _ _ _ _ _
 72
    65
 73
     2
 40
0.375
 49
0.25
 74
     0
 49
-0.125
 74
     0
  0
ENDTAB
  0
TABLE
  2
LAYER
  5
101
100
AcDbSymbolTable
 70
     5
  0
LAYER
  5
10D
100
AcDbSymbolTableRecord
100
AcDbLayerTableRecord
  2
0
 70
     0
 62
     7
  6
CONTINUOUS
  0
LAYER
  5
124
100
AcDbSymbolTableRecord
100
AcDbLayerTableRecord
  2
1
 70
     0
 62
     1
  6
CENTER
  0
LAYER
  5
125
100
AcDbSymbolTableRecord
100
AcDbLayerTableRecord
  2
2
 70
     0
 62
     2
  6
HIDDEN
  0
LAYER
  5
126
100
AcDbSymbolTableRecord
100
AcDbLayerTableRecord
  2
10
 70
     0
 62
     7
  6
CONTINUOUS
  0
LAYER
  5
127
100
AcDbSymbolTableRecord
100
AcDbLayerTableRecord
  2
11
 70
     0
 62
     3
  6
CONTINUOUS
  0
ENDTAB
  0
TABLE
  2
STYLE
  5
102
100
AcDbSymbolTable
 70
     3
  0
STYLE
  5
10E
100
AcDbSymbolTableRecord
100
AcDbTextStyleTableRecord
  2
STANDARD
 70
     0
 40
0.0
 41
1.0
 50
0.0
 71
     0
 42
0.2
  3
TXT
  4
BIGFONT
  0
STYLE
  5
11C
100
AcDbSymbolTableRecord
100
AcDbTextStyleTableRecord
  2
07500
 70
     0
 40
0.0
 41
0.75
 50
0.0
 71
     0
 42
4.0
  3
TXT
  4
BIGFONT
  0
STYLE
  5
11D
100
AcDbSymbolTableRecord
100
AcDbTextStyleTableRecord
  2
BIGFONT
 70
     0
 40
5.5
 41
0.8
 50
0.0
 71
     0
 42
5.5
  3

  4
bigfont
  0
ENDTAB
  0
TABLE
  2
VIEW
  5
105
100
AcDbSymbolTable
 70
     1
  0
VIEW
  5
120
100
AcDbSymbolTableRecord
100
AcDbViewTableRecord
  2
ALL
 70
     0
 40
270.0
 10
220.991597
 20
135.0
 41
0.0
 11
0.0
 21
0.0
 31
1.0
 12
0.0
 22
0.0
 32
0.0
 42
0.0
 43
0.0
 44
0.0
 50
0.0
 71
     0
  0
ENDTAB
  0
TABLE
  2
UCS
  5
106
100
AcDbSymbolTable
 70
     0
  0
ENDTAB
  0
TABLE
  2
APPID
  5
108
100
AcDbSymbolTable
 70
     1
  0
APPID
  5
10F
100
AcDbSymbolTableRecord
100
AcDbRegAppTableRecord
  2
ACAD
 70
     0
  0
ENDTAB
  0
TABLE
  2
DIMSTYLE
  5
109
100
AcDbSymbolTable
 70
     1
  0
DIMSTYLE
105
123
100
AcDbSymbolTableRecord
100
AcDbDimStyleTableRecord
  2
STANDARD
 70
     0
  3

  4

  5

  6

  7

 40
1.0
 41
0.18
 42
0.0625
 43
0.38
 44
0.18
 45
0.0
 46
0.0
 47
0.0
 48
0.0
140
0.18
141
0.09
142
0.0
143
25.4
144
1.0
145
0.0
146
1.0
147
0.09
 71
     0
 72
     0
 73
     1
 74
     1
 75
     0
 76
     0
 77
     0
 78
     0
170
     0
171
     2
172
     0
173
     0
174
     0
175
     0
176
     0
177
     0
178
     0
270
     2
271
     4
272
     4
273
     2
274
     2
340
11D
275
     0
280
     0
281
     0
282
     0
283
     1
284
     0
285
     0
286
     0
287
     5
288
     0
  0
ENDTAB
  0
TABLE
  2
BLOCK_RECORD
  5
100
100
AcDbSymbolTable
 70
     1
  0
BLOCK_RECORD
  5
116
100
AcDbSymbolTableRecord
100
AcDbBlockTableRecord
  2
*MODEL_SPACE
  0
BLOCK_RECORD
  5
113
100
AcDbSymbolTableRecord
100
AcDbBlockTableRecord
  2
*PAPER_SPACE
  0
BLOCK_RECORD
  5
11B
100
AcDbSymbolTableRecord
100
AcDbBlockTableRecord
  2
QQ
  0
ENDTAB
  0
ENDSEC
  0
SECTION
  2
BLOCKS
  0
BLOCK
  5
12A
100
AcDbEntity
  8
0
100
AcDbBlockBegin
  2
*MODEL_SPACE
 70
     0
 10
0.0
 20
0.0
 30
0.0
  3
*MODEL_SPACE
  1

  0
ENDBLK
  5
12B
100
AcDbEntity
  8
0
100
AcDbBlockEnd
  0
BLOCK
  5
128
100
AcDbEntity
 67
     1
  8
0
100
AcDbBlockBegin
  2
*PAPER_SPACE
 70
     0
 10
0.0
 20
0.0
 30
0.0
  3
*PAPER_SPACE
  1

  0
ENDBLK
  5
129
100
AcDbEntity
 67
     1
  8
0
100
AcDbBlockEnd
  0
BLOCK
  5
2C
100
AcDbEntity
  8
0
100
AcDbBlockBegin
  2
QQ
 70
     0
 10
270.0
 20
0.0
 30
0.0
  3
QQ
  1

  0
LINE
  5
2D
100
AcDbEntity
  8
11
100
AcDbLine
 10
173.0
 20
36.0
 30
0.0
 11
270.0
 21
36.0
 31
0.0
  0
TEXT
  5
2E
100
AcDbEntity
  8
11
100
AcDbText
 10
175.0
 20
32.5
 30
0.0
 40
2.5
  1
部品名称
100
AcDbText
  0
LINE
  5
2F
100
AcDbEntity
  8
11
100
AcDbLine
 10
173.0
 20
36.0
 30
0.0
 11
173.0
 21
0.0
 31
0.0
  0
LINE
  5
30
100
AcDbEntity
  8
11
100
AcDbLine
 10
173.0
 20
24.0
 30
0.0
 11
270.0
 21
24.0
 31
0.0
  0
TEXT
  5
31
100
AcDbEntity
  8
11
100
AcDbText
 10
175.0
 20
20.5
 30
0.0
 40
2.5
  1
品番
100
AcDbText
  0
LINE
  5
32
100
AcDbEntity
  8
11
100
AcDbLine
 10
173.0
 20
12.0
 30
0.0
 11
270.0
 21
12.0
 31
0.0
  0
TEXT
  5
33
100
AcDbEntity
  8
11
100
AcDbText
 10
175.0
 20
8.5
 30
0.0
 40
2.5
  1
尺度
100
AcDbText
  0
TEXT
  5
34
100
AcDbEntity
  8
11
100
AcDbText
 10
200.0
 20
8.5
 30
0.0
 40
2.5
  1
図番
100
AcDbText
  0
LINE
  5
35
100
AcDbEntity
  8
11
100
AcDbLine
 10
198.0
 20
0.0
 30
0.0
 11
198.0
 21
12.0
 31
0.0
  0
ENDBLK
  5
36
100
AcDbEntity
  8
0
100
AcDbBlockEnd
  0
ENDSEC
  0
SECTION
  2
ENTITIES
  0
LINE
  5
3E
100
AcDbEntity
  8
1
100
AcDbLine
 10
50.0
 20
90.0
 30
0.0
 11
91.0
 21
90.0
 31
0.0
  0
LINE
  5
3F
100
AcDbEntity
  8
1
100
AcDbLine
 10
70.0
 20
108.0
 30
0.0
 11
70.0
 21
71.0
 31
0.0
  0
ARC
  5
40
100
AcDbEntity
  8
0
100
AcDbCircle
 10
69.985758
 20
60.674915
 30
0.0
 40
19.330997
100
AcDbArc
 50
63.44805
 51
116.55195
  0
ARC
  5
41
100
AcDbEntity
  8
0
100
AcDbCircle
 10
43.918463
 20
104.960855
 30
0.0
 40
20.118698
100
AcDbArc
 50
304.603808
 51
355.872159
  0
ARC
  5
42
100
AcDbEntity
  8
0
100
AcDbCircle
 10
73.721049
 20
102.428716
 30
0.0
 40
2.503543
100
AcDbArc
 50
25.472701
 51
72.029545
  0
ARC
  5
43
100
AcDbEntity
  8
0
100
AcDbCircle
 10
70.023911
 20
90.520758
 30
0.0
 40
14.97207
100
AcDbArc
 50
72.630926
 51
107.562512
  0
ARC
  5
44
100
AcDbEntity
  8
0
100
AcDbCircle
 10
82.211151
 20
87.029479
 30
0.0
 40
2.934486
100
AcDbArc
 50
349.116744
 51
30.587726
  0
ARC
  5
45
100
AcDbEntity
  8
0
100
AcDbCircle
 10
69.988509
 20
90.026577
 30
0.0
 40
15.501077
100
AcDbArc
 50
193.216847
 51
226.992117
  0
LINE
  5
46
100
AcDbEntity
  8
0
100
AcDbLine
 10
75.981285
 20
103.505328
 30
0.0
 11
75.984453
 21
103.500093
 31
0.0
  0
ARC
  5
47
100
AcDbEntity
  8
0
100
AcDbCircle
 10
96.735409
 20
105.582612
 30
0.0
 40
20.851862
100
AcDbArc
 50
185.758206
 51
234.804512
  0
ARC
  5
48
100
AcDbEntity
  8
0
100
AcDbCircle
 10
75.958834
 20
103.482849
 30
0.0
 40
0.030931
100
AcDbArc
 50
14.436619
 51
31.420369
  0
LINE
  5
49
100
AcDbEntity
  8
0
100
AcDbLine
 10
75.985228
 20
103.498971
 30
0.0
 11
75.984449
 21
103.500094
 31
0.0
  0
ARC
  5
4A
100
AcDbEntity
  8
0
100
AcDbCircle
 10
84.662631
 20
88.468412
 30
0.0
 40
0.092088
100
AcDbArc
 50
35.786089
 51
53.725514
  0
ARC
  5
4B
100
AcDbEntity
  8
0
100
AcDbCircle
 10
78.711062
 20
80.652943
 30
0.0
 40
2.704686
100
AcDbArc
 50
269.951545
 51
313.427315
  0
ARC
  5
4C
100
AcDbEntity
  8
0
100
AcDbCircle
 10
78.700714
 20
78.101602
 30
0.0
 40
0.153517
100
AcDbArc
 50
241.270867
 51
273.089278
  0
ARC
  5
4D
100
AcDbEntity
  8
0
100
AcDbCircle
 10
70.624722
 20
89.683398
 30
0.0
 40
14.819514
100
AcDbArc
 50
312.295848
 51
347.498238
  0
LINE
  5
4E
100
AcDbEntity
  8
0
100
AcDbLine
 10
80.570436
 20
78.688664
 30
0.0
 11
80.597752
 21
78.721795
 31
0.0
  0
ARC
  5
4F
100
AcDbEntity
  8
0
100
AcDbCircle
 10
61.050424
 20
80.130173
 30
0.0
 40
2.180155
100
AcDbArc
 50
221.041678
 51
278.031332
  0
ARC
  5
50
100
AcDbEntity
  8
0
100
AcDbCircle
 10
56.886333
 20
87.031324
 30
0.0
 40
2.063545
100
AcDbArc
 50
138.534198
 51
195.410741
  0
ARC
  5
51
100
AcDbEntity
  8
0
100
AcDbCircle
 10
65.913368
 20
102.746018
 30
0.0
 40
2.080807
100
AcDbArc
 50
101.123139
 51
158.584558
  0
LINE
  5
52
100
AcDbEntity
  8
1
100
AcDbLine
 10
110.998772
 20
90.008358
 30
0.0
 11
173.998772
 21
90.008358
 31
0.0
  0
LINE
  5
53
100
AcDbEntity
  8
0
100
AcDbLine
 10
120.998772
 20
105.508358
 30
0.0
 11
117.998772
 21
105.508358
 31
0.0
  0
LINE
  5
54
100
AcDbEntity
  8
0
100
AcDbLine
 10
117.998772
 20
105.508358
 30
0.0
 11
116.998772
 21
105.508358
 31
0.0
  0
ARC
  5
55
100
AcDbEntity
  8
0
100
AcDbCircle
 10
148.332105
 20
90.258358
 30
0.0
 40
35.334218
100
AcDbArc
 50
156.215874
 51
195.632941
  0
LINE
  5
56
100
AcDbEntity
  8
0
100
AcDbLine
 10
120.998772
 20
78.008358
 30
0.0
 11
116.998772
 21
78.008358
 31
0.0
  0
ARC
  5
57
100
AcDbEntity
  8
0
100
AcDbCircle
 10
117.58441
 20
103.92272
 30
0.0
 40
1.690331
100
AcDbArc
 50
110.271154
 51
159.728846
  0
ARC
  5
58
100
AcDbEntity
  8
0
100
AcDbCircle
 10
121.031525
 20
104.541111
 30
0.0
 40
0.967801
100
AcDbArc
 50
358.060573
 51
91.939427
  0
LINE
  5
59
100
AcDbEntity
  8
0
100
AcDbLine
 10
121.998772
 20
104.508358
 30
0.0
 11
121.998772
 21
79.008358
 31
0.0
  0
ARC
  5
5A
100
AcDbEntity
  8
0
100
AcDbCircle
 10
120.822049
 20
79.18508
 30
0.0
 40
1.189919
100
AcDbArc
 50
278.540956
 51
351.459044
  0
ARC
  5
5B
100
AcDbEntity
  8
0
100
AcDbCircle
 10
118.389305
 20
82.063349
 30
0.0
 40
4.286786
100
AcDbArc
 50
199.766248
 51
251.072184
  0
LINE
  5
5C
100
AcDbEntity
  8
0
100
AcDbLine
 10
114.355094
 20
80.613346
 30
0.0
 11
114.304783
 21
80.737627
 31
0.0
  0
LINE
  5
5D
100
AcDbEntity
  8
0
100
AcDbLine
 10
121.998772
 20
97.508358
 30
0.0
 11
129.998772
 21
97.508358
 31
0.0
  0
LINE
  5
5E
100
AcDbEntity
  8
0
100
AcDbLine
 10
130.998772
 20
96.508358
 30
0.0
 11
130.998772
 21
83.508358
 31
0.0
  0
LINE
  5
5F
100
AcDbEntity
  8
0
100
AcDbLine
 10
129.998772
 20
82.508358
 30
0.0
 11
121.998772
 21
82.508358
 31
0.0
  0
LINE
  5
60
100
AcDbEntity
  8
0
100
AcDbLine
 10
155.998772
 20
92.008358
 30
0.0
 11
155.998772
 21
88.008358
 31
0.0
  0
ARC
  5
61
100
AcDbEntity
  8
0
100
AcDbCircle
 10
130.000184
 20
96.50977
 30
0.0
 40
0.998589
100
AcDbArc
 50
359.918961
 51
90.081039
  0
ARC
  5
62
100
AcDbEntity
  8
0
100
AcDbCircle
 10
129.988256
 20
83.518874
 30
0.0
 40
1.01057
100
AcDbArc
 50
270.596218
 51
359.403782
  0
LINE
  5
63
100
AcDbEntity
  8
0
100
AcDbLine
 10
120.998772
 20
81.008358
 30
0.0
 11
120.998772
 21
85.508358
 31
0.0
  0
ARC
  5
64
100
AcDbEntity
  8
0
100
AcDbCircle
 10
125.498772
 20
83.008358
 30
0.0
 40
9.013878
100
AcDbArc
 50
160.559965
 51
199.440035
  0
LINE
  5
65
100
AcDbEntity
  8
0
100
AcDbLine
 10
120.998772
 20
102.008358
 30
0.0
 11
120.998772
 21
90.508358
 31
0.0
  0
LINE
  5
66
100
AcDbEntity
  8
0
100
AcDbLine
 10
120.498772
 20
103.008358
 30
0.0
 11
117.998772
 21
103.008358
 31
0.0
  0
ARC
  5
67
100
AcDbEntity
  8
0
100
AcDbCircle
 10
130.998772
 20
95.508358
 30
0.0
 40
15.508062
100
AcDbArc
 50
159.227745
 51
200.772255
  0
LINE
  5
97
100
AcDbEntity
  8
0
100
AcDbLine
 10
117.998772
 20
88.008358
 30
0.0
 11
120.498772
 21
88.008358
 31
0.0
  0
LINE
  5
BA
100
AcDbEntity
  8
0
100
AcDbLine
 10
130.998772
 20
94.008358
 30
0.0
 11
154.998772
 21
94.008358
 31
0.0
  0
LINE
  5
BB
100
AcDbEntity
  8
0
100
AcDbLine
 10
154.998772
 20
94.008358
 30
0.0
 11
155.998772
 21
93.008358
 31
0.0
  0
LINE
  5
BC
100
AcDbEntity
  8
0
100
AcDbLine
 10
155.998772
 20
93.008358
 30
0.0
 11
155.998772
 21
92.008358
 31
0.0
  0
LINE
  5
BD
100
AcDbEntity
  8
0
100
AcDbLine
 10
155.998772
 20
88.008358
 30
0.0
 11
155.998772
 21
87.008358
 31
0.0
  0
LINE
  5
BE
100
AcDbEntity
  8
0
100
AcDbLine
 10
155.998772
 20
87.008358
 30
0.0
 11
154.998772
 21
86.008358
 31
0.0
  0
LINE
  5
BF
100
AcDbEntity
  8
0
100
AcDbLine
 10
154.998772
 20
86.008358
 30
0.0
 11
130.998772
 21
86.008358
 31
0.0
  0
LINE
  5
C0
100
AcDbEntity
  8
0
100
AcDbLine
 10
130.998772
 20
93.008358
 30
0.0
 11
155.998772
 21
93.008358
 31
0.0
  0
LINE
  5
C1
100
AcDbEntity
  8
0
100
AcDbLine
 10
155.998772
 20
87.008358
 30
0.0
 11
130.998772
 21
87.008358
 31
0.0
  0
LINE
  5
C2
100
AcDbEntity
  8
0
100
AcDbLine
 10
154.998772
 20
94.008358
 30
0.0
 11
154.998772
 21
86.008358
 31
0.0
  0
ENDSEC
  0
SECTION
  2
OBJECTS
  0
DICTIONARY
  5
10B
100
AcDbDictionary
  3
ACAD_GROUP
350
10C
  3
ACAD_MLINESTYLE
350
119
  3
ACDBVARIABLEDICTIONARY
350
12C
  0
DICTIONARY
  5
10C
102
{ACAD_REACTORS
330
10B
102
}
100
AcDbDictionary
  0
DICTIONARY
  5
119
102
{ACAD_REACTORS
330
10B
102
}
100
AcDbDictionary
  3
STANDARD
350
11A
  0
DICTIONARY
  5
12C
102
{ACAD_REACTORS
330
10B
102
}
100
AcDbDictionary
  3
DIMADEC
350
12D
  0
MLINESTYLE
  5
11A
102
{ACAD_REACTORS
330
119
102
}
100
AcDbMlineStyle
  2
STANDARD
 70
     0
  3

 62
   256
 51
90.0
 52
90.0
 71
     2
 49
0.5
 62
   256
  6
BYLAYER
 49
-0.5
 62
   256
  6
BYLAYER
  0
DICTIONARYVAR
  5
12D
102
{ACAD_REACTORS
330
12C
102
}
100
DictionaryVariables
280
     0
  1
0
  0
ENDSEC
  0
EOF
