  0
SECTION
  2
HEADER
  9
$ACADVER
  1
AC1015
  9
$ACADMAINTVER
 70
    13
  9
$DWGCODEPAGE
  3
ANSI_932
  9
$INSBASE
 10
0.0
 20
0.0
 30
0.0
  9
$EXTMIN
 10
0.0
 20
0.0
 30
0.0
  9
$EXTMAX
 10
375.0
 20
270.0
 30
0.0
  9
$LIMMIN
 10
0.0
 20
0.0
  9
$LIMMAX
 10
375.0
 20
270.0
  9
$ORTHOMODE
 70
     1
  9
$REGENMODE
 70
     1
  9
$FILLMODE
 70
     1
  9
$QTEXTMODE
 70
     0
  9
$MIRRTEXT
 70
     1
  9
$LTSCALE
 40
10.0
  9
$ATTMODE
 70
     1
  9
$TEXTSIZE
 40
5.5
  9
$TRACEWID
 40
0.05
  9
$TEXTSTYLE
  7
BIGFONT
  9
$CLAYER
  8
0
  9
$CELTYPE
  6
ByLayer
  9
$CECOLOR
 62
   256
  9
$CELTSCALE
 40
1.0
  9
$DISPSILH
 70
     0
  9
$DIMSCALE
 40
1.0
  9
$DIMASZ
 40
3.0
  9
$DIMEXO
 40
2.0
  9
$DIMDLI
 40
0.3799999999999999
  9
$DIMRND
 40
0.0
  9
$DIMDLE
 40
0.0
  9
$DIMEXE
 40
2.0
  9
$DIMTP
 40
0.0
  9
$DIMTM
 40
0.0
  9
$DIMTXT
 40
3.2
  9
$DIMCEN
 40
0.09
  9
$DIMTSZ
 40
0.0
  9
$DIMTOL
 70
     0
  9
$DIMLIM
 70
     0
  9
$DIMTIH
 70
     0
  9
$DIMTOH
 70
     0
  9
$DIMSE1
 70
     0
  9
$DIMSE2
 70
     0
  9
$DIMTAD
 70
     1
  9
$DIMZIN
 70
     0
  9
$DIMBLK
  1

  9
$DIMASO
 70
     0
  9
$DIMSHO
 70
     0
  9
$DIMPOST
  1

  9
$DIMAPOST
  1

  9
$DIMALT
 70
     0
  9
$DIMALTD
 70
     2
  9
$DIMALTF
 40
25.4
  9
$DIMLFAC
 40
1.0
  9
$DIMTOFL
 70
     0
  9
$DIMTVP
 40
0.0
  9
$DIMTIX
 70
     0
  9
$DIMSOXD
 70
     0
  9
$DIMSAH
 70
     0
  9
$DIMBLK1
  1

  9
$DIMBLK2
  1

  9
$DIMSTYLE
  2
STANDARD
  9
$DIMCLRD
 70
     0
  9
$DIMCLRE
 70
     0
  9
$DIMCLRT
 70
     0
  9
$DIMTFAC
 40
1.0
  9
$DIMGAP
 40
0.09
  9
$DIMJUST
 70
     0
  9
$DIMSD1
 70
     0
  9
$DIMSD2
 70
     0
  9
$DIMTOLJ
 70
     1
  9
$DIMTZIN
 70
     0
  9
$DIMALTZ
 70
     0
  9
$DIMALTTZ
 70
     0
  9
$DIMUPT
 70
     0
  9
$DIMDEC
 70
     4
  9
$DIMTDEC
 70
     4
  9
$DIMALTU
 70
     2
  9
$DIMALTTD
 70
     2
  9
$DIMTXSTY
  7
STANDARD
  9
$DIMAUNIT
 70
     0
  9
$DIMADEC
 70
     0
  9
$DIMALTRND
 40
0.0
  9
$DIMAZIN
 70
     0
  9
$DIMDSEP
 70
    46
  9
$DIMATFIT
 70
     3
  9
$DIMFRAC
 70
     0
  9
$DIMLDRBLK
  1

  9
$DIMLUNIT
 70
     2
  9
$DIMLWD
 70
    -2
  9
$DIMLWE
 70
    -2
  9
$DIMTMOVE
 70
     0
  9
$LUNITS
 70
     2
  9
$LUPREC
 70
     4
  9
$SKETCHINC
 40
0.1
  9
$FILLETRAD
 40
0.0
  9
$AUNITS
 70
     0
  9
$AUPREC
 70
     0
  9
$MENU
  1
ACAD
  9
$ELEVATION
 40
0.0
  9
$PELEVATION
 40
0.0
  9
$THICKNESS
 40
0.0
  9
$LIMCHECK
 70
     0
  9
$CHAMFERA
 40
0.0
  9
$CHAMFERB
 40
0.0
  9
$CHAMFERC
 40
0.0
  9
$CHAMFERD
 40
0.0
  9
$SKPOLY
 70
     0
  9
$TDCREATE
 40
2450683.630243055
  9
$TDUCREATE
 40
2450683.255243055
  9
$TDUPDATE
 40
2456449.385880162
  9
$TDUUPDATE
 40
2456449.010880162
  9
$TDINDWG
 40
0.0014340972
  9
$TDUSRTIMER
 40
0.0014339236
  9
$USRTIMER
 70
     1
  9
$ANGBASE
 50
0.0
  9
$ANGDIR
 70
     0
  9
$PDMODE
 70
     0
  9
$PDSIZE
 40
0.0
  9
$PLINEWID
 40
0.0
  9
$SPLFRAME
 70
     0
  9
$SPLINETYPE
 70
     6
  9
$SPLINESEGS
 70
     8
  9
$HANDSEED
  5
1A2
  9
$SURFTAB1
 70
     6
  9
$SURFTAB2
 70
     6
  9
$SURFTYPE
 70
     6
  9
$SURFU
 70
     6
  9
$SURFV
 70
     6
  9
$UCSBASE
  2

  9
$UCSNAME
  2

  9
$UCSORG
 10
0.0
 20
0.0
 30
0.0
  9
$UCSXDIR
 10
1.0
 20
0.0
 30
0.0
  9
$UCSYDIR
 10
0.0
 20
1.0
 30
0.0
  9
$UCSORTHOREF
  2

  9
$UCSORTHOVIEW
 70
     0
  9
$UCSORGTOP
 10
0.0
 20
0.0
 30
0.0
  9
$UCSORGBOTTOM
 10
0.0
 20
0.0
 30
0.0
  9
$UCSORGLEFT
 10
0.0
 20
0.0
 30
0.0
  9
$UCSORGRIGHT
 10
0.0
 20
0.0
 30
0.0
  9
$UCSORGFRONT
 10
0.0
 20
0.0
 30
0.0
  9
$UCSORGBACK
 10
0.0
 20
0.0
 30
0.0
  9
$PUCSBASE
  2

  9
$PUCSNAME
  2

  9
$PUCSORG
 10
0.0
 20
0.0
 30
0.0
  9
$PUCSXDIR
 10
1.0
 20
0.0
 30
0.0
  9
$PUCSYDIR
 10
0.0
 20
1.0
 30
0.0
  9
$PUCSORTHOREF
  2

  9
$PUCSORTHOVIEW
 70
     0
  9
$PUCSORGTOP
 10
0.0
 20
0.0
 30
0.0
  9
$PUCSORGBOTTOM
 10
0.0
 20
0.0
 30
0.0
  9
$PUCSORGLEFT
 10
0.0
 20
0.0
 30
0.0
  9
$PUCSORGRIGHT
 10
0.0
 20
0.0
 30
0.0
  9
$PUCSORGFRONT
 10
0.0
 20
0.0
 30
0.0
  9
$PUCSORGBACK
 10
0.0
 20
0.0
 30
0.0
  9
$USERI1
 70
     0
  9
$USERI2
 70
     0
  9
$USERI3
 70
     0
  9
$USERI4
 70
     0
  9
$USERI5
 70
     0
  9
$USERR1
 40
0.0
  9
$USERR2
 40
0.0
  9
$USERR3
 40
0.0
  9
$USERR4
 40
0.0
  9
$USERR5
 40
0.0
  9
$WORLDVIEW
 70
     1
  9
$SHADEDGE
 70
     3
  9
$SHADEDIF
 70
    70
  9
$TILEMODE
 70
     1
  9
$MAXACTVP
 70
    16
  9
$PINSBASE
 10
0.0
 20
0.0
 30
0.0
  9
$PLIMCHECK
 70
     0
  9
$PEXTMIN
 10
1.000000000000000E+20
 20
1.000000000000000E+20
 30
1.000000000000000E+20
  9
$PEXTMAX
 10
-1.000000000000000E+20
 20
-1.000000000000000E+20
 30
-1.000000000000000E+20
  9
$PLIMMIN
 10
0.0
 20
0.0
  9
$PLIMMAX
 10
12.0
 20
9.0
  9
$UNITMODE
 70
     0
  9
$VISRETAIN
 70
     0
  9
$PLINEGEN
 70
     1
  9
$PSLTSCALE
 70
     0
  9
$TREEDEPTH
 70
  3020
  9
$CMLSTYLE
  2
Standard
  9
$CMLJUST
 70
     0
  9
$CMLSCALE
 40
1.0
  9
$PROXYGRAPHICS
 70
     1
  9
$MEASUREMENT
 70
     0
  9
$CELWEIGHT
370
    -1
  9
$ENDCAPS
280
     0
  9
$JOINSTYLE
280
     0
  9
$LWDISPLAY
290
     0
  9
$INSUNITS
 70
     0
  9
$HYPERLINKBASE
  1

  9
$STYLESHEET
  1

  9
$XEDIT
290
     1
  9
$CEPSNTYPE
380
     0
  9
$PSTYLEMODE
290
     1
  9
$FINGERPRINTGUID
  2
{DF8662B0-366E-4583-A65E-262809FC1814}
  9
$VERSIONGUID
  2
{04846ED6-E51F-4075-BDD0-F64B4208D0D8}
  9
$EXTNAMES
290
     1
  9
$PSVPSCALE
 40
0.0
  9
$OLESTARTUP
290
     0
  0
ENDSEC
  0
SECTION
  2
CLASSES
  0
CLASS
  1
ACDBDICTIONARYWDFLT
  2
AcDbDictionaryWithDefault
  3
AutoCAD 2000
 90
        0
280
     0
281
     0
  0
CLASS
  1
ACDBPLACEHOLDER
  2
AcDbPlaceHolder
  3
AutoCAD 2000
 90
        0
280
     0
281
     0
  0
CLASS
  1
LAYOUT
  2
AcDbLayout
  3
AutoCAD 2000
 90
        0
280
     0
281
     0
  0
CLASS
  1
AMGSETTINGSOBJ
  2
AmgSettingsObj
  3
"AcadM|Product Description: AutoCAD Mechanical 2000|Company: Autodesk"
 90
        0
280
     0
281
     0
  0
CLASS
  1
ACME_DOCUMENT
  2
AcMeDbDoc
  3
AcMeServices
 90
        0
280
     0
281
     0
  0
CLASS
  1
ACMESCOPE
  2
AcMeScope
  3
AcMeServices
 90
        0
280
     0
281
     0
  0
CLASS
  1
ACMECOMMANDHISTORY
  2
AcMeCommandHistory
  3
AcMeServices
 90
        0
280
     0
281
     0
  0
CLASS
  1
ACIMSYSVARMAN
  2
AcImSysVarManager
  3
AcMeServices
 90
        0
280
     0
281
     0
  0
CLASS
  1
ACIMREALSYSVAR
  2
AcImRealSysVar
  3
AcMeServices
 90
        0
280
     0
281
     0
  0
CLASS
  1
ACIMINTSYSVAR
  2
AcImIntSysVar
  3
AcMeServices
 90
        0
280
     0
281
     0
  0
CLASS
  1
ACMEDRAWINGMAN
  2
AcMeDrawingMan
  3
AcMeServices
 90
        0
280
     0
281
     0
  0
CLASS
  1
ACMEVIEW
  2
AcMeView
  3
AcMeServices
 90
        0
280
     0
281
     0
  0
CLASS
  1
ACDBENTITYCACHE
  2
AcMeEntityCache
  3
AcMeServices
 90
        0
280
     0
281
     0
  0
CLASS
  1
GSMANAGER
  2
AcMeGSManager
  3
AcMeServices
 90
        0
280
     0
281
     0
  0
CLASS
  1
AMDTINTERNALREACTOR
  2
AmdtInternalReactor
  3
AcMeServices
 90
        0
280
     0
281
     0
  0
CLASS
  1
ACMESTATEMGR
  2
AcMeStateMgr
  3
AcMeServices
 90
        0
280
     0
281
     0
  0
CLASS
  1
ACGREFMASTER
  2
AcGrefMaster
  3
AcAttribServices
 90
        0
280
     0
281
     0
  0
CLASS
  1
AM_DRAWING_MGR
  2
AcDmDwgMgr
  3
AcMechDwgViewMgmt
 90
        0
280
     0
281
     0
  0
CLASS
  1
AM_DWG_DOCUMENT
  2
AcDmDwgDocument
  3
AcMechDwgViewMgmt
 90
        0
280
     0
281
     0
  0
CLASS
  1
AM_DWG_SHEET
  2
AcDmSheet
  3
AcMechDwgViewMgmt
 90
        0
280
     0
281
     0
  0
CLASS
  1
AM_VIEWDIMPARMAP
  2
AcDmViewDimParMap
  3
AcMechDwgViewMgmt
 90
        0
280
     0
281
     0
  0
CLASS
  1
AM_DWGMGR_NAME
  2
AcDmDwgMgrName
  3
AcMechDwgViewMgmt
 90
        0
280
     0
281
     0
  0
CLASS
  1
ACME_DATABASE
  2
AcMeDbDatabase
  3
AcMeServices
 90
        0
280
     0
281
     0
  0
CLASS
  1
ACRFINSADJUSTERMGR
  2
AcRfInsAdjusterMgr
  3
AcMeServices
 90
        0
280
     0
281
     0
  0
CLASS
  1
ACGREFACADMASTER
  2
AcGrefacadMaster
  3
AcGrefServices
 90
        0
280
     0
281
     0
  0
CLASS
  1
AMDTMENUSTATEMGR
  2
AmdtMenuStateMgr
  3
McadcomServices
 90
        0
280
     0
281
     0
  0
CLASS
  1
AMDTMCOMMENUSTATE
  2
AmdtMcomMenuState
  3
McadcomServices
 90
        0
280
     0
281
     0
  0
CLASS
  1
AMIMASTER
  2
AmiMaster
  3
AmiServices
 90
        0
280
     0
281
     0
  0
CLASS
  1
ASAPP
  2
AcAsAppObject
  3
AutoSurfServices
 90
        0
280
     0
281
     0
  0
CLASS
  1
IM_STATIC_MAN
  2
AcImStaticVarManager
  3
AcMeServices
 90
        0
280
     0
281
     0
  0
CLASS
  1
ACIMSTRSYSVAR
  2
AcImStrSysVar
  3
AcMeServices
 90
        0
280
     0
281
     0
  0
CLASS
  1
ACIMDBLSTATICVAR
  2
AcImDblStaticVar
  3
AcMeServices
 90
        0
280
     0
281
     0
  0
CLASS
  1
ACIMSTRSTATICVAR
  2
AcImStrStaticVar
  3
AcMeServices
 90
        0
280
     0
281
     0
  0
CLASS
  1
ACIMINTSTATICVAR
  2
AcImIntStaticVar
  3
AcMeServices
 90
        0
280
     0
281
     0
  0
CLASS
  1
ACASGREFMASTER
  2
AcAsGrefMaster
  3
AutoSurfResolverServices
 90
        0
280
     0
281
     0
  0
CLASS
  1
ACADGREFMODULE
  2
AcAdGrefModule
  3
AdGrefServices
 90
        0
280
     0
281
     0
  0
CLASS
  1
AMDTMAPISURFMOUDULE
  2
AmdtMApiSurfModule
  3
MApiSurfServices
 90
        0
280
     0
281
     0
  0
CLASS
  1
MAPIAMMOUDLE
  2
MApiAmModule
  3
MApiAmServices
 90
        0
280
     0
281
     0
  0
CLASS
  1
AMDTADMENUSTATE
  2
AmdtAdMenuState
  3
DesignerServices
 90
        0
280
     0
281
     0
  0
CLASS
  1
ADAPPL
  2
AcAdAppl
  3
DesignerServices
 90
        0
280
     0
281
     0
  0
CLASS
  1
DEPMGR
  2
AcAdDepMgr
  3
DesignerServices
 90
        0
280
     0
281
     0
  0
CLASS
  1
PARAMMGR
  2
AcAdParamMgr
  3
DesignerServices
 90
        0
280
     0
281
     0
  0
CLASS
  1
PARAMSCOPE
  2
AcAdParamScope
  3
DesignerServices
 90
        0
280
     0
281
     0
  0
CLASS
  1
NAMEDAPPL
  2
AcAdNamedAppl
  3
DesignerServices
 90
        0
280
     0
281
     0
  0
CLASS
  1
AMDTDMMENUSTATE
  2
AmdtDmMenuState
  3
AcMechDwgViewMgmt
 90
        0
280
     0
281
     0
  0
CLASS
  1
MAPIADMODULE
  2
MApiAdModule
  3
MApiAdServices
 90
        0
280
     0
281
     0
  0
CLASS
  1
AMDTAMMENUSTATE
  2
AmdtAmMenuState
  3
DesignerAssemblies
 90
        0
280
     0
281
     0
  0
CLASS
  1
ACAMPROJECT
  2
AcAmProject
  3
DesignerAssemblies
 90
        0
280
     0
281
     0
  0
CLASS
  1
ACAMGRCOMPDEF
  2
AcAmGrCompDef
  3
DesignerAssemblies
 90
        0
280
     0
281
     0
  0
CLASS
  1
ACCMCONTEXT
  2
AcCmContext
  3
DesignerAssemblies
 90
        0
280
     0
281
     0
  0
CLASS
  1
ACAMCOMPDEF
  2
AcAmCompDef
  3
DesignerAssemblies
 90
        0
280
     0
281
     0
  0
CLASS
  1
ACAMCOMPDEFMGR
  2
AcAmCompDefMgr
  3
DesignerAssemblies
 90
        0
280
     0
281
     0
  0
CLASS
  1
AMCONTEXTMGR
  2
AcAmContextMgr
  3
DesignerAssemblies
 90
        0
280
     0
281
     0
  0
CLASS
  1
ACAMCONTEXTMODELER
  2
AcAmContextModeler
  3
DesignerAssemblies
 90
        0
280
     0
281
     0
  0
CLASS
  1
ACMDATADICTIONARY
  2
AcmDataDictionary
  3
"AcmSymBB|Product Description: AutoCAD Mechanical 2000|Company: Autodesk"
 90
        0
280
     0
281
     0
  0
CLASS
  1
ACMDATAENTRYBLOCK
  2
AcmDataEntryBlock
  3
"AcmSymBB|Product Description: AutoCAD Mechanical 2000|Company: Autodesk"
 90
        0
280
     0
281
     0
  0
CLASS
  1
CATALOGSTATE
  2
AcAmCatalogState
  3
DesignerAssemblies
 90
        0
280
     0
281
     0
  0
CLASS
  1
ACAMGRCOMPDEFSET
  2
AcAmGrCompDefSet
  3
DesignerAssemblies
 90
        0
280
     0
281
     0
  0
CLASS
  1
AMDTBROWSERDBTAB
  2
AmdtBrowserDbTab
  3
McadcomServices
 90
        0
280
     0
281
     0
  0
CLASS
  1
CBROWSERAPPOBJECT
  2
CBrowserAppObject
  3
McadcomServices
 90
        0
280
     0
281
     0
  0
CLASS
  1
DM_PLACEHOLDER
  2
AcDmSelsetPlaceholder
  3
AcMechDwgViewMgmt
 90
        0
280
     0
281
     0
  0
CLASS
  1
AMGOBJPROPCFG
  2
AmgObjPropCfg
  3
"AmgLay|Product Description: AutoCAD Mechanical 2000|Company: Autodesk"
 90
        1
280
     0
281
     0
  0
CLASS
  1
ACAMGFILTERDAT
  2
AcAmgFilterDat
  3
"AcadM|Product Description: AutoCAD Mechanical 2000|Company: Autodesk"
 90
        0
280
     0
281
     0
  0
CLASS
  1
LAYER_INDEX
  2
AcDbLayerIndex
  3
AutoCAD 2000
 90
        0
280
     0
281
     0
  0
CLASS
  1
IDBUFFER
  2
AcDbIdBuffer
  3
AutoCAD 2000
 90
        0
280
     0
281
     0
  0
CLASS
  1
DICTIONARYVAR
  2
AcDbDictionaryVar
  3
AutoCAD 2000
 90
        0
280
     0
281
     0
  0
ENDSEC
  0
SECTION
  2
TABLES
  0
TABLE
  2
VPORT
  5
8
330
0
100
AcDbSymbolTable
 70
     4
  0
VPORT
  5
1A1
330
8
100
AcDbSymbolTableRecord
100
AcDbViewportTableRecord
  2
*Active
 70
     0
 10
0.0
 20
0.0
 11
1.0
 21
1.0
 12
-28.05828295045328
 22
2.971882835805956
 13
0.0
 23
0.0
 14
0.5
 24
0.5
 15
1.0
 25
1.0
 16
0.0
 26
0.0
 36
1.0
 17
229.1116751269034
 27
153.7949312743092
 37
0.0
 40
184.6282148184967
 41
1.489721886336154
 42
50.0
 43
0.0
 44
0.0
 50
0.0
 51
0.0
 71
     0
 72
   500
 73
     1
 74
     1
 75
     0
 76
     0
 77
     0
 78
     1
281
     0
 65
     0
110
0.0
120
0.0
130
0.0
111
1.0
121
0.0
131
0.0
112
0.0
122
1.0
132
0.0
 79
     0
146
0.0
  0
ENDTAB
  0
TABLE
  2
LTYPE
  5
5
330
0
100
AcDbSymbolTable
 70
    17
  0
LTYPE
  5
13
330
5
100
AcDbSymbolTableRecord
100
AcDbLinetypeTableRecord
  2
ByBlock
 70
     0
  3

 72
    65
 73
     0
 40
0.0
  0
LTYPE
  5
14
330
5
100
AcDbSymbolTableRecord
100
AcDbLinetypeTableRecord
  2
ByLayer
 70
     0
  3

 72
    65
 73
     0
 40
0.0
  0
LTYPE
  5
15
330
5
100
AcDbSymbolTableRecord
100
AcDbLinetypeTableRecord
  2
CONTINUOUS
 70
     0
  3
Solid line
 72
    65
 73
     0
 40
0.0
  0
LTYPE
  5
23
330
5
100
AcDbSymbolTableRecord
100
AcDbLinetypeTableRecord
  2
BYLAYER
 70
     0
  3

 72
    65
 73
     0
 40
0.0
  0
LTYPE
  5
24
330
5
100
AcDbSymbolTableRecord
100
AcDbLinetypeTableRecord
  2
CENTER
 70
     0
  3
____ _ ____ _ ____ _ ____ _ ____ _ ____ _ ____
 72
    65
 73
     4
 40
2.0
 49
1.25
 74
     0
 49
-0.25
 74
     0
 49
0.25
 74
     0
 49
-0.25
 74
     0
  0
LTYPE
  5
DD
330
5
100
AcDbSymbolTableRecord
100
AcDbLinetypeTableRecord
  2
HIDDEN
 70
     0
  3
Hidden __ __ __ __ __ __ __ __ __ __ __ __ __ _
 72
    65
 73
     2
 40
0.375
 49
0.25
 74
     0
 49
-0.125
 74
     0
  0
LTYPE
  5
DE
330
5
100
AcDbSymbolTableRecord
100
AcDbLinetypeTableRecord
  2
PHANTOM2
 70
     0
  3
Phantom (.5x) ___ _ _ ___ _ _ ___ _ _ ___ _ _
 72
    65
 73
     6
 40
1.25
 49
0.625
 74
     0
 49
-0.125
 74
     0
 49
0.125
 74
     0
 49
-0.125
 74
     0
 49
0.125
 74
     0
 49
-0.125
 74
     0
  0
LTYPE
  5
140
330
5
100
AcDbSymbolTableRecord
100
AcDbLinetypeTableRecord
  2
ASULTYPE
 70
     0
  3
実線
 72
    65
 73
     2
 40
3.0
 49
2.5
 74
     0
 49
0.5
 74
     0
  0
LTYPE
  5
141
330
5
100
AcDbSymbolTableRecord
100
AcDbLinetypeTableRecord
  2
ASVLTYPE
 70
     0
  3
__ __ __ __ __ __ __ __ __ __ __ __ __ __ __ __ __ __ __ __ __
 72
    65
 73
     2
 40
0.75
 49
0.5
 74
     0
 49
-0.25
 74
     0
  0
LTYPE
  5
182
330
5
100
AcDbSymbolTableRecord
100
AcDbLinetypeTableRecord
  2
AM_ISO02W050
 70
     0
  3
__ __ __ __ __ __ __ __ __ __ __ __ __ __ __
 72
    65
 73
     2
 40
7.5
 49
6.0
 74
     0
 49
-1.5
 74
     0
  0
LTYPE
  5
183
330
5
100
AcDbSymbolTableRecord
100
AcDbLinetypeTableRecord
  2
AM_ISO08W050
 70
     0
  3
____ . ____ . ____ . ____ . ____ . ____ . ____
 72
    65
 73
     4
 40
18.0
 49
12.0
 74
     0
 49
-1.5
 74
     0
 49
3.0
 74
     0
 49
-1.5
 74
     0
  0
LTYPE
  5
184
330
5
100
AcDbSymbolTableRecord
100
AcDbLinetypeTableRecord
  2
AM_ISO09W050
 70
     0
  3
_____ . . _____ . . _____ . . ____ .. ____
 72
    65
 73
     6
 40
22.5
 49
12.0
 74
     0
 49
-1.5
 74
     0
 49
3.0
 74
     0
 49
-1.5
 74
     0
 49
3.0
 74
     0
 49
-1.5
 74
     0
  0
LTYPE
  5
185
330
5
100
AcDbSymbolTableRecord
100
AcDbLinetypeTableRecord
  2
Amconstr
 70
     0
  3
_______________________
 72
    65
 73
     2
 40
9999.0
 49
9999.0
 74
     0
 49
0.0
 74
     0
  0
LTYPE
  5
186
330
5
100
AcDbSymbolTableRecord
100
AcDbLinetypeTableRecord
  2
AM_ISO08W050x2
 70
     0
  3
__ . __ . __ . __ . __ . __
 72
    65
 73
     4
 40
9.0
 49
6.0
 74
     0
 49
-0.75
 74
     0
 49
1.5
 74
     0
 49
-0.75
 74
     0
  0
LTYPE
  5
187
330
5
100
AcDbSymbolTableRecord
100
AcDbLinetypeTableRecord
  2
AM_ISO02W050x2
 70
     0
  3
 _ _ _ _ _ _ _ _ _ _ _ _
 72
    65
 73
     2
 40
3.75
 49
3.0
 74
     0
 49
-0.75
 74
     0
  0
LTYPE
  5
18A
330
5
100
AcDbSymbolTableRecord
100
AcDbLinetypeTableRecord
  2
Amzigzag
 70
     0
  3
/\/-/\/-/\/-/\/-/\/-/\/
 72
    65
 73
     2
 40
11.00009999999999
 49
0.0001
 74
     4
 75
   135
340
189
 46
0.04
 50
0.0
 44
0.0
 45
0.0
 49
-11.0
 74
     0
  0
LTYPE
  5
18B
330
5
100
AcDbSymbolTableRecord
100
AcDbLinetypeTableRecord
  2
CENTER2
 70
     0
  3
Center (.5x) ___ _ ___ _ ___ _ ___ _ ___ _ ___
 72
    65
 73
     4
 40
1.125
 49
0.75
 74
     0
 49
-0.125
 74
     0
 49
0.125
 74
     0
 49
-0.125
 74
     0
  0
LTYPE
  5
18C
330
5
100
AcDbSymbolTableRecord
100
AcDbLinetypeTableRecord
  2
HIDDEN2
 70
     0
  3
Hidden (.5x) _ _ _ _ _ _ _ _ _ _ _ _ _ _ _ _ _
 72
    65
 73
     2
 40
0.1875
 49
0.125
 74
     0
 49
-0.0625
 74
     0
  0
LTYPE
  5
18D
330
5
100
AcDbSymbolTableRecord
100
AcDbLinetypeTableRecord
  2
Amzigzag2
 70
     0
  3
/\/-/\/-/\/-/\/-/\/-/\/
 72
    65
 73
     2
 40
0.4401
 49
0.0001
 74
     4
 75
   135
340
189
 46
0.0016
 50
0.0
 44
0.0
 45
0.0
 49
-0.4400000000000001
 74
     0
  0
ENDTAB
  0
TABLE
  2
LAYER
  5
2
330
0
100
AcDbSymbolTable
 70
     4
  0
LAYER
  5
10
330
2
100
AcDbSymbolTableRecord
100
AcDbLayerTableRecord
  2
0
 70
     0
 62
     7
  6
CONTINUOUS
370
    -3
390
F
  0
LAYER
  5
25
330
2
100
AcDbSymbolTableRecord
100
AcDbLayerTableRecord
  2
1
 70
     0
 62
     1
  6
CENTER
370
    -3
390
F
  0
LAYER
  5
26
330
2
100
AcDbSymbolTableRecord
100
AcDbLayerTableRecord
  2
10
 70
     0
 62
     7
  6
CONTINUOUS
370
    -3
390
F
  0
LAYER
  5
27
330
2
100
AcDbSymbolTableRecord
100
AcDbLayerTableRecord
  2
11
 70
     0
 62
     3
  6
CONTINUOUS
370
    -3
390
F
  0
ENDTAB
  0
TABLE
  2
STYLE
  5
3
330
0
100
AcDbSymbolTable
 70
     3
  0
STYLE
  5
11
330
3
100
AcDbSymbolTableRecord
100
AcDbTextStyleTableRecord
  2
STANDARD
 70
     0
 40
0.0
 41
1.0
 50
0.0
 71
     0
 42
0.2
  3
TXT
  4
BIGFONT
  0
STYLE
  5
22
330
3
100
AcDbSymbolTableRecord
100
AcDbTextStyleTableRecord
  2
BIGFONT
 70
     0
 40
5.5
 41
0.8
 50
0.0
 71
     0
 42
5.5
  3

  4
bigfont
  0
STYLE
  5
189
330
3
100
AcDbSymbolTableRecord
100
AcDbTextStyleTableRecord
  2

 70
     1
 40
0.0
 41
1.0
 50
0.0
 71
     0
 42
5.5
  3
ltypeshp.shx
  4

  0
ENDTAB
  0
TABLE
  2
VIEW
  5
6
330
0
100
AcDbSymbolTable
 70
     1
  0
VIEW
  5
29
330
6
100
AcDbSymbolTableRecord
100
AcDbViewTableRecord
  2
ALL
 70
     0
 40
270.0
 10
220.9915966386553
 20
135.0
 41
0.0
 11
0.0
 21
0.0
 31
1.0
 12
0.0
 22
0.0
 32
0.0
 42
0.0
 43
0.0
 44
0.0
 50
0.0
 71
     0
281
     0
 72
     0
  0
ENDTAB
  0
TABLE
  2
UCS
  5
7
330
0
100
AcDbSymbolTable
 70
     0
  0
ENDTAB
  0
TABLE
  2
APPID
  5
9
330
0
100
AcDbSymbolTable
 70
    12
  0
APPID
  5
12
330
9
100
AcDbSymbolTableRecord
100
AcDbRegAppTableRecord
  2
ACAD
 70
     0
  0
APPID
  5
BC
330
9
100
AcDbSymbolTableRecord
100
AcDbRegAppTableRecord
  2
GENIUS_GENDIM_13
 70
     0
  0
APPID
  5
BD
330
9
100
AcDbSymbolTableRecord
100
AcDbRegAppTableRecord
  2
GENIUS_GENDTOL_13
 70
     0
  0
APPID
  5
BE
330
9
100
AcDbSymbolTableRecord
100
AcDbRegAppTableRecord
  2
GENIUS_GE3DTOL_13
 70
     0
  0
APPID
  5
C0
330
9
100
AcDbSymbolTableRecord
100
AcDbRegAppTableRecord
  2
MCAD_NO_VIS
 70
     0
  0
APPID
  5
C1
330
9
100
AcDbSymbolTableRecord
100
AcDbRegAppTableRecord
  2
ACAD_TEMP_GRAPHIC
 70
     0
  0
APPID
  5
F3
330
9
100
AcDbSymbolTableRecord
100
AcDbRegAppTableRecord
  2
AD_DRAW
 70
     0
  0
APPID
  5
F6
330
9
100
AcDbSymbolTableRecord
100
AcDbRegAppTableRecord
  2
ACATTRIBSERVICES
 70
     0
  0
APPID
  5
142
330
9
100
AcDbSymbolTableRecord
100
AcDbRegAppTableRecord
  2
ASURF_PCURVE_APPNAME
 70
     0
  0
APPID
  5
171
330
9
100
AcDbSymbolTableRecord
100
AcDbRegAppTableRecord
  2
DESIGNERASSEMBLIES
 70
     0
  0
APPID
  5
179
330
9
100
AcDbSymbolTableRecord
100
AcDbRegAppTableRecord
  2
ACADM_DIM_EDIT
 70
     0
  0
APPID
  5
17A
330
9
100
AcDbSymbolTableRecord
100
AcDbRegAppTableRecord
  2
AMDT_DM_ADJ
 70
     0
  0
ENDTAB
  0
TABLE
  2
DIMSTYLE
  5
A
330
0
100
AcDbSymbolTable
 70
     1
100
AcDbDimStyleTable
 71
     0
  0
DIMSTYLE
105
28
330
A
100
AcDbSymbolTableRecord
100
AcDbDimStyleTableRecord
  2
STANDARD
 70
     0
279
     2
340
22
  0
ENDTAB
  0
TABLE
  2
BLOCK_RECORD
  5
1
330
0
100
AcDbSymbolTable
 70
     2
  0
BLOCK_RECORD
  5
1E
102
{ACAD_XDICTIONARY
360
196
102
}
330
1
100
AcDbSymbolTableRecord
100
AcDbBlockTableRecord
  2
*Model_Space
340
21
  0
BLOCK_RECORD
  5
1A
330
1
100
AcDbSymbolTableRecord
100
AcDbBlockTableRecord
  2
*Paper_Space
340
1D
  0
BLOCK_RECORD
  5
2D
330
1
100
AcDbSymbolTableRecord
100
AcDbBlockTableRecord
  2
QQ
340
0
102
{BLKREFS
331
39
102
}
  0
BLOCK_RECORD
  5
168
330
1
100
AcDbSymbolTableRecord
100
AcDbBlockTableRecord
  2
*U1
340
0
  0
ENDTAB
  0
ENDSEC
  0
SECTION
  2
BLOCKS
  0
BLOCK
  5
1F
330
1E
100
AcDbEntity
  8
0
100
AcDbBlockBegin
  2
*Model_Space
 70
     0
 10
0.0
 20
0.0
 30
0.0
  3
*Model_Space
  1

  0
ENDBLK
  5
20
330
1E
100
AcDbEntity
  8
0
100
AcDbBlockEnd
  0
BLOCK
  5
1B
330
1A
100
AcDbEntity
 67
     1
  8
0
100
AcDbBlockBegin
  2
*Paper_Space
 70
     0
 10
0.0
 20
0.0
 30
0.0
  3
*Paper_Space
  1

  0
ENDBLK
  5
1C
330
1A
100
AcDbEntity
 67
     1
  8
0
100
AcDbBlockEnd
  0
BLOCK
  5
2E
330
2D
100
AcDbEntity
  8
0
100
AcDbBlockBegin
  2
QQ
 70
     0
 10
270.0
 20
0.0
 30
0.0
  3
QQ
  1

  0
LINE
  5
2F
330
2D
100
AcDbEntity
  8
11
100
AcDbLine
 10
172.9999999999998
 20
36.0
 30
0.0
 11
270.0
 21
36.0
 31
0.0
  0
TEXT
  5
30
330
2D
100
AcDbEntity
  8
11
100
AcDbText
 10
175.0
 20
32.5
 30
0.0
 40
2.5
  1
部品名称
100
AcDbText
  0
LINE
  5
31
330
2D
100
AcDbEntity
  8
11
100
AcDbLine
 10
172.9999999999998
 20
36.0
 30
0.0
 11
172.9999999999998
 21
0.0
 31
0.0
  0
LINE
  5
32
330
2D
100
AcDbEntity
  8
11
100
AcDbLine
 10
172.9999999999998
 20
24.0
 30
0.0
 11
270.0
 21
24.0
 31
0.0
  0
TEXT
  5
33
330
2D
100
AcDbEntity
  8
11
100
AcDbText
 10
175.0
 20
20.5
 30
0.0
 40
2.5
  1
品番
100
AcDbText
  0
LINE
  5
34
330
2D
100
AcDbEntity
  8
11
100
AcDbLine
 10
172.9999999999998
 20
12.0
 30
0.0
 11
270.0
 21
12.0
 31
0.0
  0
TEXT
  5
35
330
2D
100
AcDbEntity
  8
11
100
AcDbText
 10
175.0
 20
8.5
 30
0.0
 40
2.5
  1
尺度
100
AcDbText
  0
TEXT
  5
36
330
2D
100
AcDbEntity
  8
11
100
AcDbText
 10
200.0
 20
8.5
 30
0.0
 40
2.5
  1
図番
100
AcDbText
  0
LINE
  5
37
330
2D
100
AcDbEntity
  8
11
100
AcDbLine
 10
198.0
 20
0.0
 30
0.0
 11
198.0
 21
12.0
 31
0.0
  0
ENDBLK
  5
38
330
2D
100
AcDbEntity
  8
0
100
AcDbBlockEnd
  0
BLOCK
  5
169
330
168
100
AcDbEntity
  8
0
100
AcDbBlockBegin
  2
*U1
 70
     1
 10
0.0
 20
0.0
 30
0.0
  3
*U1
  1

  0
ENDBLK
  5
16A
330
168
100
AcDbEntity
  8
0
100
AcDbBlockEnd
  0
ENDSEC
  0
SECTION
  2
ENTITIES
  0
LINE
  5
41
330
1E
100
AcDbEntity
  8
1
100
AcDbLine
 10
95.0
 20
145.0
 30
0.0
 11
147.9999999999998
 21
144.9999999999998
 31
0.0
  0
LINE
  5
42
330
1E
100
AcDbEntity
  8
1
100
AcDbLine
 10
121.0
 20
170.9999999999998
 30
0.0
 11
120.9999999999999
 21
120.5
 31
0.0
  0
ARC
  5
43
330
1E
100
AcDbEntity
  8
0
100
AcDbCircle
 10
89.77697423262844
 20
163.0820062261586
 30
0.0
 40
24.2324069011077
100
AcDbArc
 50
301.1328298620652
 51
358.7762349727494
  0
ARC
  5
44
330
1E
100
AcDbEntity
  8
0
100
AcDbCircle
 10
152.3192983625768
 20
163.0700084057897
 30
0.0
 40
24.30755085830247
100
AcDbArc
 50
181.3188711151796
 51
238.6811288848201
  0
ARC
  5
45
330
1E
100
AcDbEntity
  8
0
100
AcDbCircle
 10
120.8806369890492
 20
108.0754044686097
 30
0.0
 40
24.96586044952856
100
AcDbArc
 50
61.88529753269994
 51
117.5991740962872
  0
ARC
  5
46
330
1E
100
AcDbEntity
  8
0
100
AcDbCircle
 10
108.6535944576089
 20
132.6923120635245
 30
0.0
 40
2.584792365629823
100
AcDbArc
 50
233.3009138590361
 51
285.3244389745652
  0
ARC
  5
47
330
1E
100
AcDbEntity
  8
0
100
AcDbCircle
 10
121.1716773720211
 20
145.1395301807371
 30
0.0
 40
20.21342825840544
100
AcDbArc
 50
194.3364566049137
 51
225.9157730546974
  0
ARC
  5
48
330
1E
100
AcDbEntity
  8
0
100
AcDbCircle
 10
120.9597247182169
 20
144.9325292485721
 30
0.0
 40
20.07931698669238
100
AcDbArc
 50
73.97323097116362
 51
105.7805122012024
  0
ARC
  5
49
330
1E
100
AcDbEntity
  8
0
100
AcDbCircle
 10
138.2731044882712
 20
140.6601672968708
 30
0.0
 40
2.170179932822441
100
AcDbArc
 50
346.6761304257872
 51
50.01725117596183
  0
ARC
  5
4A
330
1E
100
AcDbEntity
  8
0
100
AcDbCircle
 10
120.9008462516944
 20
145.0079161976766
 30
0.0
 40
20.07807476783582
100
AcDbArc
 50
314.2184833214043
 51
346.0277846083467
  0
ARC
  5
4B
330
1E
100
AcDbEntity
  8
0
100
AcDbCircle
 10
125.8803612469356
 20
162.1677964303501
 30
0.0
 40
2.160501410727925
100
AcDbArc
 50
8.406235528985208
 51
73.37793610893349
  0
ARC
  5
4C
330
1E
100
AcDbEntity
  8
0
100
AcDbCircle
 10
116.1645532578597
 20
162.1610593280415
 30
0.0
 40
2.198673026624864
100
AcDbArc
 50
107.3562352556904
 51
169.3790132974053
  0
ARC
  5
4D
330
1E
100
AcDbEntity
  8
0
100
AcDbCircle
 10
103.5701991532824
 20
140.6997105025352
 30
0.0
 40
2.06889129747322
100
AcDbArc
 50
127.4535884186738
 51
195.7479638485841
  0
ARC
  5
4E
330
1E
100
AcDbEntity
  8
0
100
AcDbCircle
 10
133.3144342261274
 20
132.3369446993309
 30
0.0
 40
2.342153991159899
100
AcDbArc
 50
253.4321850277891
 51
312.5712745495454
  0
LINE
  5
4F
330
1E
100
AcDbEntity
  8
1
100
AcDbLine
 10
171.9999999999998
 20
145.0
 30
0.0
 11
221.0
 21
145.0
 31
0.0
  0
LINE
  5
50
330
1E
100
AcDbEntity
  8
0
100
AcDbLine
 10
188.0
 20
165.0
 30
0.0
 11
183.0
 21
165.0
 31
0.0
  0
LINE
  5
51
330
1E
100
AcDbEntity
  8
0
100
AcDbLine
 10
189.0
 20
164.0
 30
0.0
 11
189.0
 21
131.0
 31
0.0
  0
LINE
  5
52
330
1E
100
AcDbEntity
  8
0
100
AcDbLine
 10
188.0
 20
130.0
 30
0.0
 11
183.0
 21
130.0
 31
0.0
  0
LINE
  5
53
330
1E
100
AcDbEntity
  8
0
100
AcDbLine
 10
187.5
 20
140.9999999999998
 30
0.0
 11
183.4999999999998
 21
140.9999999999998
 31
0.0
  0
LINE
  5
54
330
1E
100
AcDbEntity
  8
0
100
AcDbLine
 10
187.5
 20
163.4999999999998
 30
0.0
 11
183.4999999999998
 21
163.4999999999998
 31
0.0
  0
ARC
  5
55
330
1E
100
AcDbEntity
  8
0
100
AcDbCircle
 10
252.4499999999999
 20
145.0
 30
0.0
 40
73.44999999999997
100
AcDbArc
 50
165.0082847205401
 51
189.4046031749852
  0
ARC
  5
56
330
1E
100
AcDbEntity
  8
0
100
AcDbCircle
 10
198.75
 20
135.4999999999998
 30
0.0
 40
16.25
100
AcDbArc
 50
165.7499673021964
 51
194.2500326978036
  0
LINE
  5
57
330
1E
100
AcDbEntity
  8
0
100
AcDbLine
 10
188.0
 20
143.9999999999998
 30
0.0
 11
188.0
 21
159.0
 31
0.0
  0
ARC
  5
58
330
1E
100
AcDbEntity
  8
0
100
AcDbCircle
 10
214.7155172413793
 20
153.8879310344826
 30
0.0
 40
33.22115612122665
100
AcDbArc
 50
165.866394548447
 51
197.315885993942
  0
ARC
  5
59
330
1E
100
AcDbEntity
  8
0
100
AcDbCircle
 10
188.019911104906
 20
164.019911104906
 30
0.0
 40
0.9802911273622095
100
AcDbArc
 50
358.8361613187777
 51
91.16383868122216
  0
ARC
  5
5A
330
1E
100
AcDbEntity
  8
0
100
AcDbCircle
 10
183.3548927197906
 20
162.842660920314
 30
0.0
 40
2.186335003447725
100
AcDbArc
 50
99.34176423285109
 51
148.0383708191084
  0
ARC
  5
5B
330
1E
100
AcDbEntity
  8
0
100
AcDbCircle
 10
187.978137353846
 20
131.0218626461538
 30
0.0
 40
1.022096493928827
100
AcDbArc
 50
271.2256503187721
 51
358.7743496812277
  0
ARC
  5
5C
330
1E
100
AcDbEntity
  8
0
100
AcDbCircle
 10
183.4999999999998
 20
133.4999999999998
 30
0.0
 40
3.535533905932736
100
AcDbArc
 50
188.130102354156
 51
261.869897645844
  0
LINE
  5
5D
330
1E
100
AcDbEntity
  8
0
100
AcDbLine
 10
189.0
 20
155.4999999999998
 30
0.0
 11
198.0
 21
155.4999999999998
 31
0.0
  0
LINE
  5
5E
330
1E
100
AcDbEntity
  8
0
100
AcDbLine
 10
199.0
 20
154.4999999999998
 30
0.0
 11
199.0
 21
135.4999999999998
 31
0.0
  0
LINE
  5
5F
330
1E
100
AcDbEntity
  8
0
100
AcDbLine
 10
198.0
 20
134.4999999999998
 30
0.0
 11
189.0
 21
134.4999999999998
 31
0.0
  0
LINE
  5
60
330
1E
100
AcDbEntity
  8
0
100
AcDbLine
 10
199.0
 20
149.0
 30
0.0
 11
212.9999999999999
 21
149.0
 31
0.0
  0
LINE
  5
61
330
1E
100
AcDbEntity
  8
0
100
AcDbLine
 10
212.9999999999999
 20
149.0
 30
0.0
 11
214.0
 21
147.9999999999998
 31
0.0
  0
LINE
  5
62
330
1E
100
AcDbEntity
  8
0
100
AcDbLine
 10
214.0
 20
147.9999999999998
 30
0.0
 11
214.0
 21
141.9999999999998
 31
0.0
  0
LINE
  5
63
330
1E
100
AcDbEntity
  8
0
100
AcDbLine
 10
214.0
 20
141.9999999999998
 30
0.0
 11
212.9999999999999
 21
140.9999999999998
 31
0.0
  0
LINE
  5
64
330
1E
100
AcDbEntity
  8
0
100
AcDbLine
 10
212.9999999999999
 20
140.9999999999998
 30
0.0
 11
199.0
 21
140.9999999999998
 31
0.0
  0
LINE
  5
65
330
1E
100
AcDbEntity
  8
0
100
AcDbLine
 10
199.0
 20
147.9999999999998
 30
0.0
 11
214.0
 21
147.9999999999998
 31
0.0
  0
LINE
  5
66
330
1E
100
AcDbEntity
  8
0
100
AcDbLine
 10
212.9999999999999
 20
149.0
 30
0.0
 11
212.9999999999999
 21
140.9999999999998
 31
0.0
  0
LINE
  5
67
330
1E
100
AcDbEntity
  8
0
100
AcDbLine
 10
214.0
 20
141.9999999999998
 30
0.0
 11
199.0
 21
141.9999999999998
 31
0.0
  0
ARC
  5
68
330
1E
100
AcDbEntity
  8
0
100
AcDbCircle
 10
197.9985232072922
 20
154.4985232072922
 30
0.0
 40
1.0014778815574
100
AcDbArc
 50
0.0844891550652562
 51
89.91551084493472
  0
ARC
  5
69
330
1E
100
AcDbEntity
  8
0
100
AcDbCircle
 10
197.9786408322197
 20
135.5213591677802
 30
0.0
 40
1.021582480104803
100
AcDbArc
 50
271.1980230383998
 51
358.8019769616002
  0
LINE
  5
6A
330
1E
100
AcDbEntity
  8
1
100
AcDbLine
 10
171.9999999999998
 20
210.0
 30
0.0
 11
220.5
 21
210.0
 31
0.0
  0
LINE
  5
6B
330
1E
100
AcDbEntity
  8
0
100
AcDbLine
 10
189.0
 20
228.5
 30
0.0
 11
189.0
 21
191.5
 31
0.0
  0
LINE
  5
6C
330
1E
100
AcDbEntity
  8
0
100
AcDbLine
 10
188.0
 20
229.4999999999999
 30
0.0
 11
183.0
 21
229.4999999999999
 31
0.0
  0
LINE
  5
6D
330
1E
100
AcDbEntity
  8
0
100
AcDbLine
 10
188.0
 20
190.5
 30
0.0
 11
183.0
 21
190.5
 31
0.0
  0
LINE
  5
6E
330
1E
100
AcDbEntity
  8
0
100
AcDbLine
 10
187.5
 20
198.0
 30
0.0
 11
183.4999999999998
 21
198.0
 31
0.0
  0
LINE
  5
6F
330
1E
100
AcDbEntity
  8
0
100
AcDbLine
 10
187.5
 20
222.0
 30
0.0
 11
183.4999999999998
 21
222.0
 31
0.0
  0
ARC
  5
70
330
1E
100
AcDbEntity
  8
0
100
AcDbCircle
 10
248.7
 20
210.0
 30
0.0
 40
69.69999999999997
100
AcDbArc
 50
164.6078965559668
 51
195.3921034440331
  0
LINE
  5
71
330
1E
100
AcDbEntity
  8
0
100
AcDbLine
 10
188.0
 20
228.0
 30
0.0
 11
188.0
 21
224.0
 31
0.0
  0
LINE
  5
72
330
1E
100
AcDbEntity
  8
0
100
AcDbLine
 10
188.0
 20
191.9999999999998
 30
0.0
 11
188.0
 21
195.9999999999998
 31
0.0
  0
ARC
  5
73
330
1E
100
AcDbEntity
  8
0
100
AcDbCircle
 10
209.25
 20
210.0
 30
0.0
 40
27.75
100
AcDbArc
 50
161.0753555839487
 51
198.9246444160511
  0
ARC
  5
74
330
1E
100
AcDbEntity
  8
0
100
AcDbCircle
 10
189.0
 20
226.0
 30
0.0
 40
6.5
100
AcDbArc
 50
157.3801350519599
 51
202.61986494804
  0
ARC
  5
75
330
1E
100
AcDbEntity
  8
0
100
AcDbCircle
 10
189.0
 20
193.9999999999998
 30
0.0
 40
6.5
100
AcDbArc
 50
157.3801350519599
 51
202.61986494804
  0
ARC
  5
76
330
1E
100
AcDbEntity
  8
0
100
AcDbCircle
 10
187.9371827347512
 20
228.4371827347512
 30
0.0
 40
1.064672037823964
100
AcDbArc
 50
3.382502359305926
 51
86.61749764069408
  0
ARC
  5
77
330
1E
100
AcDbEntity
  8
0
100
AcDbCircle
 10
182.9950359934769
 20
227.8824460097845
 30
0.0
 40
1.617561607056273
100
AcDbArc
 50
89.82416925053538
 51
157.5559658014235
  0
ARC
  5
78
330
1E
100
AcDbEntity
  8
0
100
AcDbCircle
 10
187.9301323018465
 20
191.5698676981533
 30
0.0
 40
1.0721466256056
100
AcDbArc
 50
273.7363946864771
 51
356.2636053135227
  0
ARC
  5
79
330
1E
100
AcDbEntity
  8
0
100
AcDbCircle
 10
183.0224966003332
 20
192.1587449004999
 30
0.0
 40
1.658897447692726
100
AcDbArc
 50
203.3968869184869
 51
269.2229780295523
  0
LINE
  5
7A
330
1E
100
AcDbEntity
  8
0
100
AcDbLine
 10
189.0
 20
220.5
 30
0.0
 11
198.0
 21
220.5
 31
0.0
  0
LINE
  5
7B
330
1E
100
AcDbEntity
  8
0
100
AcDbLine
 10
199.0
 20
219.4999999999998
 30
0.0
 11
199.0
 21
200.4999999999999
 31
0.0
  0
LINE
  5
7C
330
1E
100
AcDbEntity
  8
0
100
AcDbLine
 10
198.0
 20
199.5
 30
0.0
 11
189.0
 21
199.5
 31
0.0
  0
LINE
  5
7D
330
1E
100
AcDbEntity
  8
0
100
AcDbLine
 10
199.0
 20
214.0
 30
0.0
 11
212.9999999999999
 21
214.0
 31
0.0
  0
LINE
  5
7E
330
1E
100
AcDbEntity
  8
0
100
AcDbLine
 10
212.9999999999999
 20
214.0
 30
0.0
 11
214.0
 21
212.9999999999999
 31
0.0
  0
LINE
  5
7F
330
1E
100
AcDbEntity
  8
0
100
AcDbLine
 10
214.0
 20
212.9999999999999
 30
0.0
 11
214.0
 21
206.9999999999998
 31
0.0
  0
LINE
  5
80
330
1E
100
AcDbEntity
  8
0
100
AcDbLine
 10
214.0
 20
206.9999999999998
 30
0.0
 11
212.9999999999999
 21
206.0
 31
0.0
  0
LINE
  5
81
330
1E
100
AcDbEntity
  8
0
100
AcDbLine
 10
212.9999999999999
 20
206.0
 30
0.0
 11
199.0
 21
206.0
 31
0.0
  0
LINE
  5
82
330
1E
100
AcDbEntity
  8
0
100
AcDbLine
 10
212.9999999999999
 20
214.0
 30
0.0
 11
212.9999999999999
 21
206.0
 31
0.0
  0
LINE
  5
83
330
1E
100
AcDbEntity
  8
0
100
AcDbLine
 10
214.0
 20
212.9999999999999
 30
0.0
 11
199.0
 21
212.9999999999999
 31
0.0
  0
LINE
  5
84
330
1E
100
AcDbEntity
  8
0
100
AcDbLine
 10
214.0
 20
206.9999999999998
 30
0.0
 11
199.0
 21
206.9999999999998
 31
0.0
  0
ARC
  5
85
330
1E
100
AcDbEntity
  8
0
100
AcDbCircle
 10
197.980967252022
 20
219.480967252022
 30
0.0
 40
1.01921047234959
100
AcDbArc
 50
1.070004234263143
 51
88.92999576573684
  0
ARC
  5
86
330
1E
100
AcDbEntity
  8
0
100
AcDbCircle
 10
197.9745716990456
 20
200.5254283009544
 30
0.0
 40
1.025743534655533
100
AcDbArc
 50
271.4205145276462
 51
358.5794854723537
  0
LINE
  5
87
330
1E
100
AcDbEntity
  8
0
100
AcDbLine
 10
188.0
 20
214.0
 30
0.0
 11
188.0
 21
206.0
 31
0.0
  0
LINE
  5
88
330
1E
100
AcDbEntity
  8
1
100
AcDbLine
 10
171.9999999999998
 20
89.0
 30
0.0
 11
221.0
 21
89.0
 31
0.0
  0
LINE
  5
89
330
1E
100
AcDbEntity
  8
0
100
AcDbLine
 10
189.0
 20
107.4999999999999
 30
0.0
 11
189.0
 21
70.5
 31
0.0
  0
LINE
  5
8A
330
1E
100
AcDbEntity
  8
0
100
AcDbLine
 10
188.0
 20
108.4999999999999
 30
0.0
 11
183.0
 21
108.4999999999999
 31
0.0
  0
LINE
  5
8B
330
1E
100
AcDbEntity
  8
0
100
AcDbLine
 10
188.0
 20
69.5
 30
0.0
 11
183.0
 21
69.5
 31
0.0
  0
LINE
  5
8C
330
1E
100
AcDbEntity
  8
0
100
AcDbLine
 10
187.0
 20
95.5
 30
0.0
 11
184.0
 21
95.5
 31
0.0
  0
LINE
  5
8D
330
1E
100
AcDbEntity
  8
0
100
AcDbLine
 10
187.0
 20
82.5
 30
0.0
 11
184.0
 21
82.5
 31
0.0
  0
LINE
  5
8E
330
1E
100
AcDbEntity
  8
0
100
AcDbLine
 10
188.0
 20
107.4999999999999
 30
0.0
 11
188.0
 21
97.5
 31
0.0
  0
LINE
  5
8F
330
1E
100
AcDbEntity
  8
0
100
AcDbLine
 10
188.0
 20
70.5
 30
0.0
 11
188.0
 21
80.5
 31
0.0
  0
ARC
  5
90
330
1E
100
AcDbEntity
  8
0
100
AcDbCircle
 10
248.7
 20
89.0
 30
0.0
 40
69.69999999999997
100
AcDbArc
 50
164.6078965559668
 51
195.3921034440331
  0
ARC
  5
91
330
1E
100
AcDbEntity
  8
0
100
AcDbCircle
 10
200.7499999999998
 20
88.75
 30
0.0
 40
18.25171224844398
100
AcDbArc
 50
166.5347919051881
 51
193.4652080948117
  0
ARC
  5
92
330
1E
100
AcDbEntity
  8
0
100
AcDbCircle
 10
193.5
 20
102.2499999999999
 30
0.0
 40
11.5244305716161
100
AcDbArc
 50
155.6589100633091
 51
204.3410899366906
  0
ARC
  5
93
330
1E
100
AcDbEntity
  8
0
100
AcDbCircle
 10
193.5
 20
75.75
 30
0.0
 40
11.5244305716161
100
AcDbArc
 50
155.6589100633091
 51
204.3410899366906
  0
ARC
  5
94
330
1E
100
AcDbEntity
  8
0
100
AcDbCircle
 10
187.9820092320716
 20
107.4820092320716
 30
0.0
 40
1.018149729321633
100
AcDbArc
 50
1.012472617117317
 51
88.98752738288271
  0
ARC
  5
95
330
1E
100
AcDbEntity
  8
0
100
AcDbCircle
 10
183.0923737304588
 20
106.7364394043115
 30
0.0
 40
1.765978165421018
100
AcDbArc
 50
92.9983617391065
 51
154.3817733128585
  0
ARC
  5
96
330
1E
100
AcDbEntity
  8
0
100
AcDbCircle
 10
187.9578456448339
 20
70.54215435516602
 30
0.0
 40
1.043006562611618
100
AcDbArc
 50
272.3163082124888
 51
357.6836917875104
  0
ARC
  5
97
330
1E
100
AcDbEntity
  8
0
100
AcDbCircle
 10
183.1797109761234
 20
71.39456646418529
 30
0.0
 40
1.903070708658739
100
AcDbArc
 50
208.0384999276138
 51
264.5813650204261
  0
LINE
  5
98
330
1E
100
AcDbEntity
  8
0
100
AcDbLine
 10
189.0
 20
99.50000000000001
 30
0.0
 11
198.0
 21
99.50000000000001
 31
0.0
  0
LINE
  5
99
330
1E
100
AcDbEntity
  8
0
100
AcDbLine
 10
199.0
 20
98.50000000000001
 30
0.0
 11
199.0
 21
79.5
 31
0.0
  0
LINE
  5
9A
330
1E
100
AcDbEntity
  8
0
100
AcDbLine
 10
198.0
 20
78.5
 30
0.0
 11
189.0
 21
78.5
 31
0.0
  0
LINE
  5
9B
330
1E
100
AcDbEntity
  8
0
100
AcDbLine
 10
199.0
 20
93.0
 30
0.0
 11
212.9999999999999
 21
93.0
 31
0.0
  0
LINE
  5
9C
330
1E
100
AcDbEntity
  8
0
100
AcDbLine
 10
212.9999999999999
 20
93.0
 30
0.0
 11
214.0
 21
92.0
 31
0.0
  0
LINE
  5
9D
330
1E
100
AcDbEntity
  8
0
100
AcDbLine
 10
214.0
 20
92.0
 30
0.0
 11
214.0
 21
85.99999999999999
 31
0.0
  0
LINE
  5
9E
330
1E
100
AcDbEntity
  8
0
100
AcDbLine
 10
214.0
 20
85.99999999999999
 30
0.0
 11
212.9999999999999
 21
85.0
 31
0.0
  0
LINE
  5
9F
330
1E
100
AcDbEntity
  8
0
100
AcDbLine
 10
212.9999999999999
 20
85.0
 30
0.0
 11
199.0
 21
85.0
 31
0.0
  0
LINE
  5
A0
330
1E
100
AcDbEntity
  8
0
100
AcDbLine
 10
199.0
 20
92.0
 30
0.0
 11
214.0
 21
92.0
 31
0.0
  0
LINE
  5
A1
330
1E
100
AcDbEntity
  8
0
100
AcDbLine
 10
212.9999999999999
 20
93.0
 30
0.0
 11
212.9999999999999
 21
85.0
 31
0.0
  0
LINE
  5
A2
330
1E
100
AcDbEntity
  8
0
100
AcDbLine
 10
214.0
 20
85.99999999999999
 30
0.0
 11
199.0
 21
85.99999999999999
 31
0.0
  0
ARC
  5
A3
330
1E
100
AcDbEntity
  8
0
100
AcDbCircle
 10
286.9008462516943
 20
145.0079161976766
 30
0.0
 40
20.07807476783582
100
AcDbArc
 50
314.2184833214043
 51
346.0277846083467
  0
ARC
  5
A4
330
1E
100
AcDbEntity
  8
0
100
AcDbCircle
 10
287.1716773720212
 20
145.1395301807371
 30
0.0
 40
20.21342825840544
100
AcDbArc
 50
194.3364566049137
 51
225.9157730546974
  0
LINE
  5
A5
330
1E
100
AcDbEntity
  8
1
100
AcDbLine
 10
287.0
 20
170.9999999999998
 30
0.0
 11
287.0
 21
120.5
 31
0.0
  0
ARC
  5
A6
330
1E
100
AcDbEntity
  8
0
100
AcDbCircle
 10
286.8806369890492
 20
108.0754044686097
 30
0.0
 40
24.96586044952856
100
AcDbArc
 50
61.88529753269994
 51
117.5991740962872
  0
ARC
  5
A7
330
1E
100
AcDbEntity
  8
0
100
AcDbCircle
 10
274.6535944576089
 20
132.6923120635245
 30
0.0
 40
2.584792365629823
100
AcDbArc
 50
233.3009138590361
 51
285.3244389745652
  0
ARC
  5
A8
330
1E
100
AcDbEntity
  8
0
100
AcDbCircle
 10
299.3144342261273
 20
132.3369446993309
 30
0.0
 40
2.342153991159899
100
AcDbArc
 50
253.4321850277891
 51
312.5712745495454
  0
ARC
  5
A9
330
1E
100
AcDbEntity
  8
0
100
AcDbCircle
 10
318.3192983625768
 20
163.0700084057897
 30
0.0
 40
24.30755085830247
100
AcDbArc
 50
181.3188711151796
 51
238.6811288848201
  0
LINE
  5
AA
330
1E
100
AcDbEntity
  8
1
100
AcDbLine
 10
260.9999999999998
 20
145.0
 30
0.0
 11
314.0
 21
144.9999999999998
 31
0.0
  0
ARC
  5
AB
330
1E
100
AcDbEntity
  8
0
100
AcDbCircle
 10
255.7769742326283
 20
163.0820062261586
 30
0.0
 40
24.2324069011077
100
AcDbArc
 50
301.1328298620652
 51
358.7762349727494
  0
ARC
  5
AC
330
1E
100
AcDbEntity
  8
0
100
AcDbCircle
 10
269.5701991532826
 20
140.6997105025352
 30
0.0
 40
2.06889129747322
100
AcDbArc
 50
127.4535884186738
 51
195.7479638485841
  0
ARC
  5
AD
330
1E
100
AcDbEntity
  8
0
100
AcDbCircle
 10
282.1645532578596
 20
162.1610593280415
 30
0.0
 40
2.198673026624864
100
AcDbArc
 50
107.3562352556904
 51
169.3790132974053
  0
ARC
  5
AE
330
1E
100
AcDbEntity
  8
0
100
AcDbCircle
 10
286.9597247182169
 20
144.9325292485721
 30
0.0
 40
20.07931698669238
100
AcDbArc
 50
73.97323097116362
 51
105.7805122012024
  0
ARC
  5
AF
330
1E
100
AcDbEntity
  8
0
100
AcDbCircle
 10
291.8803612469356
 20
162.1677964303501
 30
0.0
 40
2.160501410727925
100
AcDbArc
 50
8.406235528985208
 51
73.37793610893349
  0
ARC
  5
B0
330
1E
100
AcDbEntity
  8
0
100
AcDbCircle
 10
304.2731044882712
 20
140.6601672968708
 30
0.0
 40
2.170179932822441
100
AcDbArc
 50
346.6761304257872
 51
50.01725117596183
  0
CIRCLE
  5
B1
330
1E
100
AcDbEntity
  8
0
100
AcDbCircle
 10
287.0
 20
145.0
 30
0.0
 40
10.5
  0
CIRCLE
  5
B2
330
1E
100
AcDbEntity
  8
0
100
AcDbCircle
 10
287.0
 20
145.0
 30
0.0
 40
4.0
  0
CIRCLE
  5
B3
330
1E
100
AcDbEntity
  8
0
100
AcDbCircle
 10
287.0
 20
145.0
 30
0.0
 40
3.0
  0
ARC
  5
B4
330
1E
100
AcDbEntity
  8
0
100
AcDbCircle
 10
287.0133877874307
 20
153.0971096822336
 30
0.0
 40
8.908014909780355
100
AcDbArc
 50
58.94101273731958
 51
119.9023409817664
  0
ARC
  5
B5
330
1E
100
AcDbEntity
  8
0
100
AcDbCircle
 10
293.7244102822136
 20
140.9787610041493
 30
0.0
 40
9.21265840681637
100
AcDbArc
 50
296.3690345822712
 51
2.559705532361684
  0
ARC
  5
B6
330
1E
100
AcDbEntity
  8
0
100
AcDbCircle
 10
280.3342096759116
 20
141.354207838142
 30
0.0
 40
9.536894310158809
100
AcDbArc
 50
180.33176257833
 51
244.8043175177118
  0
ENDSEC
  0
SECTION
  2
OBJECTS
  0
DICTIONARY
  5
C
330
0
100
AcDbDictionary
281
     1
  3
ACAD_GROUP
350
D
  3
ACAD_LAYOUT
350
19
  3
ACAD_MLINESTYLE
350
16
  3
ACAD_PLOTSETTINGS
350
18
  3
ACAD_PLOTSTYLENAME
350
E
  3
AcDbVariableDictionary
350
19D
  3
AcmDictionary
350
172
  3
AMG
350
B9
  3
AMGSNAPSETTINGS
350
18F
  3
DWGPROPS
350
175
  3
MAPISURF_MODULE
350
145
  0
DICTIONARY
  5
196
330
1E
100
AcDbDictionary
280
     1
281
     1
  3
ACAD_INDEX
360
197
  0
DICTIONARY
  5
D
102
{ACAD_REACTORS
330
C
102
}
330
C
100
AcDbDictionary
281
     1
  0
DICTIONARY
  5
19
102
{ACAD_REACTORS
330
C
102
}
330
C
100
AcDbDictionary
281
     1
  3
Model
350
21
  3
ﾚｲｱｳﾄ1
350
1D
  0
DICTIONARY
  5
16
102
{ACAD_REACTORS
330
C
102
}
330
C
100
AcDbDictionary
281
     1
  3
Standard
350
17
  0
DICTIONARY
  5
18
102
{ACAD_REACTORS
330
C
102
}
330
C
100
AcDbDictionary
281
     1
  0
ACDBDICTIONARYWDFLT
  5
E
102
{ACAD_REACTORS
330
C
102
}
330
C
100
AcDbDictionary
281
     1
  3
Normal
350
F
100
AcDbDictionaryWithDefault
340
F
  0
DICTIONARY
  5
19D
102
{ACAD_REACTORS
330
C
102
}
330
C
100
AcDbDictionary
281
     1
  3
DIMASSOC
350
19F
  3
INDEXCTL
350
19E
  0
DICTIONARY
  5
172
102
{ACAD_REACTORS
330
C
102
}
330
C
100
AcDbDictionary
281
     1
  3
AcmBOMDATA
350
173
  0
DICTIONARY
  5
B9
102
{ACAD_REACTORS
330
C
102
}
330
C
100
AcDbDictionary
281
     1
  3
AcMgSettings
350
BA
  3
AMGLAYCFG
350
17F
  0
DICTIONARY
  5
18F
102
{ACAD_REACTORS
330
C
102
}
330
C
100
AcDbDictionary
281
     1
  3
DIMENSION
350
194
  3
FEA
350
193
  3
HATCH (1)
350
190
  3
HATCH (2)
350
191
  3
SIMPLE WELD
350
195
  3
SYMBOLS
350
192
  0
XRECORD
  5
175
102
{ACAD_REACTORS
330
C
102
}
330
C
100
AcDbXrecord
280
     1
  1
DWGPROPS COOKIE
  2

  3

  4

  6

  7

  8

  9

300
AmdtFileType=84
301
=
302
=
303
=
304
=
305
=
306
=
307
=
308
=
309
=
 40
0.0000027083333333
 41
2450683.630243055
 42
2450683.630243055
  1

 90
        1
  0
DICTIONARY
  5
197
102
{ACAD_REACTORS
330
196
102
}
330
196
100
AcDbDictionary
281
     1
  3
*A1
350
198
  0
LAYOUT
  5
21
102
{ACAD_REACTORS
330
19
102
}
330
19
100
AcDbPlotSettings
  1

  2
\\KONISHIDENXP\SHARP MX-2700FG
  4

  6

 40
0.0
 41
0.0
 42
0.0
 43
0.0
 44
0.0
 45
0.0
 46
0.0
 47
0.0
 48
0.0
 49
0.0
140
0.0
141
0.0
142
1.0
143
1.0
 70
  1712
 72
     0
 73
     0
 74
     0
  7

 75
     0
147
1.0
148
0.0
149
0.0
100
AcDbLayout
  1
Model
 70
     1
 71
     0
 10
0.0
 20
0.0
 11
12.0
 21
9.0
 12
0.0
 22
0.0
 32
0.0
 14
0.0
 24
0.0
 34
0.0
 15
0.0
 25
0.0
 35
0.0
146
0.0
 13
0.0
 23
0.0
 33
0.0
 16
1.0
 26
0.0
 36
0.0
 17
0.0
 27
1.0
 37
0.0
 76
     0
330
1E
  0
LAYOUT
  5
1D
102
{ACAD_REACTORS
330
19
102
}
330
19
100
AcDbPlotSettings
  1

  2
\\KONISHIDENXP\SHARP MX-2700FG
  4

  6

 40
0.0
 41
0.0
 42
0.0
 43
0.0
 44
0.0
 45
0.0
 46
0.0
 47
0.0
 48
0.0
 49
0.0
140
0.0
141
0.0
142
1.0
143
1.0
 70
   688
 72
     0
 73
     0
 74
     5
  7

 75
    16
147
1.0
148
0.0
149
0.0
100
AcDbLayout
  1
ﾚｲｱｳﾄ1
 70
     0
 71
     1
 10
0.0
 20
0.0
 11
12.0
 21
9.0
 12
0.0
 22
0.0
 32
0.0
 14
1.000000000000000E+20
 24
1.000000000000000E+20
 34
1.000000000000000E+20
 15
-1.000000000000000E+20
 25
-1.000000000000000E+20
 35
-1.000000000000000E+20
146
0.0
 13
0.0
 23
0.0
 33
0.0
 16
1.0
 26
0.0
 36
0.0
 17
0.0
 27
1.0
 37
0.0
 76
     0
330
1A
  0
MLINESTYLE
  5
17
102
{ACAD_REACTORS
330
16
102
}
330
16
100
AcDbMlineStyle
  2
STANDARD
 70
     0
  3

 62
   256
 51
90.0
 52
90.0
 71
     2
 49
0.5
 62
   256
  6
BYLAYER
 49
-0.5
 62
   256
  6
BYLAYER
  0
ACDBPLACEHOLDER
  5
F
102
{ACAD_REACTORS
330
E
102
}
330
E
  0
DICTIONARYVAR
  5
19F
102
{ACAD_REACTORS
330
19D
102
}
330
19D
100
DictionaryVariables
280
     0
  1
0
  0
DICTIONARYVAR
  5
19E
102
{ACAD_REACTORS
330
19D
102
}
330
19D
100
DictionaryVariables
280
     0
  1
1
  0
ACMDATADICTIONARY
  5
173
102
{ACAD_REACTORS
330
172
102
}
330
172
100
AcDbDictionary
281
     1
  3
*A1
350
174
100
AcmDataDictionary
  0
DICTIONARY
  5
BA
102
{ACAD_REACTORS
330
B9
102
}
330
B9
100
AcDbDictionary
281
     1
  3
DWGSETTINGS
350
BB
  0
ACAMGFILTERDAT
  5
194
102
{ACAD_REACTORS
330
18F
102
}
330
18F
100
AcAmgFilterDat
 70
    15
  1
DIMENSION,AMDT_*_DIM
  2
*
  3
*
  4
*
  5
*
290
     1
  0
ACAMGFILTERDAT
  5
193
102
{ACAD_REACTORS
330
18F
102
}
330
18F
100
AcAmgFilterDat
 70
    15
  1
*
  2
AM_FEA-AM_*
  3
*
  4
*
  5
*
290
     1
  0
ACAMGFILTERDAT
  5
190
102
{ACAD_REACTORS
330
18F
102
}
330
18F
100
AcAmgFilterDat
 70
    15
  1
HATCH
  2
*
  3
*
  4
*
  5
*
290
     1
  0
ACAMGFILTERDAT
  5
191
102
{ACAD_REACTORS
330
18F
102
}
330
18F
100
AcAmgFilterDat
 70
    15
  1
LINE
  2
8,8N,*-8,*-8N,AM_8,AM_8N,*-AM_8,*-AM_8N
  3
*
  4
*
  5
INSERT,STDPART2D
290
     1
  0
ACAMGFILTERDAT
  5
195
102
{ACAD_REACTORS
330
18F
102
}
330
18F
100
AcAmgFilterDat
 70
    15
  1
ARC
  2
AM_5
  3
*
  4
2
  5
INSERT
290
     0
  0
ACAMGFILTERDAT
  5
192
102
{ACAD_REACTORS
330
18F
102
}
330
18F
100
AcAmgFilterDat
 70
    15
  1
ACMFCFRAME,ACMDATUMTARGET,ACMDATUMID,ACMWELDSYM,ACMSURFSYM,ACMFEATID,ACMPARTREF,ACMBALLOON,AMDTEDGESYM,AMGSCREWCALCTABLE
  2
*
  3
*
  4
*
  5
*
290
     1
  0
LAYER_INDEX
  5
198
102
{ACAD_REACTORS
330
197
102
}
330
197
100
AcDbIndex
 40
2456449.385880162
100
AcDbLayerIndex
  8
0
360
199
 90
      111
  8
1
360
19A
 90
        7
  8
10
360
19B
 90
        0
  8
11
360
19C
 90
        0
  0
ACMDATAENTRYBLOCK
  5
174
102
{ACAD_REACTORS
330
173
102
}
330
173
100
AcmDataEntry
100
AcmDataEntryBlock
  0
IDBUFFER
  5
199
330
0
100
AcDbIdBuffer
330
75
330
76
330
77
330
78
330
79
330
7A
330
7B
330
7C
330
7D
330
7E
330
7F
330
80
330
81
330
82
330
83
330
84
330
85
330
86
330
87
330
89
330
8A
330
8B
330
8C
330
8D
330
8E
330
8F
330
90
330
91
330
92
330
93
330
94
330
95
330
96
330
97
330
98
330
99
330
9A
330
9B
330
9C
330
9D
330
9E
330
9F
330
A0
330
A1
330
A2
330
A3
330
A4
330
A6
330
A7
330
A8
330
A9
330
AB
330
AC
330
AD
330
AE
330
AF
330
B0
330
B1
330
B2
330
B3
330
B4
330
B5
330
B6
330
43
330
44
330
45
330
46
330
47
330
48
330
49
330
4A
330
4B
330
4C
330
4D
330
4E
330
50
330
51
330
52
330
53
330
54
330
55
330
56
330
57
330
58
330
59
330
5A
330
5B
330
5C
330
5D
330
5E
330
5F
330
60
330
61
330
62
330
63
330
64
330
65
330
66
330
67
330
68
330
69
330
6B
330
6C
330
6D
330
6E
330
6F
330
70
330
71
330
72
330
73
330
74
  0
IDBUFFER
  5
19A
330
0
100
AcDbIdBuffer
330
41
330
42
330
4F
330
6A
330
88
330
A5
330
AA
  0
IDBUFFER
  5
19B
330
0
100
AcDbIdBuffer
  0
IDBUFFER
  5
19C
330
0
100
AcDbIdBuffer
  0
ENDSEC
  0
EOF
