  0
SECTION
  2
HEADER
  9
$ACADVER
  1
AC1015
  9
$ACADMAINTVER
 70
    13
  9
$DWGCODEPAGE
  3
ANSI_932
  9
$INSBASE
 10
0.0
 20
0.0
 30
0.0
  9
$EXTMIN
 10
-125.1267695646819
 20
-90.39784281459603
 30
0.0
  9
$EXTMAX
 10
88.26705799479395
 20
138.2046753272159
 30
0.0
  9
$LIMMIN
 10
-31.5
 20
-5.0
  9
$LIMMAX
 10
31.5
 20
45.0
  9
$ORTHOMODE
 70
     1
  9
$REGENMODE
 70
     1
  9
$FILLMODE
 70
     1
  9
$QTEXTMODE
 70
     0
  9
$MIRRTEXT
 70
     1
  9
$LTSCALE
 40
1.0
  9
$ATTMODE
 70
     1
  9
$TEXTSIZE
 40
3.5
  9
$TRACEWID
 40
0.5
  9
$TEXTSTYLE
  7
STANDARD
  9
$CLAYER
  8
3
  9
$CELTYPE
  6
BYLAYER
  9
$CECOLOR
 62
   256
  9
$CELTSCALE
 40
1.0
  9
$DISPSILH
 70
     0
  9
$DIMSCALE
 40
1.0
  9
$DIMASZ
 40
0.18
  9
$DIMEXO
 40
0.0625
  9
$DIMDLI
 40
0.38
  9
$DIMRND
 40
0.0
  9
$DIMDLE
 40
0.0
  9
$DIMEXE
 40
0.18
  9
$DIMTP
 40
0.0
  9
$DIMTM
 40
0.0
  9
$DIMTXT
 40
0.18
  9
$DIMCEN
 40
0.09
  9
$DIMTSZ
 40
0.0
  9
$DIMTOL
 70
     0
  9
$DIMLIM
 70
     0
  9
$DIMTIH
 70
     1
  9
$DIMTOH
 70
     1
  9
$DIMSE1
 70
     0
  9
$DIMSE2
 70
     0
  9
$DIMTAD
 70
     0
  9
$DIMZIN
 70
     0
  9
$DIMBLK
  1

  9
$DIMASO
 70
     1
  9
$DIMSHO
 70
     1
  9
$DIMPOST
  1

  9
$DIMAPOST
  1

  9
$DIMALT
 70
     0
  9
$DIMALTD
 70
     2
  9
$DIMALTF
 40
25.4
  9
$DIMLFAC
 40
1.0
  9
$DIMTOFL
 70
     0
  9
$DIMTVP
 40
0.0
  9
$DIMTIX
 70
     0
  9
$DIMSOXD
 70
     0
  9
$DIMSAH
 70
     0
  9
$DIMBLK1
  1

  9
$DIMBLK2
  1

  9
$DIMSTYLE
  2
STANDARD
  9
$DIMCLRD
 70
     0
  9
$DIMCLRE
 70
     0
  9
$DIMCLRT
 70
     0
  9
$DIMTFAC
 40
1.0
  9
$DIMGAP
 40
0.09
  9
$DIMJUST
 70
     0
  9
$DIMSD1
 70
     0
  9
$DIMSD2
 70
     0
  9
$DIMTOLJ
 70
     1
  9
$DIMTZIN
 70
     0
  9
$DIMALTZ
 70
     0
  9
$DIMALTTZ
 70
     0
  9
$DIMUPT
 70
     0
  9
$DIMDEC
 70
     4
  9
$DIMTDEC
 70
     4
  9
$DIMALTU
 70
     2
  9
$DIMALTTD
 70
     2
  9
$DIMTXSTY
  7
STANDARD
  9
$DIMAUNIT
 70
     0
  9
$DIMADEC
 70
     0
  9
$DIMALTRND
 40
0.0
  9
$DIMAZIN
 70
     0
  9
$DIMDSEP
 70
    46
  9
$DIMATFIT
 70
     3
  9
$DIMFRAC
 70
     0
  9
$DIMLDRBLK
  1

  9
$DIMLUNIT
 70
     2
  9
$DIMLWD
 70
    -2
  9
$DIMLWE
 70
    -2
  9
$DIMTMOVE
 70
     0
  9
$LUNITS
 70
     2
  9
$LUPREC
 70
     4
  9
$SKETCHINC
 40
0.1
  9
$FILLETRAD
 40
2.0
  9
$AUNITS
 70
     0
  9
$AUPREC
 70
     0
  9
$MENU
  1
ACAD
  9
$ELEVATION
 40
0.0
  9
$PELEVATION
 40
0.0
  9
$THICKNESS
 40
0.0
  9
$LIMCHECK
 70
     0
  9
$CHAMFERA
 40
1.5
  9
$CHAMFERB
 40
1.5
  9
$CHAMFERC
 40
0.0
  9
$CHAMFERD
 40
0.0
  9
$SKPOLY
 70
     0
  9
$TDCREATE
 40
2311940.850465301
  9
$TDUCREATE
 40
2311940.475465301
  9
$TDUPDATE
 40
2454697.737221308
  9
$TDUUPDATE
 40
2454697.362221308
  9
$TDINDWG
 40
0.0184331366
  9
$TDUSRTIMER
 40
0.0184331366
  9
$USRTIMER
 70
     1
  9
$ANGBASE
 50
0.0
  9
$ANGDIR
 70
     0
  9
$PDMODE
 70
     0
  9
$PDSIZE
 40
0.0
  9
$PLINEWID
 40
0.0
  9
$SPLFRAME
 70
     0
  9
$SPLINETYPE
 70
     6
  9
$SPLINESEGS
 70
     8
  9
$HANDSEED
  5
69E
  9
$SURFTAB1
 70
     6
  9
$SURFTAB2
 70
     6
  9
$SURFTYPE
 70
     6
  9
$SURFU
 70
     6
  9
$SURFV
 70
     6
  9
$UCSBASE
  2

  9
$UCSNAME
  2

  9
$UCSORG
 10
0.0
 20
0.0
 30
0.0
  9
$UCSXDIR
 10
1.0
 20
0.0
 30
0.0
  9
$UCSYDIR
 10
0.0
 20
1.0
 30
0.0
  9
$UCSORTHOREF
  2

  9
$UCSORTHOVIEW
 70
     0
  9
$UCSORGTOP
 10
0.0
 20
0.0
 30
0.0
  9
$UCSORGBOTTOM
 10
0.0
 20
0.0
 30
0.0
  9
$UCSORGLEFT
 10
0.0
 20
0.0
 30
0.0
  9
$UCSORGRIGHT
 10
0.0
 20
0.0
 30
0.0
  9
$UCSORGFRONT
 10
0.0
 20
0.0
 30
0.0
  9
$UCSORGBACK
 10
0.0
 20
0.0
 30
0.0
  9
$PUCSBASE
  2

  9
$PUCSNAME
  2

  9
$PUCSORG
 10
0.0
 20
0.0
 30
0.0
  9
$PUCSXDIR
 10
1.0
 20
0.0
 30
0.0
  9
$PUCSYDIR
 10
0.0
 20
1.0
 30
0.0
  9
$PUCSORTHOREF
  2

  9
$PUCSORTHOVIEW
 70
     0
  9
$PUCSORGTOP
 10
0.0
 20
0.0
 30
0.0
  9
$PUCSORGBOTTOM
 10
0.0
 20
0.0
 30
0.0
  9
$PUCSORGLEFT
 10
0.0
 20
0.0
 30
0.0
  9
$PUCSORGRIGHT
 10
0.0
 20
0.0
 30
0.0
  9
$PUCSORGFRONT
 10
0.0
 20
0.0
 30
0.0
  9
$PUCSORGBACK
 10
0.0
 20
0.0
 30
0.0
  9
$USERI1
 70
     0
  9
$USERI2
 70
     0
  9
$USERI3
 70
     0
  9
$USERI4
 70
     0
  9
$USERI5
 70
     0
  9
$USERR1
 40
0.0
  9
$USERR2
 40
0.0
  9
$USERR3
 40
0.0
  9
$USERR4
 40
0.0
  9
$USERR5
 40
0.0
  9
$WORLDVIEW
 70
     1
  9
$SHADEDGE
 70
     3
  9
$SHADEDIF
 70
    70
  9
$TILEMODE
 70
     1
  9
$MAXACTVP
 70
    48
  9
$PINSBASE
 10
0.0
 20
0.0
 30
0.0
  9
$PLIMCHECK
 70
     0
  9
$PEXTMIN
 10
1.000000000000000E+20
 20
1.000000000000000E+20
 30
1.000000000000000E+20
  9
$PEXTMAX
 10
-1.000000000000000E+20
 20
-1.000000000000000E+20
 30
-1.000000000000000E+20
  9
$PLIMMIN
 10
0.0
 20
0.0
  9
$PLIMMAX
 10
12.0
 20
9.0
  9
$UNITMODE
 70
     0
  9
$VISRETAIN
 70
     1
  9
$PLINEGEN
 70
     0
  9
$PSLTSCALE
 70
     1
  9
$TREEDEPTH
 70
  3020
  9
$CMLSTYLE
  2
STANDARD
  9
$CMLJUST
 70
     0
  9
$CMLSCALE
 40
1.0
  9
$PROXYGRAPHICS
 70
     1
  9
$MEASUREMENT
 70
     0
  9
$CELWEIGHT
370
    -1
  9
$ENDCAPS
280
     0
  9
$JOINSTYLE
280
     0
  9
$LWDISPLAY
290
     0
  9
$INSUNITS
 70
     0
  9
$HYPERLINKBASE
  1

  9
$STYLESHEET
  1

  9
$XEDIT
290
     1
  9
$CEPSNTYPE
380
     0
  9
$PSTYLEMODE
290
     1
  9
$FINGERPRINTGUID
  2
{74BEC188-66F7-4CCC-A18D-03EE4744FA0B}
  9
$VERSIONGUID
  2
{DD4B10F4-9AF2-458D-B08E-9C04883A3664}
  9
$EXTNAMES
290
     1
  9
$PSVPSCALE
 40
0.0
  9
$OLESTARTUP
290
     0
  0
ENDSEC
  0
SECTION
  2
CLASSES
  0
CLASS
  1
ACDBDICTIONARYWDFLT
  2
AcDbDictionaryWithDefault
  3
AutoCAD 2000
 90
        0
280
     0
281
     0
  0
CLASS
  1
ACDBPLACEHOLDER
  2
AcDbPlaceHolder
  3
AutoCAD 2000
 90
        0
280
     0
281
     0
  0
CLASS
  1
LAYOUT
  2
AcDbLayout
  3
AutoCAD 2000
 90
        0
280
     0
281
     0
  0
CLASS
  1
AMGSETTINGSOBJ
  2
AmgSettingsObj
  3
"AcadM|Product Description: AutoCAD Mechanical 2000|Company: Autodesk"
 90
        0
280
     0
281
     0
  0
CLASS
  1
ACME_DOCUMENT
  2
AcMeDbDoc
  3
AcMeServices
 90
        0
280
     0
281
     0
  0
CLASS
  1
ACMESCOPE
  2
AcMeScope
  3
AcMeServices
 90
        0
280
     0
281
     0
  0
CLASS
  1
ACMECOMMANDHISTORY
  2
AcMeCommandHistory
  3
AcMeServices
 90
        0
280
     0
281
     0
  0
CLASS
  1
ACIMSYSVARMAN
  2
AcImSysVarManager
  3
AcMeServices
 90
        0
280
     0
281
     0
  0
CLASS
  1
ACIMREALSYSVAR
  2
AcImRealSysVar
  3
AcMeServices
 90
        0
280
     0
281
     0
  0
CLASS
  1
ACIMINTSYSVAR
  2
AcImIntSysVar
  3
AcMeServices
 90
        0
280
     0
281
     0
  0
CLASS
  1
ACMEDRAWINGMAN
  2
AcMeDrawingMan
  3
AcMeServices
 90
        0
280
     0
281
     0
  0
CLASS
  1
ACMEVIEW
  2
AcMeView
  3
AcMeServices
 90
        0
280
     0
281
     0
  0
CLASS
  1
ACDBENTITYCACHE
  2
AcMeEntityCache
  3
AcMeServices
 90
        0
280
     0
281
     0
  0
CLASS
  1
GSMANAGER
  2
AcMeGSManager
  3
AcMeServices
 90
        0
280
     0
281
     0
  0
CLASS
  1
AMDTINTERNALREACTOR
  2
AmdtInternalReactor
  3
AcMeServices
 90
        0
280
     0
281
     0
  0
CLASS
  1
ACMESTATEMGR
  2
AcMeStateMgr
  3
AcMeServices
 90
        0
280
     0
281
     0
  0
CLASS
  1
ACGREFMASTER
  2
AcGrefMaster
  3
AcAttribServices
 90
        0
280
     0
281
     0
  0
CLASS
  1
AM_DRAWING_MGR
  2
AcDmDwgMgr
  3
AcMechDwgViewMgmt
 90
        0
280
     0
281
     0
  0
CLASS
  1
AM_DWG_DOCUMENT
  2
AcDmDwgDocument
  3
AcMechDwgViewMgmt
 90
        0
280
     0
281
     0
  0
CLASS
  1
AM_DWG_SHEET
  2
AcDmSheet
  3
AcMechDwgViewMgmt
 90
        0
280
     0
281
     0
  0
CLASS
  1
AM_VIEWDIMPARMAP
  2
AcDmViewDimParMap
  3
AcMechDwgViewMgmt
 90
        0
280
     0
281
     0
  0
CLASS
  1
AM_DWGMGR_NAME
  2
AcDmDwgMgrName
  3
AcMechDwgViewMgmt
 90
        0
280
     0
281
     0
  0
CLASS
  1
ACME_DATABASE
  2
AcMeDbDatabase
  3
AcMeServices
 90
        0
280
     0
281
     0
  0
CLASS
  1
ACRFINSADJUSTERMGR
  2
AcRfInsAdjusterMgr
  3
AcMeServices
 90
        0
280
     0
281
     0
  0
CLASS
  1
ACGREFACADMASTER
  2
AcGrefacadMaster
  3
AcGrefServices
 90
        0
280
     0
281
     0
  0
CLASS
  1
AMDTMENUSTATEMGR
  2
AmdtMenuStateMgr
  3
McadcomServices
 90
        0
280
     0
281
     0
  0
CLASS
  1
AMDTMCOMMENUSTATE
  2
AmdtMcomMenuState
  3
McadcomServices
 90
        0
280
     0
281
     0
  0
CLASS
  1
AMIMASTER
  2
AmiMaster
  3
AmiServices
 90
        0
280
     0
281
     0
  0
CLASS
  1
ASAPP
  2
AcAsAppObject
  3
AutoSurfServices
 90
        0
280
     0
281
     0
  0
CLASS
  1
IM_STATIC_MAN
  2
AcImStaticVarManager
  3
AcMeServices
 90
        0
280
     0
281
     0
  0
CLASS
  1
ACIMSTRSYSVAR
  2
AcImStrSysVar
  3
AcMeServices
 90
        0
280
     0
281
     0
  0
CLASS
  1
ACIMDBLSTATICVAR
  2
AcImDblStaticVar
  3
AcMeServices
 90
        0
280
     0
281
     0
  0
CLASS
  1
ACIMSTRSTATICVAR
  2
AcImStrStaticVar
  3
AcMeServices
 90
        0
280
     0
281
     0
  0
CLASS
  1
ACIMINTSTATICVAR
  2
AcImIntStaticVar
  3
AcMeServices
 90
        0
280
     0
281
     0
  0
CLASS
  1
ACASGREFMASTER
  2
AcAsGrefMaster
  3
AutoSurfResolverServices
 90
        0
280
     0
281
     0
  0
CLASS
  1
ACADGREFMODULE
  2
AcAdGrefModule
  3
AdGrefServices
 90
        0
280
     0
281
     0
  0
CLASS
  1
AMDTMAPISURFMOUDULE
  2
AmdtMApiSurfModule
  3
MApiSurfServices
 90
        0
280
     0
281
     0
  0
CLASS
  1
MAPIAMMOUDLE
  2
MApiAmModule
  3
MApiAmServices
 90
        0
280
     0
281
     0
  0
CLASS
  1
AMDTADMENUSTATE
  2
AmdtAdMenuState
  3
DesignerServices
 90
        0
280
     0
281
     0
  0
CLASS
  1
ADAPPL
  2
AcAdAppl
  3
DesignerServices
 90
        0
280
     0
281
     0
  0
CLASS
  1
DEPMGR
  2
AcAdDepMgr
  3
DesignerServices
 90
        0
280
     0
281
     0
  0
CLASS
  1
PARAMMGR
  2
AcAdParamMgr
  3
DesignerServices
 90
        0
280
     0
281
     0
  0
CLASS
  1
PARAMSCOPE
  2
AcAdParamScope
  3
DesignerServices
 90
        0
280
     0
281
     0
  0
CLASS
  1
NAMEDAPPL
  2
AcAdNamedAppl
  3
DesignerServices
 90
        0
280
     0
281
     0
  0
CLASS
  1
AMDTDMMENUSTATE
  2
AmdtDmMenuState
  3
AcMechDwgViewMgmt
 90
        0
280
     0
281
     0
  0
CLASS
  1
MAPIADMODULE
  2
MApiAdModule
  3
MApiAdServices
 90
        0
280
     0
281
     0
  0
CLASS
  1
AMDTAMMENUSTATE
  2
AmdtAmMenuState
  3
DesignerAssemblies
 90
        0
280
     0
281
     0
  0
CLASS
  1
ACAMPROJECT
  2
AcAmProject
  3
DesignerAssemblies
 90
        0
280
     0
281
     0
  0
CLASS
  1
ACAMGRCOMPDEF
  2
AcAmGrCompDef
  3
DesignerAssemblies
 90
        0
280
     0
281
     0
  0
CLASS
  1
ACCMCONTEXT
  2
AcCmContext
  3
DesignerAssemblies
 90
        0
280
     0
281
     0
  0
CLASS
  1
ACAMCOMPDEF
  2
AcAmCompDef
  3
DesignerAssemblies
 90
        0
280
     0
281
     0
  0
CLASS
  1
ACAMCOMPDEFMGR
  2
AcAmCompDefMgr
  3
DesignerAssemblies
 90
        0
280
     0
281
     0
  0
CLASS
  1
AMCONTEXTMGR
  2
AcAmContextMgr
  3
DesignerAssemblies
 90
        0
280
     0
281
     0
  0
CLASS
  1
ACAMCONTEXTMODELER
  2
AcAmContextModeler
  3
DesignerAssemblies
 90
        0
280
     0
281
     0
  0
CLASS
  1
ACMDATADICTIONARY
  2
AcmDataDictionary
  3
"AcmSymBB|Product Description: AutoCAD Mechanical 2000|Company: Autodesk"
 90
        0
280
     0
281
     0
  0
CLASS
  1
ACMDATAENTRYBLOCK
  2
AcmDataEntryBlock
  3
"AcmSymBB|Product Description: AutoCAD Mechanical 2000|Company: Autodesk"
 90
        0
280
     0
281
     0
  0
CLASS
  1
CATALOGSTATE
  2
AcAmCatalogState
  3
DesignerAssemblies
 90
        0
280
     0
281
     0
  0
CLASS
  1
ACAMGRCOMPDEFSET
  2
AcAmGrCompDefSet
  3
DesignerAssemblies
 90
        0
280
     0
281
     0
  0
CLASS
  1
AMDTBROWSERDBTAB
  2
AmdtBrowserDbTab
  3
McadcomServices
 90
        0
280
     0
281
     0
  0
CLASS
  1
CBROWSERAPPOBJECT
  2
CBrowserAppObject
  3
McadcomServices
 90
        0
280
     0
281
     0
  0
CLASS
  1
DM_PLACEHOLDER
  2
AcDmSelsetPlaceholder
  3
AcMechDwgViewMgmt
 90
        0
280
     0
281
     0
  0
CLASS
  1
ACMSTANDARDANSI
  2
AcmStandardANSI
  3
"Amdt_StdImp|Product Description: AutoCAD Mechanical 2000|Company: Autodesk"
 90
        0
280
     0
281
     0
  0
CLASS
  1
AMGOBJPROPCFG
  2
AmgObjPropCfg
  3
"AmgLay|Product Description: AutoCAD Mechanical 2000|Company: Autodesk"
 90
        1
280
     0
281
     0
  0
CLASS
  1
ACMSURFSTANDARDANSI
  2
AcmSurfTextStdANSI
  3
"Amdt_StdImp|Product Description: AutoCAD Mechanical 2000|Company: Autodesk"
 90
        0
280
     0
281
     0
  0
CLASS
  1
ACMFCFSTANDARDANSI
  2
AcmFCFStdANSI
  3
"Amdt_StdImp|Product Description: AutoCAD Mechanical 2000|Company: Autodesk"
 90
        0
280
     0
281
     0
  0
CLASS
  1
ACMWELDSTANDARDANSI
  2
AcmWeldingStdANSI
  3
"Amdt_StdImp|Product Description: AutoCAD Mechanical 2000|Company: Autodesk"
 90
        0
280
     0
281
     0
  0
CLASS
  1
ACMIDSTANDARDANSI
  2
AcmIdStdANSI
  3
"Amdt_StdImp|Product Description: AutoCAD Mechanical 2000|Company: Autodesk"
 90
        0
280
     0
281
     0
  0
CLASS
  1
ACMDATUMSTANDARDANSI
  2
AcmDatumStdANSI
  3
"Amdt_StdImp|Product Description: AutoCAD Mechanical 2000|Company: Autodesk"
 90
        0
280
     0
281
     0
  0
CLASS
  1
ACMBOMSTANDARDANSI
  2
AcmBOMStdANSI
  3
"Amdt_StdImp|Product Description: AutoCAD Mechanical 2000|Company: Autodesk"
 90
        0
280
     0
281
     0
  0
CLASS
  1
ACMDETAILSTANDARDANSI
  2
AmdtDetailSymStdANSI
  3
"Amdt_StdImp|Product Description: AutoCAD Mechanical 2000|Company: Autodesk"
 90
        0
280
     0
281
     0
  0
CLASS
  1
ACMSECTIONSTANDARDANSI
  2
AmdtSectionSymStdANSI
  3
"Amdt_StdImp|Product Description: AutoCAD Mechanical 2000|Company: Autodesk"
 90
        0
280
     0
281
     0
  0
CLASS
  1
ACMCENTERLINESTANDARDANSI
  2
AmdtCenterLineStdANSI
  3
"Amdt_StdImp|Product Description: AutoCAD Mechanical 2000|Company: Autodesk"
 90
        0
280
     0
281
     0
  0
CLASS
  1
ACMTHREADLINESTANDARDANSI
  2
AmdtThreadLineStdANSI
  3
"Amdt_StdImp|Product Description: AutoCAD Mechanical 2000|Company: Autodesk"
 90
        0
280
     0
281
     0
  0
CLASS
  1
ACMNOTESTANDARDANSI
  2
AmdtNoteStdANSI
  3
"Amdt_StdImp|Product Description: AutoCAD Mechanical 2000|Company: Autodesk"
 90
        0
280
     0
281
     0
  0
CLASS
  1
ACAMGLAYSTD
  2
AcAmgLayStd
  3
"AcAmgLayStd|Product Description: AutoCAD Mechanical 2000|Company: Autodesk"
 90
        0
280
     0
281
     0
  0
CLASS
  1
ACAMGDIMSTD
  2
AcAmgDimStd
  3
"AcAmgDimStd|Product Description: AutoCAD Mechanical 2000|Company: Autodesk"
 90
        0
280
     0
281
     0
  0
CLASS
  1
ACAMGHOLECHARTSTDANSI
  2
AcAmgHoleChartStdANSI
  3
ACMSYMBB_MODULE_NAME
 90
        0
280
     0
281
     0
  0
CLASS
  1
ACAMGTITLESTD
  2
AcAmgTitleStd
  3
"TITLEAPP"
 90
        0
280
     0
281
     0
  0
CLASS
  1
LAYER_INDEX
  2
AcDbLayerIndex
  3
AutoCAD 2000
 90
        0
280
     0
281
     0
  0
CLASS
  1
IDBUFFER
  2
AcDbIdBuffer
  3
AutoCAD 2000
 90
        0
280
     0
281
     0
  0
CLASS
  1
DICTIONARYVAR
  2
AcDbDictionaryVar
  3
AutoCAD 2000
 90
        0
280
     0
281
     0
  0
CLASS
  1
ACAMGFILTERDAT
  2
AcAmgFilterDat
  3
"AcadM|Product Description: AutoCAD Mechanical 2000|Company: Autodesk"
 90
        0
280
     0
281
     0
  0
CLASS
  1
AMDTFORMULAUPDATEDISPATCHER
  2
AmdtFormulaUpdateDispatcher
  3
AcMeServices
 90
        0
280
     0
281
     0
  0
ENDSEC
  0
SECTION
  2
TABLES
  0
TABLE
  2
VPORT
  5
8
330
0
100
AcDbSymbolTable
 70
    25
  0
VPORT
  5
69D
330
8
100
AcDbSymbolTableRecord
100
AcDbViewportTableRecord
  2
*Active
 70
     0
 10
0.0
 20
0.0
 11
1.0
 21
1.0
 12
0.0
 22
0.0
 13
0.0
 23
0.0
 14
1.0
 24
1.0
 15
0.0
 25
0.0
 16
0.0
 26
0.0
 36
1.0
 17
12.57731920754716
 27
20.0
 37
0.0
 40
400.6052128953778
 41
1.516981132075471
 42
50.0
 43
0.0
 44
0.0
 50
0.0
 51
0.0
 71
     0
 72
   100
 73
     1
 74
     1
 75
     0
 76
     0
 77
     0
 78
     0
281
     0
 65
     0
110
0.0
120
0.0
130
0.0
111
1.0
121
0.0
131
0.0
112
0.0
122
1.0
132
0.0
 79
     0
146
0.0
  0
ENDTAB
  0
TABLE
  2
LTYPE
  5
5
330
0
100
AcDbSymbolTable
 70
    25
  0
LTYPE
  5
12
330
5
100
AcDbSymbolTableRecord
100
AcDbLinetypeTableRecord
  2
BYBLOCK
 70
     0
  3

 72
    65
 73
     0
 40
0.0
  0
LTYPE
  5
13
330
5
100
AcDbSymbolTableRecord
100
AcDbLinetypeTableRecord
  2
BYLAYER
 70
     0
  3

 72
    65
 73
     0
 40
0.0
  0
LTYPE
  5
14
330
5
100
AcDbSymbolTableRecord
100
AcDbLinetypeTableRecord
  2
CONTINUOUS
 70
     0
  3
Solid line
 72
    65
 73
     0
 40
0.0
  0
LTYPE
  5
1F
330
5
100
AcDbSymbolTableRecord
100
AcDbLinetypeTableRecord
  2
BORDER
 70
     0
  3
__ __ . __ __ .
 72
    65
 73
     6
 40
2.901315999999999
 49
0.8289469999999999
 74
     0
 49
-0.414474
 74
     0
 49
0.8289469999999999
 74
     0
 49
-0.414474
 74
     0
 49
0.0
 74
     0
 49
-0.414474
 74
     0
  0
LTYPE
  5
20
330
5
100
AcDbSymbolTableRecord
100
AcDbLinetypeTableRecord
  2
CENTER
 70
     0
  3
____ _ ____ _
 72
    65
 73
     4
 40
3.315789
 49
2.072367999999999
 74
     0
 49
-0.414474
 74
     0
 49
0.414474
 74
     0
 49
-0.414474
 74
     0
  0
LTYPE
  5
21
330
5
100
AcDbSymbolTableRecord
100
AcDbLinetypeTableRecord
  2
DASHDOT
 70
     0
  3
__ . __ . __ .
 72
    65
 73
     4
 40
1.657895
 49
0.8289469999999999
 74
     0
 49
-0.414474
 74
     0
 49
0.0
 74
     0
 49
-0.414474
 74
     0
  0
LTYPE
  5
22
330
5
100
AcDbSymbolTableRecord
100
AcDbLinetypeTableRecord
  2
DASHED
 70
     0
  3
__ __ __ __ __
 72
    65
 73
     2
 40
1.243420999999999
 49
0.8289469999999999
 74
     0
 49
-0.414474
 74
     0
  0
LTYPE
  5
23
330
5
100
AcDbSymbolTableRecord
100
AcDbLinetypeTableRecord
  2
DIVIDE
 70
     0
  3
__ . . __ . . 
 72
    65
 73
     6
 40
2.072367999999999
 49
0.8289469999999999
 74
     0
 49
-0.414474
 74
     0
 49
0.0
 74
     0
 49
-0.414474
 74
     0
 49
0.0
 74
     0
 49
-0.414474
 74
     0
  0
LTYPE
  5
24
330
5
100
AcDbSymbolTableRecord
100
AcDbLinetypeTableRecord
  2
DOT
 70
     0
  3
..............
 72
    65
 73
     4
 40
0.8289469999999999
 49
0.0
 74
     0
 49
-0.414474
 74
     0
 49
0.0
 74
     0
 49
-0.414474
 74
     0
  0
LTYPE
  5
25
330
5
100
AcDbSymbolTableRecord
100
AcDbLinetypeTableRecord
  2
HIDDEN
 70
     0
  3
_ _ _ _ _ _ _
 72
    65
 73
     2
 40
0.621711
 49
0.414474
 74
     0
 49
-0.207237
 74
     0
  0
LTYPE
  5
26
330
5
100
AcDbSymbolTableRecord
100
AcDbLinetypeTableRecord
  2
PHANTOM
 70
     0
  3
_____ _ _ _____ _ _ 
 72
    65
 73
     6
 40
4.144737
 49
2.072367999999999
 74
     0
 49
-0.414474
 74
     0
 49
0.414474
 74
     0
 49
-0.414474
 74
     0
 49
0.414474
 74
     0
 49
-0.414474
 74
     0
  0
LTYPE
  5
9F
330
5
100
AcDbSymbolTableRecord
100
AcDbLinetypeTableRecord
  2
PHANTOM2
 70
     0
  3
Phantom (.5x) ___ _ _ ___ _ _ ___ _ _ ___ _ _
 72
    65
 73
     6
 40
1.25
 49
0.625
 74
     0
 49
-0.125
 74
     0
 49
0.125
 74
     0
 49
-0.125
 74
     0
 49
0.125
 74
     0
 49
-0.125
 74
     0
  0
LTYPE
  5
101
330
5
100
AcDbSymbolTableRecord
100
AcDbLinetypeTableRecord
  2
ASULTYPE
 70
     0
  3
実線
 72
    65
 73
     2
 40
3.0
 49
2.5
 74
     0
 49
0.5
 74
     0
  0
LTYPE
  5
102
330
5
100
AcDbSymbolTableRecord
100
AcDbLinetypeTableRecord
  2
ASVLTYPE
 70
     0
  3
__ __ __ __ __ __ __ __ __ __ __ __ __ __ __ __ __ __ __ __ __
 72
    65
 73
     2
 40
0.75
 49
0.5
 74
     0
 49
-0.25
 74
     0
  0
LTYPE
  5
146
330
5
100
AcDbSymbolTableRecord
100
AcDbLinetypeTableRecord
  2
AM_ISO02W050
 70
     0
  3
__ __ __ __ __ __ __ __ __ __ __ __ __ __ __
 72
    65
 73
     2
 40
7.5
 49
6.0
 74
     0
 49
-1.5
 74
     0
  0
LTYPE
  5
147
330
5
100
AcDbSymbolTableRecord
100
AcDbLinetypeTableRecord
  2
AM_ISO08W050
 70
     0
  3
____ . ____ . ____ . ____ . ____ . ____ . ____
 72
    65
 73
     4
 40
18.0
 49
12.0
 74
     0
 49
-1.5
 74
     0
 49
3.0
 74
     0
 49
-1.5
 74
     0
  0
LTYPE
  5
148
330
5
100
AcDbSymbolTableRecord
100
AcDbLinetypeTableRecord
  2
AM_ISO09W050
 70
     0
  3
_____ . . _____ . . _____ . . ____ .. ____
 72
    65
 73
     6
 40
22.5
 49
12.0
 74
     0
 49
-1.5
 74
     0
 49
3.0
 74
     0
 49
-1.5
 74
     0
 49
3.0
 74
     0
 49
-1.5
 74
     0
  0
LTYPE
  5
149
330
5
100
AcDbSymbolTableRecord
100
AcDbLinetypeTableRecord
  2
Amconstr
 70
     0
  3
_______________________
 72
    65
 73
     2
 40
9999.0
 49
9999.0
 74
     0
 49
0.0
 74
     0
  0
LTYPE
  5
14A
330
5
100
AcDbSymbolTableRecord
100
AcDbLinetypeTableRecord
  2
AM_ISO08W050x2
 70
     0
  3
__ . __ . __ . __ . __ . __
 72
    65
 73
     4
 40
9.0
 49
6.0
 74
     0
 49
-0.75
 74
     0
 49
1.5
 74
     0
 49
-0.75
 74
     0
  0
LTYPE
  5
14B
330
5
100
AcDbSymbolTableRecord
100
AcDbLinetypeTableRecord
  2
AM_ISO02W050x2
 70
     0
  3
 _ _ _ _ _ _ _ _ _ _ _ _
 72
    65
 73
     2
 40
3.75
 49
3.0
 74
     0
 49
-0.75
 74
     0
  0
LTYPE
  5
14E
330
5
100
AcDbSymbolTableRecord
100
AcDbLinetypeTableRecord
  2
Amzigzag
 70
     0
  3
/\/-/\/-/\/-/\/-/\/-/\/
 72
    65
 73
     2
 40
11.00009999999999
 49
0.0001
 74
     4
 75
   135
340
14D
 46
0.04
 50
0.0
 44
0.0
 45
0.0
 49
-11.0
 74
     0
  0
LTYPE
  5
14F
330
5
100
AcDbSymbolTableRecord
100
AcDbLinetypeTableRecord
  2
CENTER2
 70
     0
  3
Center (.5x) ___ _ ___ _ ___ _ ___ _ ___ _ ___
 72
    65
 73
     4
 40
1.125
 49
0.75
 74
     0
 49
-0.125
 74
     0
 49
0.125
 74
     0
 49
-0.125
 74
     0
  0
LTYPE
  5
150
330
5
100
AcDbSymbolTableRecord
100
AcDbLinetypeTableRecord
  2
HIDDEN2
 70
     0
  3
Hidden (.5x) _ _ _ _ _ _ _ _ _ _ _ _ _ _ _ _ _
 72
    65
 73
     2
 40
0.1875
 49
0.125
 74
     0
 49
-0.0625
 74
     0
  0
LTYPE
  5
151
330
5
100
AcDbSymbolTableRecord
100
AcDbLinetypeTableRecord
  2
Amzigzag2
 70
     0
  3
/\/-/\/-/\/-/\/-/\/-/\/
 72
    65
 73
     2
 40
0.4401
 49
0.0001
 74
     4
 75
   135
340
14D
 46
0.0016
 50
0.0
 44
0.0
 45
0.0
 49
-0.4400000000000001
 74
     0
  0
LTYPE
  5
15F
330
5
100
AcDbSymbolTableRecord
100
AcDbLinetypeTableRecord
  2
ACANSTGB
 70
     0
  3
__ . . __ . .
 72
    65
 73
     6
 40
0.35433070866
 49
0.15748031496
 74
     0
 49
-0.03937007874
 74
     0
 49
0.03937007874
 74
     0
 49
-0.03937007874
 74
     0
 49
0.03937007874
 74
     0
 49
-0.03937007874
 74
     0
  0
LTYPE
  5
160
330
5
100
AcDbSymbolTableRecord
100
AcDbLinetypeTableRecord
  2
ACANSTGL
 70
     0
  3
_ _ _ _ _
 72
    65
 73
     2
 40
0.11811023622
 49
0.07874015748
 74
     0
 49
-0.03937007874
 74
     0
  0
LTYPE
  5
195
330
5
100
AcDbSymbolTableRecord
100
AcDbLinetypeTableRecord
  2
ITTEN1
 70
     0
  3

 72
    65
 73
     4
 40
8.199999999999999
 49
5.0
 74
     0
 49
-1.0
 74
     0
 49
1.199999999999999
 74
     0
 49
-1.0
 74
     0
  0
ENDTAB
  0
TABLE
  2
LAYER
  5
2
330
0
100
AcDbSymbolTable
 70
     7
  0
LAYER
  5
E
330
2
100
AcDbSymbolTableRecord
100
AcDbLayerTableRecord
  2
0
 70
     0
 62
     7
  6
CONTINUOUS
370
    -3
390
71
  0
LAYER
  5
27
330
2
100
AcDbSymbolTableRecord
100
AcDbLayerTableRecord
  2
HALDER_NORMTEILE
 70
     0
 62
     7
  6
CONTINUOUS
370
    -3
390
71
  0
LAYER
  5
28
330
2
100
AcDbSymbolTableRecord
100
AcDbLayerTableRecord
  2
HALDER_NORMTEILE_MITTELLINIE
 70
     0
 62
     7
  6
CONTINUOUS
370
    -3
390
71
  0
LAYER
  5
29
330
2
100
AcDbSymbolTableRecord
100
AcDbLayerTableRecord
  2
HALDER_INFO
 70
     0
 62
     7
  6
CONTINUOUS
370
    -3
390
71
  0
LAYER
  5
196
330
2
100
AcDbSymbolTableRecord
100
AcDbLayerTableRecord
  2
1
 70
     0
 62
     1
  6
ITTEN1
370
    -3
390
71
  0
LAYER
  5
197
330
2
100
AcDbSymbolTableRecord
100
AcDbLayerTableRecord
  2
3
 70
     0
 62
     5
  6
CONTINUOUS
370
    50
390
71
  0
LAYER
  5
198
330
2
100
AcDbSymbolTableRecord
100
AcDbLayerTableRecord
  2
DEFPOINTS
 70
     0
 62
     7
  6
CONTINUOUS
290
     0
370
    -3
390
71
  0
ENDTAB
  0
TABLE
  2
STYLE
  5
3
330
0
100
AcDbSymbolTable
 70
     8
  0
STYLE
  5
F
330
3
100
AcDbSymbolTableRecord
100
AcDbTextStyleTableRecord
  2
STANDARD
 70
     0
 40
0.0
 41
1.0
 50
0.0
 71
     0
 42
3.5
  3
txt
  4

  0
STYLE
  5
2A
330
3
100
AcDbSymbolTableRecord
100
AcDbTextStyleTableRecord
  2
SIMPLEX
 70
     0
 40
0.0
 41
1.0
 50
0.0
 71
     0
 42
3.5
  3
simplex
  4

  0
STYLE
  5
2B
330
3
100
AcDbSymbolTableRecord
100
AcDbTextStyleTableRecord
  2
COMPLEX
 70
     0
 40
0.0
 41
1.0
 50
0.0
 71
     0
 42
3.5
  3
complex
  4

  0
STYLE
  5
2C
330
3
100
AcDbSymbolTableRecord
100
AcDbTextStyleTableRecord
  2
ITALIC
 70
     0
 40
0.0
 41
1.0
 50
0.0
 71
     0
 42
3.5
  3
italic
  4

  0
STYLE
  5
14D
330
3
100
AcDbSymbolTableRecord
100
AcDbTextStyleTableRecord
  2

 70
     1
 40
0.0
 41
1.0
 50
0.0
 71
     0
 42
3.5
  3
ltypeshp.shx
  4

  0
STYLE
  5
152
330
3
100
AcDbSymbolTableRecord
100
AcDbTextStyleTableRecord
  2
ACANSTS
 70
     0
 40
1.0
 41
1.0
 50
0.0
 71
     0
 42
3.5
  3
romans.shx
  4
extfont.shx
  0
STYLE
  5
15E
330
3
100
AcDbSymbolTableRecord
100
AcDbTextStyleTableRecord
  2
ACANSGDT
 70
     0
 40
0.0
 41
1.0
 50
0.0
 71
     0
 42
3.5
  3
amgdtans.shx
  4

  0
STYLE
  5
199
330
3
100
AcDbSymbolTableRecord
100
AcDbTextStyleTableRecord
  2
BIGFONT
 70
     0
 40
5.0
 41
0.6
 50
0.0
 71
     0
 42
5.0
  3
txt.shx
  4
bigfont.shx
  0
ENDTAB
  0
TABLE
  2
VIEW
  5
6
330
0
100
AcDbSymbolTable
 70
     0
  0
ENDTAB
  0
TABLE
  2
UCS
  5
7
330
0
100
AcDbSymbolTable
 70
     0
  0
ENDTAB
  0
TABLE
  2
APPID
  5
9
330
0
100
AcDbSymbolTable
 70
    13
  0
APPID
  5
10
330
9
100
AcDbSymbolTableRecord
100
AcDbRegAppTableRecord
  2
ACAD
 70
     0
  0
APPID
  5
7D
330
9
100
AcDbSymbolTableRecord
100
AcDbRegAppTableRecord
  2
GENIUS_GENDIM_13
 70
     0
  0
APPID
  5
7E
330
9
100
AcDbSymbolTableRecord
100
AcDbRegAppTableRecord
  2
GENIUS_GENDTOL_13
 70
     0
  0
APPID
  5
7F
330
9
100
AcDbSymbolTableRecord
100
AcDbRegAppTableRecord
  2
GENIUS_GE3DTOL_13
 70
     0
  0
APPID
  5
82
330
9
100
AcDbSymbolTableRecord
100
AcDbRegAppTableRecord
  2
MCAD_NO_VIS
 70
     0
  0
APPID
  5
83
330
9
100
AcDbSymbolTableRecord
100
AcDbRegAppTableRecord
  2
ACAD_TEMP_GRAPHIC
 70
     0
  0
APPID
  5
B4
330
9
100
AcDbSymbolTableRecord
100
AcDbRegAppTableRecord
  2
AD_DRAW
 70
     0
  0
APPID
  5
B7
330
9
100
AcDbSymbolTableRecord
100
AcDbRegAppTableRecord
  2
ACATTRIBSERVICES
 70
     0
  0
APPID
  5
103
330
9
100
AcDbSymbolTableRecord
100
AcDbRegAppTableRecord
  2
ASURF_PCURVE_APPNAME
 70
     0
  0
APPID
  5
108
330
9
100
AcDbSymbolTableRecord
100
AcDbRegAppTableRecord
  2
AMG_3D2D_5.0
 70
     0
  0
APPID
  5
133
330
9
100
AcDbSymbolTableRecord
100
AcDbRegAppTableRecord
  2
DESIGNERASSEMBLIES
 70
     0
  0
APPID
  5
13B
330
9
100
AcDbSymbolTableRecord
100
AcDbRegAppTableRecord
  2
ACADM_DIM_EDIT
 70
     0
  0
APPID
  5
13C
330
9
100
AcDbSymbolTableRecord
100
AcDbRegAppTableRecord
  2
AMDT_DM_ADJ
 70
     0
  0
ENDTAB
  0
TABLE
  2
DIMSTYLE
  5
A
330
0
100
AcDbSymbolTable
 70
     7
100
AcDbDimStyleTable
 71
     0
  0
DIMSTYLE
105
52
330
A
100
AcDbSymbolTableRecord
100
AcDbDimStyleTableRecord
  2
STANDARD
 70
     0
340
F
  0
DIMSTYLE
105
165
330
A
100
AcDbSymbolTableRecord
100
AcDbDimStyleTableRecord
  2
AM_ANSI
 70
     0
  4
mm
 41
0.1
 42
0.05
 43
0.5
 44
0.1
 47
0.1
 48
0.1
 78
     7
 79
     2
140
0.12
141
0.0
146
0.71
147
0.06
176
   256
177
   256
178
     2
274
     4
284
     7
340
F
371
    -1
372
    -1
  0
DIMSTYLE
105
166
330
A
100
AcDbSymbolTableRecord
100
AcDbDimStyleTableRecord
  2
AM_ANSI$3
 70
     0
  4
mm
 41
0.1
 42
0.05
 43
0.5
 44
0.1
 47
0.1
 48
0.1
 78
     7
 79
     2
140
0.12
141
0.0
146
0.71
147
0.06
176
   256
177
   256
178
     2
274
     4
284
     7
288
     1
289
     0
340
F
371
    -1
372
    -1
  0
DIMSTYLE
105
167
330
A
100
AcDbSymbolTableRecord
100
AcDbDimStyleTableRecord
  2
AM_ANSI$4
 70
     0
  4
mm
 41
0.1
 42
0.05
 43
0.5
 44
0.1
 47
0.1
 48
0.1
 78
     7
 79
     2
140
0.12
141
0.0
146
0.71
147
0.06
176
   256
177
   256
178
     2
274
     4
284
     7
288
     1
289
     0
340
F
371
    -1
372
    -1
  0
DIMSTYLE
105
168
330
A
100
AcDbSymbolTableRecord
100
AcDbDimStyleTableRecord
  2
AM_ANSI$7
 70
     0
  4
mm
 41
0.1
 42
0.05
 43
0.5
 44
0.1
 47
0.1
 48
0.1
 78
     7
 79
     2
140
0.24
141
0.0
146
0.71
147
0.06
176
   256
177
   256
178
     2
274
     4
284
     7
340
F
371
    -1
372
    -1
  0
DIMSTYLE
105
169
330
A
100
AcDbSymbolTableRecord
100
AcDbDimStyleTableRecord
  2
AM_ANSI$SF
 70
     0
  4
mm
 41
0.1
 42
0.05
 43
0.5
 44
0.1
 47
0.1
 48
0.1
 75
     1
 76
     1
 78
     7
 79
     2
140
0.12
141
0.0
146
0.71
147
0.06
176
   256
177
   256
178
     2
274
     4
284
     7
340
F
371
    -1
372
    -1
  0
DIMSTYLE
105
16E
330
A
100
AcDbSymbolTableRecord
100
AcDbDimStyleTableRecord
  2
AM_ANSI$SH
 70
     0
  4
mm
 41
0.1
 42
0.05
 43
0.5
 44
0.1
 47
0.1
 48
0.1
 75
     1
 76
     1
 78
     7
 79
     2
140
0.12
141
0.0
146
0.71
147
0.06
173
     1
176
   256
177
   256
178
     2
274
     4
284
     7
340
F
343
16A
371
    -1
372
    -1
  0
ENDTAB
  0
TABLE
  2
BLOCK_RECORD
  5
1
330
0
100
AcDbSymbolTable
 70
    21
  0
BLOCK_RECORD
  5
18
102
{ACAD_XDICTIONARY
360
172
102
}
330
1
100
AcDbSymbolTableRecord
100
AcDbBlockTableRecord
  2
*MODEL_SPACE
340
74
  0
BLOCK_RECORD
  5
15
330
1
100
AcDbSymbolTableRecord
100
AcDbBlockTableRecord
  2
*PAPER_SPACE
340
75
  0
BLOCK_RECORD
  5
53
330
1
100
AcDbSymbolTableRecord
100
AcDbBlockTableRecord
  2
A$C65FD32EE
340
0
  0
BLOCK_RECORD
  5
12A
330
1
100
AcDbSymbolTableRecord
100
AcDbBlockTableRecord
  2
*U1
340
0
  0
BLOCK_RECORD
  5
16A
330
1
100
AcDbSymbolTableRecord
100
AcDbBlockTableRecord
  2
GENAXEH
340
0
  0
BLOCK_RECORD
  5
186
330
1
100
AcDbSymbolTableRecord
100
AcDbBlockTableRecord
  2
_None
340
0
  0
BLOCK_RECORD
  5
327
330
1
100
AcDbSymbolTableRecord
100
AcDbBlockTableRecord
  2
*D6
340
0
  0
BLOCK_RECORD
  5
3AB
330
1
100
AcDbSymbolTableRecord
100
AcDbBlockTableRecord
  2
*D8
340
0
  0
BLOCK_RECORD
  5
3D2
330
1
100
AcDbSymbolTableRecord
100
AcDbBlockTableRecord
  2
*D9
340
0
  0
BLOCK_RECORD
  5
458
330
1
100
AcDbSymbolTableRecord
100
AcDbBlockTableRecord
  2
*D11
340
0
  0
BLOCK_RECORD
  5
47F
330
1
100
AcDbSymbolTableRecord
100
AcDbBlockTableRecord
  2
*D12
340
0
  0
BLOCK_RECORD
  5
501
330
1
100
AcDbSymbolTableRecord
100
AcDbBlockTableRecord
  2
*D14
340
0
  0
BLOCK_RECORD
  5
528
330
1
100
AcDbSymbolTableRecord
100
AcDbBlockTableRecord
  2
*D15
340
0
  0
BLOCK_RECORD
  5
5AC
330
1
100
AcDbSymbolTableRecord
100
AcDbBlockTableRecord
  2
*D17
340
0
  0
BLOCK_RECORD
  5
5D3
330
1
100
AcDbSymbolTableRecord
100
AcDbBlockTableRecord
  2
*D18
340
0
  0
BLOCK_RECORD
  5
663
330
1
100
AcDbSymbolTableRecord
100
AcDbBlockTableRecord
  2
*D20
340
0
  0
ENDTAB
  0
ENDSEC
  0
SECTION
  2
BLOCKS
  0
BLOCK
  5
19
330
18
100
AcDbEntity
  8
0
100
AcDbBlockBegin
  2
*MODEL_SPACE
 70
     0
 10
0.0
 20
0.0
 30
0.0
  3
*MODEL_SPACE
  1

  0
ENDBLK
  5
1A
330
18
100
AcDbEntity
  8
0
100
AcDbBlockEnd
  0
BLOCK
  5
16
330
15
100
AcDbEntity
 67
     1
  8
0
100
AcDbBlockBegin
  2
*PAPER_SPACE
 70
     0
 10
0.0
 20
0.0
 30
0.0
  3
*PAPER_SPACE
  1

  0
ENDBLK
  5
17
330
15
100
AcDbEntity
 67
     1
  8
0
100
AcDbBlockEnd
  0
BLOCK
  5
6A
330
53
100
AcDbEntity
  8
0
100
AcDbBlockBegin
  2
A$C65FD32EE
 70
     0
 10
0.0
 20
0.0
 30
0.0
  3
A$C65FD32EE
  1

  0
CIRCLE
  5
54
330
53
100
AcDbEntity
  8
HALDER_NORMTEILE
  6
DASHED
 62
     3
100
AcDbCircle
 10
36.5
 20
36.5
 30
0.0
 40
15.0
  0
CIRCLE
  5
55
330
53
100
AcDbEntity
  8
HALDER_NORMTEILE
  6
DASHED
 62
     3
100
AcDbCircle
 10
36.5
 20
36.5
 30
0.0
 40
4.25
  0
CIRCLE
  5
56
330
53
100
AcDbEntity
  8
HALDER_NORMTEILE
  6
DASHED
 62
     3
100
AcDbCircle
 10
36.5
 20
36.5
 30
0.0
 40
12.5
  0
ARC
  5
57
330
53
100
AcDbEntity
  8
HALDER_NORMTEILE
 62
     7
100
AcDbCircle
 10
36.5
 20
63.0
 30
0.0
 40
5.0
100
AcDbArc
 50
358.8872839999999
 51
90.0
  0
ARC
  5
58
330
53
100
AcDbEntity
  8
HALDER_NORMTEILE
 62
     7
100
AcDbCircle
 10
36.5
 20
10.0
 30
0.0
 40
5.0
100
AcDbArc
 50
270.0
 51
1.112716
  0
ARC
  5
59
330
53
100
AcDbEntity
  8
HALDER_NORMTEILE
  6
DASHED
 62
     3
100
AcDbCircle
 10
36.5
 20
36.5
 30
0.0
 40
5.0
100
AcDbArc
 50
170.0
 51
100.0
  0
LINE
  5
5A
330
53
100
AcDbEntity
  8
HALDER_NORMTEILE_MITTELLINIE
  6
DASHDOT
 62
     2
100
AcDbLine
 10
0.0
 20
36.5
 30
0.0
 11
73.0
 21
36.5
 31
0.0
  0
ARC
  5
5B
330
53
100
AcDbEntity
  8
HALDER_NORMTEILE
 62
     7
100
AcDbCircle
 10
10.0
 20
36.5
 30
0.0
 40
5.0
100
AcDbArc
 50
88.88728399999999
 51
180.0
  0
LINE
  5
5C
330
53
100
AcDbEntity
  8
HALDER_NORMTEILE_MITTELLINIE
  6
DASHDOT
 62
     2
100
AcDbLine
 10
36.5
 20
0.0
 30
0.0
 11
36.5
 21
73.0
 31
0.0
  0
ARC
  5
5D
330
53
100
AcDbEntity
  8
HALDER_NORMTEILE
 62
     7
100
AcDbCircle
 10
10.504903
 20
10.504903
 30
0.0
 40
21.0
100
AcDbArc
 50
45.0
 51
91.112716
  0
ARC
  5
5E
330
53
100
AcDbEntity
  8
HALDER_NORMTEILE
 62
     7
100
AcDbCircle
 10
10.0
 20
36.5
 30
0.0
 40
5.0
100
AcDbArc
 50
180.0
 51
271.112716
  0
ARC
  5
5F
330
53
100
AcDbEntity
  8
HALDER_NORMTEILE
 62
     7
100
AcDbCircle
 10
10.504903
 20
10.504903
 30
0.0
 40
21.0
100
AcDbArc
 50
358.8872839999999
 51
45.0
  0
ARC
  5
60
330
53
100
AcDbEntity
  8
HALDER_NORMTEILE
 62
     7
100
AcDbCircle
 10
36.5
 20
10.0
 30
0.0
 40
5.0
100
AcDbArc
 50
178.887284
 51
270.0
  0
ARC
  5
61
330
53
100
AcDbEntity
  8
HALDER_NORMTEILE
 62
     7
100
AcDbCircle
 10
10.504903
 20
62.49509699999999
 30
0.0
 40
21.0
100
AcDbArc
 50
268.8872839999999
 51
315.0
  0
ARC
  5
62
330
53
100
AcDbEntity
  8
HALDER_NORMTEILE
 62
     7
100
AcDbCircle
 10
10.504903
 20
62.49509699999999
 30
0.0
 40
21.0
100
AcDbArc
 50
315.0
 51
1.112716
  0
ARC
  5
63
330
53
100
AcDbEntity
  8
HALDER_NORMTEILE
 62
     7
100
AcDbCircle
 10
36.5
 20
63.0
 30
0.0
 40
5.0
100
AcDbArc
 50
90.0
 51
181.1127159999999
  0
ARC
  5
64
330
53
100
AcDbEntity
  8
HALDER_NORMTEILE
 62
     7
100
AcDbCircle
 10
63.0
 20
36.5
 30
0.0
 40
5.0
100
AcDbArc
 50
0.0
 51
91.112716
  0
ARC
  5
65
330
53
100
AcDbEntity
  8
HALDER_NORMTEILE
 62
     7
100
AcDbCircle
 10
62.49509699999999
 20
10.504903
 30
0.0
 40
21.0
100
AcDbArc
 50
88.88728399999999
 51
135.0
  0
ARC
  5
66
330
53
100
AcDbEntity
  8
HALDER_NORMTEILE
 62
     7
100
AcDbCircle
 10
62.49509699999999
 20
10.504903
 30
0.0
 40
21.0
100
AcDbArc
 50
135.0
 51
181.1127159999999
  0
ARC
  5
67
330
53
100
AcDbEntity
  8
HALDER_NORMTEILE
 62
     7
100
AcDbCircle
 10
63.0
 20
36.5
 30
0.0
 40
5.0
100
AcDbArc
 50
268.8872839999999
 51
0.0
  0
ARC
  5
68
330
53
100
AcDbEntity
  8
HALDER_NORMTEILE
 62
     7
100
AcDbCircle
 10
62.49509699999999
 20
62.49509699999999
 30
0.0
 40
21.0
100
AcDbArc
 50
225.0
 51
271.112716
  0
ARC
  5
69
330
53
100
AcDbEntity
  8
HALDER_NORMTEILE
 62
     7
100
AcDbCircle
 10
62.49509699999999
 20
62.49509699999999
 30
0.0
 40
21.0
100
AcDbArc
 50
178.887284
 51
225.0
  0
ENDBLK
  5
6B
330
53
100
AcDbEntity
  8
0
100
AcDbBlockEnd
  0
BLOCK
  5
12B
330
12A
100
AcDbEntity
  8
0
100
AcDbBlockBegin
  2
*U1
 70
     1
 10
0.0
 20
0.0
 30
0.0
  3
*U1
  1

  0
ENDBLK
  5
12C
330
12A
100
AcDbEntity
  8
0
100
AcDbBlockEnd
  0
BLOCK
  5
16C
330
16A
100
AcDbEntity
  8
0
100
AcDbBlockBegin
  2
GENAXEH
 70
     0
 10
0.0
 20
0.0
 30
0.0
  3
GENAXEH
  1

  0
LINE
  5
16B
330
16A
100
AcDbEntity
  8
0
100
AcDbLine
 10
-1.0
 20
0.0
 30
0.0
 11
1.0
 21
0.0
 31
0.0
  0
ENDBLK
  5
16D
330
16A
100
AcDbEntity
  8
0
100
AcDbBlockEnd
  0
BLOCK
  5
187
330
186
100
AcDbEntity
  8
0
100
AcDbBlockBegin
  2
_None
 70
     0
 10
0.0
 20
0.0
 30
0.0
  3
_None
  1

  0
ENDBLK
  5
188
330
186
100
AcDbEntity
  8
0
100
AcDbBlockEnd
  0
BLOCK
  5
332
330
327
100
AcDbEntity
  8
0
100
AcDbBlockBegin
  2
*D6
 70
     1
 10
0.0
 20
0.0
 30
0.0
  3
*D6
  1

  0
LINE
  5
328
330
327
100
AcDbEntity
  8
0
 62
     0
370
    -2
100
AcDbLine
 10
164.9734407275984
 20
159.186785421447
 30
0.0
 11
130.5641860554389
 21
159.186785421447
 31
0.0
  0
LINE
  5
329
330
327
100
AcDbEntity
  8
0
 62
     0
370
    -2
100
AcDbLine
 10
164.9734407275984
 20
119.1867854214469
 30
0.0
 11
130.5641860554389
 21
119.186785421447
 31
0.0
  0
LINE
  5
32A
330
327
100
AcDbEntity
  8
0
 62
     0
370
    -2
100
AcDbLine
 10
131.0641860554389
 20
157.186785421447
 30
0.0
 11
131.0641860554389
 21
144.3567227379335
 31
0.0
  0
LINE
  5
32B
330
327
100
AcDbEntity
  8
0
 62
     0
370
    -2
100
AcDbLine
 10
131.0641860554389
 20
121.186785421447
 30
0.0
 11
131.0641860554389
 21
138.3567227379335
 31
0.0
  0
SOLID
  5
32C
330
327
100
AcDbEntity
  8
0
 62
     0
100
AcDbTrace
 10
130.7308527221056
 20
157.186785421447
 30
0.0
 11
131.3975193887722
 21
157.186785421447
 31
0.0
 12
131.0641860554389
 22
159.186785421447
 32
0.0
 13
131.0641860554389
 23
159.186785421447
 33
0.0
  0
SOLID
  5
32D
330
327
100
AcDbEntity
  8
0
 62
     0
100
AcDbTrace
 10
130.7308527221056
 20
121.186785421447
 30
0.0
 11
131.3975193887722
 21
121.186785421447
 31
0.0
 12
131.0641860554389
 22
119.186785421447
 32
0.0
 13
131.0641860554389
 23
119.186785421447
 33
0.0
  0
MTEXT
  5
32E
330
327
100
AcDbEntity
  8
0
 62
     0
100
AcDbMText
 10
131.0641860554389
 20
141.3567227379335
 30
0.0
 40
4.0
 41
0.0
 71
     5
 72
     1
  1
\A2;40\P
 11
0.0000000000000001
 21
1.0
 31
0.0
 73
     1
 44
1.0
  0
POINT
  5
32F
330
327
100
AcDbEntity
  8
DEFPOINTS
 62
     0
100
AcDbPoint
 10
165.4734407275984
 20
159.186785421447
 30
0.0
  0
POINT
  5
330
330
327
100
AcDbEntity
  8
DEFPOINTS
 62
     0
100
AcDbPoint
 10
165.4734407275984
 20
119.1867854214469
 30
0.0
  0
POINT
  5
331
330
327
100
AcDbEntity
  8
DEFPOINTS
 62
     0
100
AcDbPoint
 10
131.0641860554389
 20
119.186785421447
 30
0.0
  0
ENDBLK
  5
333
330
327
100
AcDbEntity
  8
0
100
AcDbBlockEnd
  0
BLOCK
  5
3B6
330
3AB
100
AcDbEntity
  8
0
100
AcDbBlockBegin
  2
*D8
 70
     1
 10
0.0
 20
0.0
 30
0.0
  3
*D8
  1

  0
LINE
  5
3C2
330
3AB
100
AcDbEntity
  8
0
 62
     0
370
    -2
100
AcDbLine
 10
-3.817762971236049
 20
33.34205020750355
 30
0.0
 11
-38.22701764339555
 21
33.34205020750355
 31
0.0
  0
LINE
  5
3C3
330
3AB
100
AcDbEntity
  8
0
 62
     0
370
    -2
100
AcDbLine
 10
-3.817762971236049
 20
-6.657949792496509
 30
0.0
 11
-38.22701764339555
 21
-6.657949792496499
 31
0.0
  0
LINE
  5
3C4
330
3AB
100
AcDbEntity
  8
0
 62
     0
370
    -2
100
AcDbLine
 10
-37.72701764339554
 20
31.34205020750355
 30
0.0
 11
-37.72701764339554
 21
18.51198752399006
 31
0.0
  0
LINE
  5
3C5
330
3AB
100
AcDbEntity
  8
0
 62
     0
370
    -2
100
AcDbLine
 10
-37.72701764339555
 20
-4.6579497924965
 30
0.0
 11
-37.72701764339555
 21
12.51198752399006
 31
0.0
  0
SOLID
  5
3C6
330
3AB
100
AcDbEntity
  8
0
 62
     0
100
AcDbTrace
 10
-38.06035097672888
 20
31.34205020750355
 30
0.0
 11
-37.39368431006221
 21
31.34205020750355
 31
0.0
 12
-37.72701764339554
 22
33.34205020750355
 32
0.0
 13
-37.72701764339554
 23
33.34205020750355
 33
0.0
  0
SOLID
  5
3C7
330
3AB
100
AcDbEntity
  8
0
 62
     0
100
AcDbTrace
 10
-38.06035097672889
 20
-4.657949792496499
 30
0.0
 11
-37.39368431006222
 21
-4.6579497924965
 31
0.0
 12
-37.72701764339555
 22
-6.6579497924965
 32
0.0
 13
-37.72701764339555
 23
-6.6579497924965
 33
0.0
  0
MTEXT
  5
3C8
330
3AB
100
AcDbEntity
  8
0
 62
     0
100
AcDbMText
 10
-37.72701764339555
 20
15.51198752399005
 30
0.0
 40
4.0
 41
0.0
 71
     5
 72
     1
  1
\A2;40\P
 11
0.0000000000000001
 21
1.0
 31
0.0
 73
     1
 44
1.0
  0
POINT
  5
3C9
330
3AB
100
AcDbEntity
  8
DEFPOINTS
 62
     0
100
AcDbPoint
 10
-3.317762971236049
 20
33.34205020750355
 30
0.0
  0
POINT
  5
3CA
330
3AB
100
AcDbEntity
  8
DEFPOINTS
 62
     0
100
AcDbPoint
 10
-3.317762971236049
 20
-6.657949792496509
 30
0.0
  0
POINT
  5
3CB
330
3AB
100
AcDbEntity
  8
DEFPOINTS
 62
     0
100
AcDbPoint
 10
-37.72701764339555
 20
-6.6579497924965
 30
0.0
  0
ENDBLK
  5
3B7
330
3AB
100
AcDbEntity
  8
0
100
AcDbBlockEnd
  0
BLOCK
  5
3DD
330
3D2
100
AcDbEntity
  8
0
100
AcDbBlockBegin
  2
*D9
 70
     1
 10
0.0
 20
0.0
 30
0.0
  3
*D9
  1

  0
LINE
  5
3D3
330
3D2
100
AcDbEntity
  8
0
 62
     0
370
    -2
100
AcDbLine
 10
160.4181784605436
 20
146.5441424166206
 30
0.0
 11
127.1582214479546
 21
146.5441424166206
 31
0.0
  0
LINE
  5
3D4
330
3D2
100
AcDbEntity
  8
0
 62
     0
370
    -2
100
AcDbLine
 10
160.4181784605435
 20
96.54414241662067
 30
0.0
 11
127.1582214479546
 21
96.54414241662069
 31
0.0
  0
LINE
  5
3D5
330
3D2
100
AcDbEntity
  8
0
 62
     0
370
    -2
100
AcDbLine
 10
127.6582214479546
 20
144.5441424166206
 30
0.0
 11
127.6582214479546
 21
125.6092962055715
 31
0.0
  0
LINE
  5
3D6
330
3D2
100
AcDbEntity
  8
0
 62
     0
370
    -2
100
AcDbLine
 10
127.6582214479546
 20
98.5441424166207
 30
0.0
 11
127.6582214479546
 21
119.6092962055715
 31
0.0
  0
SOLID
  5
3D7
330
3D2
100
AcDbEntity
  8
0
 62
     0
100
AcDbTrace
 10
127.3248881146213
 20
144.5441424166206
 30
0.0
 11
127.9915547812879
 21
144.5441424166206
 31
0.0
 12
127.6582214479546
 22
146.5441424166206
 32
0.0
 13
127.6582214479546
 23
146.5441424166206
 33
0.0
  0
SOLID
  5
3D8
330
3D2
100
AcDbEntity
  8
0
 62
     0
100
AcDbTrace
 10
127.3248881146213
 20
98.5441424166207
 30
0.0
 11
127.9915547812879
 21
98.5441424166207
 31
0.0
 12
127.6582214479546
 22
96.54414241662069
 32
0.0
 13
127.6582214479546
 23
96.54414241662069
 33
0.0
  0
MTEXT
  5
3D9
330
3D2
100
AcDbEntity
  8
0
 62
     0
100
AcDbMText
 10
127.6582214479546
 20
122.6092962055716
 30
0.0
 40
4.0
 41
0.0
 71
     5
 72
     1
  1
\A2;50\P
 11
0.0000000000000001
 21
1.0
 31
0.0
 73
     1
 44
1.0
  0
POINT
  5
3DA
330
3D2
100
AcDbEntity
  8
DEFPOINTS
 62
     0
100
AcDbPoint
 10
160.9181784605436
 20
146.5441424166206
 30
0.0
  0
POINT
  5
3DB
330
3D2
100
AcDbEntity
  8
DEFPOINTS
 62
     0
100
AcDbPoint
 10
160.9181784605435
 20
96.54414241662067
 30
0.0
  0
POINT
  5
3DC
330
3D2
100
AcDbEntity
  8
DEFPOINTS
 62
     0
100
AcDbPoint
 10
127.6582214479546
 20
96.54414241662069
 30
0.0
  0
ENDBLK
  5
3DE
330
3D2
100
AcDbEntity
  8
0
100
AcDbBlockEnd
  0
BLOCK
  5
463
330
458
100
AcDbEntity
  8
0
100
AcDbBlockBegin
  2
*D11
 70
     1
 10
0.0
 20
0.0
 30
0.0
  3
*D11
  1

  0
LINE
  5
46F
330
458
100
AcDbEntity
  8
0
 62
     0
370
    -2
100
AcDbLine
 10
-7.010990484576353
 20
34.5532971016226
 30
0.0
 11
-40.27094749716533
 21
34.55329710162261
 31
0.0
  0
LINE
  5
470
330
458
100
AcDbEntity
  8
0
 62
     0
370
    -2
100
AcDbLine
 10
-7.010990484576382
 20
-15.44670289837736
 30
0.0
 11
-40.27094749716534
 21
-15.44670289837736
 31
0.0
  0
LINE
  5
471
330
458
100
AcDbEntity
  8
0
 62
     0
370
    -2
100
AcDbLine
 10
-39.77094749716533
 20
32.55329710162261
 30
0.0
 11
-39.77094749716533
 21
13.61845089057357
 31
0.0
  0
LINE
  5
472
330
458
100
AcDbEntity
  8
0
 62
     0
370
    -2
100
AcDbLine
 10
-39.77094749716533
 20
-13.44670289837735
 30
0.0
 11
-39.77094749716533
 21
7.618450890573576
 31
0.0
  0
SOLID
  5
473
330
458
100
AcDbEntity
  8
0
 62
     0
100
AcDbTrace
 10
-40.10428083049866
 20
32.55329710162261
 30
0.0
 11
-39.43761416383199
 21
32.55329710162261
 31
0.0
 12
-39.77094749716533
 22
34.55329710162261
 32
0.0
 13
-39.77094749716533
 23
34.55329710162261
 33
0.0
  0
SOLID
  5
474
330
458
100
AcDbEntity
  8
0
 62
     0
100
AcDbTrace
 10
-40.10428083049867
 20
-13.44670289837735
 30
0.0
 11
-39.437614163832
 21
-13.44670289837735
 31
0.0
 12
-39.77094749716533
 22
-15.44670289837736
 32
0.0
 13
-39.77094749716533
 23
-15.44670289837736
 33
0.0
  0
MTEXT
  5
475
330
458
100
AcDbEntity
  8
0
 62
     0
100
AcDbMText
 10
-39.77094749716533
 20
10.61845089057356
 30
0.0
 40
4.0
 41
0.0
 71
     5
 72
     1
  1
\A2;50\P
 11
0.0000000000000001
 21
1.0
 31
0.0
 73
     1
 44
1.0
  0
POINT
  5
476
330
458
100
AcDbEntity
  8
DEFPOINTS
 62
     0
100
AcDbPoint
 10
-6.510990484576353
 20
34.5532971016226
 30
0.0
  0
POINT
  5
477
330
458
100
AcDbEntity
  8
DEFPOINTS
 62
     0
100
AcDbPoint
 10
-6.510990484576382
 20
-15.44670289837736
 30
0.0
  0
POINT
  5
478
330
458
100
AcDbEntity
  8
DEFPOINTS
 62
     0
100
AcDbPoint
 10
-39.77094749716533
 20
-15.44670289837736
 30
0.0
  0
ENDBLK
  5
464
330
458
100
AcDbEntity
  8
0
100
AcDbBlockEnd
  0
BLOCK
  5
48A
330
47F
100
AcDbEntity
  8
0
100
AcDbBlockBegin
  2
*D12
 70
     1
 10
0.0
 20
0.0
 30
0.0
  3
*D12
  1

  0
LINE
  5
480
330
47F
100
AcDbEntity
  8
0
 62
     0
370
    -2
100
AcDbLine
 10
160.4181784605436
 20
146.5441424166206
 30
0.0
 11
127.1582214479546
 21
146.5441424166206
 31
0.0
  0
LINE
  5
481
330
47F
100
AcDbEntity
  8
0
 62
     0
370
    -2
100
AcDbLine
 10
160.4181784605435
 20
96.54414241662067
 30
0.0
 11
127.1582214479546
 21
96.54414241662069
 31
0.0
  0
LINE
  5
482
330
47F
100
AcDbEntity
  8
0
 62
     0
370
    -2
100
AcDbLine
 10
127.6582214479546
 20
144.5441424166206
 30
0.0
 11
127.6582214479546
 21
125.6092962055715
 31
0.0
  0
LINE
  5
483
330
47F
100
AcDbEntity
  8
0
 62
     0
370
    -2
100
AcDbLine
 10
127.6582214479546
 20
98.5441424166207
 30
0.0
 11
127.6582214479546
 21
119.6092962055715
 31
0.0
  0
SOLID
  5
484
330
47F
100
AcDbEntity
  8
0
 62
     0
100
AcDbTrace
 10
127.3248881146213
 20
144.5441424166206
 30
0.0
 11
127.9915547812879
 21
144.5441424166206
 31
0.0
 12
127.6582214479546
 22
146.5441424166206
 32
0.0
 13
127.6582214479546
 23
146.5441424166206
 33
0.0
  0
SOLID
  5
485
330
47F
100
AcDbEntity
  8
0
 62
     0
100
AcDbTrace
 10
127.3248881146213
 20
98.5441424166207
 30
0.0
 11
127.9915547812879
 21
98.5441424166207
 31
0.0
 12
127.6582214479546
 22
96.54414241662069
 32
0.0
 13
127.6582214479546
 23
96.54414241662069
 33
0.0
  0
MTEXT
  5
486
330
47F
100
AcDbEntity
  8
0
 62
     0
100
AcDbMText
 10
127.6582214479546
 20
122.6092962055716
 30
0.0
 40
4.0
 41
0.0
 71
     5
 72
     1
  1
\A2;50\P
 11
0.0000000000000001
 21
1.0
 31
0.0
 73
     1
 44
1.0
  0
POINT
  5
487
330
47F
100
AcDbEntity
  8
DEFPOINTS
 62
     0
100
AcDbPoint
 10
160.9181784605436
 20
146.5441424166206
 30
0.0
  0
POINT
  5
488
330
47F
100
AcDbEntity
  8
DEFPOINTS
 62
     0
100
AcDbPoint
 10
160.9181784605435
 20
96.54414241662067
 30
0.0
  0
POINT
  5
489
330
47F
100
AcDbEntity
  8
DEFPOINTS
 62
     0
100
AcDbPoint
 10
127.6582214479546
 20
96.54414241662069
 30
0.0
  0
ENDBLK
  5
48B
330
47F
100
AcDbEntity
  8
0
100
AcDbBlockEnd
  0
BLOCK
  5
50C
330
501
100
AcDbEntity
  8
0
100
AcDbBlockBegin
  2
*D14
 70
     1
 10
0.0
 20
0.0
 30
0.0
  3
*D14
  1

  0
LINE
  5
518
330
501
100
AcDbEntity
  8
0
 62
     0
370
    -2
100
AcDbLine
 10
-1.263482374706057
 20
40.67175025653006
 30
0.0
 11
-34.52343938729503
 21
40.67175025653006
 31
0.0
  0
LINE
  5
519
330
501
100
AcDbEntity
  8
0
 62
     0
370
    -2
100
AcDbLine
 10
-1.263482374706086
 20
-9.32824974346991
 30
0.0
 11
-34.52343938729504
 21
-9.328249743469902
 31
0.0
  0
LINE
  5
51A
330
501
100
AcDbEntity
  8
0
 62
     0
370
    -2
100
AcDbLine
 10
-34.02343938729503
 20
38.67175025653006
 30
0.0
 11
-34.02343938729503
 21
19.73690404548102
 31
0.0
  0
LINE
  5
51B
330
501
100
AcDbEntity
  8
0
 62
     0
370
    -2
100
AcDbLine
 10
-34.02343938729504
 20
-7.328249743469901
 30
0.0
 11
-34.02343938729504
 21
13.73690404548103
 31
0.0
  0
SOLID
  5
51C
330
501
100
AcDbEntity
  8
0
 62
     0
100
AcDbTrace
 10
-34.35677272062837
 20
38.67175025653006
 30
0.0
 11
-33.69010605396169
 21
38.67175025653006
 31
0.0
 12
-34.02343938729503
 22
40.67175025653006
 32
0.0
 13
-34.02343938729503
 23
40.67175025653006
 33
0.0
  0
SOLID
  5
51D
330
501
100
AcDbEntity
  8
0
 62
     0
100
AcDbTrace
 10
-34.35677272062838
 20
-7.328249743469901
 30
0.0
 11
-33.6901060539617
 21
-7.328249743469902
 31
0.0
 12
-34.02343938729504
 22
-9.328249743469902
 32
0.0
 13
-34.02343938729504
 23
-9.328249743469902
 33
0.0
  0
MTEXT
  5
51E
330
501
100
AcDbEntity
  8
0
 62
     0
100
AcDbMText
 10
-34.02343938729504
 20
16.73690404548102
 30
0.0
 40
4.0
 41
0.0
 71
     5
 72
     1
  1
\A2;50\P
 11
0.0000000000000001
 21
1.0
 31
0.0
 73
     1
 44
1.0
  0
POINT
  5
51F
330
501
100
AcDbEntity
  8
DEFPOINTS
 62
     0
100
AcDbPoint
 10
-0.763482374706058
 20
40.67175025653006
 30
0.0
  0
POINT
  5
520
330
501
100
AcDbEntity
  8
DEFPOINTS
 62
     0
100
AcDbPoint
 10
-0.7634823747060864
 20
-9.32824974346991
 30
0.0
  0
POINT
  5
521
330
501
100
AcDbEntity
  8
DEFPOINTS
 62
     0
100
AcDbPoint
 10
-34.02343938729504
 20
-9.328249743469902
 30
0.0
  0
ENDBLK
  5
50D
330
501
100
AcDbEntity
  8
0
100
AcDbBlockEnd
  0
BLOCK
  5
533
330
528
100
AcDbEntity
  8
0
100
AcDbBlockBegin
  2
*D15
 70
     1
 10
0.0
 20
0.0
 30
0.0
  3
*D15
  1

  0
LINE
  5
529
330
528
100
AcDbEntity
  8
0
 62
     0
370
    -2
100
AcDbLine
 10
170.8750359559445
 20
175.1452350859384
 30
0.0
 11
128.4244099055833
 21
175.1452350859384
 31
0.0
  0
LINE
  5
52A
330
528
100
AcDbEntity
  8
0
 62
     0
370
    -2
100
AcDbLine
 10
170.8750702971167
 20
112.1449655859384
 30
0.0
 11
128.4244099055833
 21
112.1449655859384
 31
0.0
  0
LINE
  5
52B
330
528
100
AcDbEntity
  8
0
 62
     0
370
    -2
100
AcDbLine
 10
128.9244099055833
 20
173.1452350859384
 30
0.0
 11
128.9244099055833
 21
147.6981997221088
 31
0.0
  0
LINE
  5
52C
330
528
100
AcDbEntity
  8
0
 62
     0
370
    -2
100
AcDbLine
 10
128.9244099055833
 20
114.1449655859384
 30
0.0
 11
128.9244099055833
 21
141.0315330554421
 31
0.0
  0
SOLID
  5
52D
330
528
100
AcDbEntity
  8
0
 62
     0
100
AcDbTrace
 10
128.5910765722499
 20
173.1452350859384
 30
0.0
 11
129.2577432389166
 21
173.1452350859384
 31
0.0
 12
128.9244099055833
 22
175.1452350859384
 32
0.0
 13
128.9244099055833
 23
175.1452350859384
 33
0.0
  0
SOLID
  5
52E
330
528
100
AcDbEntity
  8
0
 62
     0
100
AcDbTrace
 10
128.5910765722499
 20
114.1449655859384
 30
0.0
 11
129.2577432389166
 21
114.1449655859384
 31
0.0
 12
128.9244099055833
 22
112.1449655859384
 32
0.0
 13
128.9244099055833
 23
112.1449655859384
 33
0.0
  0
MTEXT
  5
52F
330
528
100
AcDbEntity
  8
0
 62
     0
100
AcDbMText
 10
128.9244099055833
 20
144.3648663887754
 30
0.0
 40
4.0
 41
0.0
 71
     5
 72
     1
  1
\A2;63\P
 11
0.0000000000000001
 21
1.0
 31
0.0
 73
     1
 44
1.0
  0
POINT
  5
530
330
528
100
AcDbEntity
  8
DEFPOINTS
 62
     0
100
AcDbPoint
 10
171.3750359559444
 20
175.1452350859384
 30
0.0
  0
POINT
  5
531
330
528
100
AcDbEntity
  8
DEFPOINTS
 62
     0
100
AcDbPoint
 10
171.3750702971168
 20
112.1449655859384
 30
0.0
  0
POINT
  5
532
330
528
100
AcDbEntity
  8
DEFPOINTS
 62
     0
100
AcDbPoint
 10
128.9244099055833
 20
112.1449655859384
 30
0.0
  0
ENDBLK
  5
534
330
528
100
AcDbEntity
  8
0
100
AcDbBlockEnd
  0
BLOCK
  5
5B7
330
5AC
100
AcDbEntity
  8
0
100
AcDbBlockBegin
  2
*D17
 70
     1
 10
0.0
 20
0.0
 30
0.0
  3
*D17
  1

  0
LINE
  5
5C3
330
5AC
100
AcDbEntity
  8
0
 62
     0
370
    -2
100
AcDbLine
 10
10.925059689948
 20
42.27250181800568
 30
0.0
 11
-31.52556636041318
 21
42.27250181800568
 31
0.0
  0
LINE
  5
5C4
330
5AC
100
AcDbEntity
  8
0
 62
     0
370
    -2
100
AcDbLine
 10
10.92509403112029
 20
-20.72776768199432
 30
0.0
 11
-31.52556636041319
 21
-20.7277676819943
 31
0.0
  0
LINE
  5
5C5
330
5AC
100
AcDbEntity
  8
0
 62
     0
370
    -2
100
AcDbLine
 10
-31.02556636041318
 20
40.27250181800568
 30
0.0
 11
-31.02556636041319
 21
14.82546645417604
 31
0.0
  0
LINE
  5
5C6
330
5AC
100
AcDbEntity
  8
0
 62
     0
370
    -2
100
AcDbLine
 10
-31.02556636041319
 20
-18.7277676819943
 30
0.0
 11
-31.02556636041319
 21
8.15879978750938
 31
0.0
  0
SOLID
  5
5C7
330
5AC
100
AcDbEntity
  8
0
 62
     0
100
AcDbTrace
 10
-31.35889969374651
 20
40.27250181800568
 30
0.0
 11
-30.69223302707985
 21
40.27250181800568
 31
0.0
 12
-31.02556636041318
 22
42.27250181800568
 32
0.0
 13
-31.02556636041318
 23
42.27250181800568
 33
0.0
  0
SOLID
  5
5C8
330
5AC
100
AcDbEntity
  8
0
 62
     0
100
AcDbTrace
 10
-31.35889969374653
 20
-18.7277676819943
 30
0.0
 11
-30.69223302707986
 21
-18.7277676819943
 31
0.0
 12
-31.02556636041319
 22
-20.7277676819943
 32
0.0
 13
-31.02556636041319
 23
-20.7277676819943
 33
0.0
  0
MTEXT
  5
5C9
330
5AC
100
AcDbEntity
  8
0
 62
     0
100
AcDbMText
 10
-31.02556636041319
 20
11.4921331208427
 30
0.0
 40
4.0
 41
0.0
 71
     5
 72
     1
  1
\A2;63\P
 11
0.0000000000000001
 21
1.0
 31
0.0
 73
     1
 44
1.0
  0
POINT
  5
5CA
330
5AC
100
AcDbEntity
  8
DEFPOINTS
 62
     0
100
AcDbPoint
 10
11.425059689948
 20
42.27250181800568
 30
0.0
  0
POINT
  5
5CB
330
5AC
100
AcDbEntity
  8
DEFPOINTS
 62
     0
100
AcDbPoint
 10
11.42509403112029
 20
-20.72776768199432
 30
0.0
  0
POINT
  5
5CC
330
5AC
100
AcDbEntity
  8
DEFPOINTS
 62
     0
100
AcDbPoint
 10
-31.02556636041319
 20
-20.7277676819943
 30
0.0
  0
ENDBLK
  5
5B8
330
5AC
100
AcDbEntity
  8
0
100
AcDbBlockEnd
  0
BLOCK
  5
5DE
330
5D3
100
AcDbEntity
  8
0
100
AcDbBlockBegin
  2
*D18
 70
     1
 10
0.0
 20
0.0
 30
0.0
  3
*D18
  1

  0
LINE
  5
5D4
330
5D3
100
AcDbEntity
  8
0
 62
     0
370
    -2
100
AcDbLine
 10
170.8750359559445
 20
175.1452350859384
 30
0.0
 11
128.4244099055833
 21
175.1452350859384
 31
0.0
  0
LINE
  5
5D5
330
5D3
100
AcDbEntity
  8
0
 62
     0
370
    -2
100
AcDbLine
 10
170.8750702971167
 20
112.1449655859384
 30
0.0
 11
128.4244099055833
 21
112.1449655859384
 31
0.0
  0
LINE
  5
5D6
330
5D3
100
AcDbEntity
  8
0
 62
     0
370
    -2
100
AcDbLine
 10
128.9244099055833
 20
173.1452350859384
 30
0.0
 11
128.9244099055833
 21
147.6981997221088
 31
0.0
  0
LINE
  5
5D7
330
5D3
100
AcDbEntity
  8
0
 62
     0
370
    -2
100
AcDbLine
 10
128.9244099055833
 20
114.1449655859384
 30
0.0
 11
128.9244099055833
 21
141.0315330554421
 31
0.0
  0
SOLID
  5
5D8
330
5D3
100
AcDbEntity
  8
0
 62
     0
100
AcDbTrace
 10
128.5910765722499
 20
173.1452350859384
 30
0.0
 11
129.2577432389166
 21
173.1452350859384
 31
0.0
 12
128.9244099055833
 22
175.1452350859384
 32
0.0
 13
128.9244099055833
 23
175.1452350859384
 33
0.0
  0
SOLID
  5
5D9
330
5D3
100
AcDbEntity
  8
0
 62
     0
100
AcDbTrace
 10
128.5910765722499
 20
114.1449655859384
 30
0.0
 11
129.2577432389166
 21
114.1449655859384
 31
0.0
 12
128.9244099055833
 22
112.1449655859384
 32
0.0
 13
128.9244099055833
 23
112.1449655859384
 33
0.0
  0
MTEXT
  5
5DA
330
5D3
100
AcDbEntity
  8
0
 62
     0
100
AcDbMText
 10
128.9244099055833
 20
144.3648663887754
 30
0.0
 40
4.0
 41
0.0
 71
     5
 72
     1
  1
\A2;63\P
 11
0.0000000000000001
 21
1.0
 31
0.0
 73
     1
 44
1.0
  0
POINT
  5
5DB
330
5D3
100
AcDbEntity
  8
DEFPOINTS
 62
     0
100
AcDbPoint
 10
171.3750359559444
 20
175.1452350859384
 30
0.0
  0
POINT
  5
5DC
330
5D3
100
AcDbEntity
  8
DEFPOINTS
 62
     0
100
AcDbPoint
 10
171.3750702971168
 20
112.1449655859384
 30
0.0
  0
POINT
  5
5DD
330
5D3
100
AcDbEntity
  8
DEFPOINTS
 62
     0
100
AcDbPoint
 10
128.9244099055833
 20
112.1449655859384
 30
0.0
  0
ENDBLK
  5
5DF
330
5D3
100
AcDbEntity
  8
0
100
AcDbBlockEnd
  0
BLOCK
  5
66E
330
663
100
AcDbEntity
  8
0
100
AcDbBlockBegin
  2
*D20
 70
     1
 10
0.0
 20
0.0
 30
0.0
  3
*D20
  1

  0
LINE
  5
67A
330
663
100
AcDbEntity
  8
0
 62
     0
370
    -2
100
AcDbLine
 10
9.626361454159052
 20
49.80644406633977
 30
0.0
 11
-32.82426459620213
 21
49.80644406633977
 31
0.0
  0
LINE
  5
67B
330
663
100
AcDbEntity
  8
0
 62
     0
370
    -2
100
AcDbLine
 10
9.626395795331347
 20
-13.19382543366023
 30
0.0
 11
-32.82426459620214
 21
-13.19382543366022
 31
0.0
  0
LINE
  5
67C
330
663
100
AcDbEntity
  8
0
 62
     0
370
    -2
100
AcDbLine
 10
-32.32426459620213
 20
47.80644406633977
 30
0.0
 11
-32.32426459620213
 21
22.35940870251013
 31
0.0
  0
LINE
  5
67D
330
663
100
AcDbEntity
  8
0
 62
     0
370
    -2
100
AcDbLine
 10
-32.32426459620214
 20
-11.19382543366022
 30
0.0
 11
-32.32426459620214
 21
15.69274203584346
 31
0.0
  0
SOLID
  5
67E
330
663
100
AcDbEntity
  8
0
 62
     0
100
AcDbTrace
 10
-32.65759792953547
 20
47.80644406633977
 30
0.0
 11
-31.9909312628688
 21
47.80644406633977
 31
0.0
 12
-32.32426459620212
 22
49.80644406633977
 32
0.0
 13
-32.32426459620212
 23
49.80644406633977
 33
0.0
  0
SOLID
  5
67F
330
663
100
AcDbEntity
  8
0
 62
     0
100
AcDbTrace
 10
-32.65759792953547
 20
-11.19382543366022
 30
0.0
 11
-31.99093126286881
 21
-11.19382543366022
 31
0.0
 12
-32.32426459620214
 22
-13.19382543366022
 32
0.0
 13
-32.32426459620214
 23
-13.19382543366022
 33
0.0
  0
MTEXT
  5
680
330
663
100
AcDbEntity
  8
0
 62
     0
100
AcDbMText
 10
-32.32426459620214
 20
19.02607536917679
 30
0.0
 40
4.0
 41
0.0
 71
     5
 72
     1
  1
\A2;63\P
 11
0.0000000000000001
 21
1.0
 31
0.0
 73
     1
 44
1.0
  0
POINT
  5
681
330
663
100
AcDbEntity
  8
DEFPOINTS
 62
     0
100
AcDbPoint
 10
10.12636145415905
 20
49.80644406633977
 30
0.0
  0
POINT
  5
682
330
663
100
AcDbEntity
  8
DEFPOINTS
 62
     0
100
AcDbPoint
 10
10.12639579533134
 20
-13.19382543366023
 30
0.0
  0
POINT
  5
683
330
663
100
AcDbEntity
  8
DEFPOINTS
 62
     0
100
AcDbPoint
 10
-32.32426459620214
 20
-13.19382543366022
 30
0.0
  0
ENDBLK
  5
66F
330
663
100
AcDbEntity
  8
0
100
AcDbBlockEnd
  0
ENDSEC
  0
SECTION
  2
ENTITIES
  0
LINE
  5
624
330
18
100
AcDbEntity
  8
3
100
AcDbLine
 10
-36.72853830380574
 20
2.951544308374968
 30
0.0
 11
-36.72853830380576
 21
-4.072558386792245
 31
0.0
  0
LINE
  5
625
330
18
100
AcDbEntity
  8
3
100
AcDbLine
 10
26.27146169619425
 20
2.951544308374957
 30
0.0
 11
26.27146169619425
 21
-4.072558386792259
 31
0.0
  0
ARC
  5
628
330
18
100
AcDbEntity
  8
3
100
AcDbCircle
 10
-4.222834634754791
 20
-68.17097990859972
 30
0.0
 40
80.0
100
AcDbArc
 50
95.74327602334157
 51
112.5314784712815
  0
ARC
  5
629
330
18
100
AcDbEntity
  8
3
100
AcDbCircle
 10
-33.02485364354686
 20
46.73162439473384
 30
0.0
 40
23.30992120383424
100
AcDbArc
 50
1.957723791361402
 51
88.04227620863775
  0
ARC
  5
62A
330
18
100
AcDbEntity
  8
0
100
AcDbCircle
 10
-31.26866157898605
 20
48.48781645929452
 30
0.0
 40
24.53842921413239
100
AcDbArc
 50
356.07042957372
 51
93.92957042627914
  0
ARC
  5
62B
330
18
100
AcDbEntity
  8
3
100
AcDbCircle
 10
-33.02485364354677
 20
102.3242550742158
 30
0.0
 40
23.30992120383424
100
AcDbArc
 50
271.9577237913614
 51
358.0422762086377
  0
ARC
  5
62C
330
18
100
AcDbEntity
  8
0
100
AcDbCircle
 10
-31.26866157898609
 20
100.5680630096551
 30
0.0
 40
24.53842921413239
100
AcDbArc
 50
266.0704295737208
 51
3.929570426279135
  0
LINE
  5
62D
330
18
100
AcDbEntity
  8
1
100
AcDbLine
 10
-41.72853830380574
 20
74.52793973447481
 30
0.0
 11
31.27146169619426
 21
74.5279397344748
 31
0.0
  0
ARC
  5
62E
330
18
100
AcDbEntity
  8
3
100
AcDbCircle
 10
-32.2285383038058
 20
74.5279397344749
 30
0.0
 40
4.5
100
AcDbArc
 50
180.0000000000007
 51
270.0000000000008
  0
ARC
  5
62F
330
18
100
AcDbEntity
  8
3
100
AcDbCircle
 10
-32.22853830380583
 20
74.52793973447485
 30
0.0
 40
4.5
100
AcDbArc
 50
89.99999999999348
 51
180.0
  0
ARC
  5
630
330
18
100
AcDbEntity
  8
0
100
AcDbCircle
 10
-32.95028473980631
 20
74.52793973447487
 30
0.0
 40
1.559382848428882
100
AcDbArc
 50
89.99999999999673
 51
180.0
  0
ARC
  5
631
330
18
100
AcDbEntity
  8
0
100
AcDbCircle
 10
-32.95028473980607
 20
74.52793973447478
 30
0.0
 40
1.559382848428867
100
AcDbArc
 50
179.9999999999983
 51
269.9999999999992
  0
ARC
  5
632
330
18
100
AcDbEntity
  8
3
100
AcDbCircle
 10
-33.72853830380575
 20
2.95154430837497
 30
0.0
 40
3.0
100
AcDbArc
 50
112.5314784712815
 51
180.0
  0
ARC
  5
633
330
18
100
AcDbEntity
  8
3
100
AcDbCircle
 10
22.56777703593532
 20
102.3242550742158
 30
0.0
 40
23.30992120383424
100
AcDbArc
 50
181.9577237913622
 51
268.0422762086385
  0
ARC
  5
634
330
18
100
AcDbEntity
  8
0
100
AcDbCircle
 10
20.81158497137451
 20
100.5680630096551
 30
0.0
 40
24.53842921413239
100
AcDbArc
 50
176.07042957372
 51
273.9295704262791
  0
LINE
  5
635
330
18
100
AcDbEntity
  8
1
100
AcDbLine
 10
-5.22853830380572
 20
111.0279397344748
 30
0.0
 11
-5.228538303805734
 21
38.02793973447481
 31
0.0
  0
ARC
  5
636
330
18
100
AcDbEntity
  8
3
100
AcDbCircle
 10
-5.228538303805734
 20
101.5279397344748
 30
0.0
 40
4.5
100
AcDbArc
 50
90.00000000000161
 51
180.0000000000007
  0
ARC
  5
637
330
18
100
AcDbEntity
  8
3
100
AcDbCircle
 10
-5.228538303805734
 20
101.5279397344748
 30
0.0
 40
4.5
100
AcDbArc
 50
359.9999999999934
 51
89.99999999999998
  0
ARC
  5
638
330
18
100
AcDbEntity
  8
0
100
AcDbCircle
 10
-5.228538303805848
 20
102.2496861704751
 30
0.0
 40
1.559382848428867
100
AcDbArc
 50
89.99999999999918
 51
179.9999999999991
  0
ARC
  5
639
330
18
100
AcDbEntity
  8
0
100
AcDbCircle
 10
-5.228538303805734
 20
102.2496861704753
 30
0.0
 40
1.559382848428882
100
AcDbArc
 50
359.9999999999967
 51
90.00000000000079
  0
ARC
  5
63A
330
18
100
AcDbEntity
  8
0
100
AcDbCircle
 10
20.81158497137455
 20
48.48781645929456
 30
0.0
 40
24.53842921413239
100
AcDbArc
 50
86.07042957372081
 51
183.9295704262791
  0
ARC
  5
63B
330
18
100
AcDbEntity
  8
3
100
AcDbCircle
 10
22.56777703593523
 20
46.73162439473377
 30
0.0
 40
23.30992120383424
100
AcDbArc
 50
91.95772379136142
 51
178.0422762086377
  0
ARC
  5
63C
330
18
100
AcDbEntity
  8
3
100
AcDbCircle
 10
-5.228538303805819
 20
47.52793973447478
 30
0.0
 40
4.5
100
AcDbArc
 50
179.9999999999934
 51
270.0
  0
ARC
  5
63D
330
18
100
AcDbEntity
  8
3
100
AcDbCircle
 10
-5.228538303805819
 20
47.52793973447478
 30
0.0
 40
4.5
100
AcDbArc
 50
270.0000000000016
 51
0.0000000000008015
  0
ARC
  5
63E
330
18
100
AcDbEntity
  8
0
100
AcDbCircle
 10
-5.228538303805848
 20
46.80619329847431
 30
0.0
 40
1.559382848428882
100
AcDbArc
 50
179.9999999999967
 51
270.0000000000008
  0
ARC
  5
63F
330
18
100
AcDbEntity
  8
0
100
AcDbCircle
 10
-5.228538303805706
 20
46.80619329847449
 30
0.0
 40
1.559382848428867
100
AcDbArc
 50
269.9999999999992
 51
359.9999999999992
  0
ARC
  5
640
330
18
100
AcDbEntity
  8
0
100
AcDbCircle
 10
22.49320813219456
 20
74.52793973447488
 30
0.0
 40
1.559382848428867
100
AcDbArc
 50
359.9999999999983
 51
89.99999999999918
  0
ARC
  5
641
330
18
100
AcDbEntity
  8
3
100
AcDbCircle
 10
21.77146169619426
 20
74.52793973447477
 30
0.0
 40
4.5
100
AcDbArc
 50
0.000000000001603
 51
90.00000000000079
  0
ARC
  5
642
330
18
100
AcDbEntity
  8
3
100
AcDbCircle
 10
21.77146169619426
 20
74.52793973447481
 30
0.0
 40
4.5
100
AcDbArc
 50
269.9999999999934
 51
0.0
  0
ARC
  5
643
330
18
100
AcDbEntity
  8
0
100
AcDbCircle
 10
22.49320813219473
 20
74.5279397344748
 30
0.0
 40
1.559382848428882
100
AcDbArc
 50
269.9999999999967
 51
0.0
  0
ARC
  5
644
330
18
100
AcDbEntity
  8
3
100
AcDbCircle
 10
-6.234241972856738
 20
-68.17097990859972
 30
0.0
 40
80.0
100
AcDbArc
 50
67.46852152871856
 51
84.2567239766584
  0
LINE
  5
645
330
18
100
AcDbEntity
  8
3
100
AcDbLine
 10
1.77146169619408
 20
11.42744161320777
 30
0.0
 11
-12.22853830380555
 21
11.42744161320777
 31
0.0
  0
ARC
  5
646
330
18
100
AcDbEntity
  8
3
100
AcDbCircle
 10
23.27146169619424
 20
2.951544308374959
 30
0.0
 40
3.0
100
AcDbArc
 50
0.0
 51
67.46852152871838
  0
LINE
  5
64B
330
18
100
AcDbEntity
  8
3
100
AcDbLine
 10
-21.72853830380575
 20
-7.57255838679222
 30
0.0
 11
-33.72853830380575
 21
-7.072558386792216
 31
0.0
  0
ARC
  5
64C
330
18
100
AcDbEntity
  8
3
100
AcDbCircle
 10
-33.72853830380576
 20
-4.072558386792245
 30
0.0
 40
3.0
100
AcDbArc
 50
180.0
 51
270.0
  0
LINE
  5
64F
330
18
100
AcDbEntity
  8
3
100
AcDbLine
 10
11.27146169619424
 20
-7.572558386792227
 30
0.0
 11
23.27146169619424
 21
-7.072558386792227
 31
0.0
  0
LINE
  5
654
330
18
100
AcDbEntity
  8
3
100
AcDbLine
 10
-15.72853830380575
 20
-13.57255838679222
 30
0.0
 11
-15.25631608158352
 21
-30.57255838679222
 31
0.0
  0
LINE
  5
655
330
18
100
AcDbEntity
  8
3
100
AcDbLine
 10
5.271461696194247
 20
-13.57255838679222
 30
0.0
 11
4.799239473972043
 21
-30.57255838679222
 31
0.0
  0
ARC
  5
659
330
18
100
AcDbEntity
  8
3
100
AcDbCircle
 10
-21.72853830380575
 20
-13.57255838679222
 30
0.0
 40
6.0
100
AcDbArc
 50
0.0
 51
89.99999999999998
  0
LINE
  5
65B
330
18
100
AcDbEntity
  8
3
100
AcDbLine
 10
-15.72853830380575
 20
-13.57255838679222
 30
0.0
 11
-15.72853830380575
 21
-13.57255838679222
 31
0.0
  0
ARC
  5
65F
330
18
100
AcDbEntity
  8
3
100
AcDbCircle
 10
11.27146169619424
 20
-13.57255838679222
 30
0.0
 40
6.0
100
AcDbArc
 50
89.99999999999998
 51
180.0
  0
LINE
  5
660
330
18
100
AcDbEntity
  8
3
100
AcDbLine
 10
5.271461696194247
 20
-13.57255838679222
 30
0.0
 11
5.271461696194247
 21
-13.57255838679222
 31
0.0
  0
LINE
  5
661
330
18
100
AcDbEntity
  8
3
100
AcDbLine
 10
-15.25631608158352
 20
-30.57255838679222
 30
0.0
 11
4.799239473972015
 21
-30.57255838679219
 31
0.0
  0
ARC
  5
662
330
18
100
AcDbEntity
  8
3
100
AcDbCircle
 10
23.27146169619424
 20
-4.072558386792255
 30
0.0
 40
3.0
100
AcDbArc
 50
270.0
 51
0.0
  0
LINE
  5
68B
330
18
100
AcDbEntity
  8
1
100
AcDbLine
 10
-5.228538303805734
 20
18.11272657205995
 30
0.0
 11
-5.228538303805734
 21
-80.39784281459601
 31
0.0
  0
LINE
  5
68E
330
18
100
AcDbEntity
  8
3
100
AcDbLine
 10
0.7714616961942653
 20
-30.57255838679221
 30
0.0
 11
0.7714616961942653
 21
-69.07255838679219
 31
0.0
  0
LINE
  5
68F
330
18
100
AcDbEntity
  8
3
100
AcDbLine
 10
-0.7285383038057347
 20
-70.57255838679219
 30
0.0
 11
-9.728538303805732
 21
-70.57255838679221
 31
0.0
  0
LINE
  5
690
330
18
100
AcDbEntity
  8
3
100
AcDbLine
 10
-11.22853830380573
 20
-69.07255838679221
 30
0.0
 11
-11.22853830380573
 21
-30.5725583867922
 31
0.0
  0
LINE
  5
692
330
18
100
AcDbEntity
  8
3
100
AcDbLine
 10
-9.728538303805734
 20
-30.5725583867922
 30
0.0
 11
-9.728538303805734
 21
-70.57255838679221
 31
0.0
  0
LINE
  5
694
330
18
100
AcDbEntity
  8
3
100
AcDbLine
 10
-0.7285383038057349
 20
-30.57255838679221
 30
0.0
 11
-0.7285383038057349
 21
-70.57255838679221
 31
0.0
  0
LINE
  5
695
330
18
100
AcDbEntity
  8
3
100
AcDbLine
 10
-11.22853830380573
 20
-69.07255838679221
 30
0.0
 11
-9.728538303805732
 21
-70.57255838679221
 31
0.0
  0
LINE
  5
696
330
18
100
AcDbEntity
  8
3
100
AcDbLine
 10
0.7714616961942653
 20
-69.07255838679219
 30
0.0
 11
-0.7285383038057347
 21
-70.57255838679219
 31
0.0
  0
LINE
  5
697
330
18
100
AcDbEntity
  8
3
100
AcDbLine
 10
0.7714616961942653
 20
-69.07255838679219
 30
0.0
 11
-11.22853830380573
 21
-69.07255838679221
 31
0.0
  0
TEXT
  5
69B
330
18
100
AcDbEntity
  8
3
100
AcDbText
 10
16.10173828996781
 20
-51.7163853720499
 30
0.0
 40
3.5
  1
CK-63-40-SUS
100
AcDbText
  0
ENDSEC
  0
SECTION
  2
OBJECTS
  0
DICTIONARY
  5
C
330
0
100
AcDbDictionary
281
     1
  3
ACAD_GROUP
350
D
  3
ACAD_LAYOUT
350
72
  3
ACAD_MLINESTYLE
350
1B
  3
ACAD_PLOTSETTINGS
350
73
  3
ACAD_PLOTSTYLENAME
350
70
  3
AcDbVariableDictionary
350
17A
  3
AcmDictionary
350
134
  3
AMG
350
7A
  3
AMGSNAPSETTINGS
350
17D
  3
DWGPROPS
350
5D2
  3
MAPISURF_MODULE
350
106
  0
DICTIONARY
  5
172
330
18
100
AcDbDictionary
280
     1
281
     1
  3
ACAD_INDEX
360
173
  0
DICTIONARY
  5
D
102
{ACAD_REACTORS
330
C
102
}
330
C
100
AcDbDictionary
281
     1
  0
DICTIONARY
  5
72
102
{ACAD_REACTORS
330
C
102
}
330
C
100
AcDbDictionary
281
     1
  3
Model
350
74
  3
ﾚｲｱｳﾄ1
350
75
  0
DICTIONARY
  5
1B
102
{ACAD_REACTORS
330
C
102
}
330
C
100
AcDbDictionary
281
     1
  3
STANDARD
350
1C
  0
DICTIONARY
  5
73
102
{ACAD_REACTORS
330
C
102
}
330
C
100
AcDbDictionary
281
     1
  0
ACDBDICTIONARYWDFLT
  5
70
102
{ACAD_REACTORS
330
C
102
}
330
C
100
AcDbDictionary
281
     1
  3
Normal
350
71
100
AcDbDictionaryWithDefault
340
71
  0
DICTIONARY
  5
17A
102
{ACAD_REACTORS
330
C
102
}
330
C
100
AcDbDictionary
281
     1
  3
DIMASSOC
350
17C
  3
INDEXCTL
350
17B
  0
DICTIONARY
  5
134
102
{ACAD_REACTORS
330
C
102
}
330
C
100
AcDbDictionary
281
     1
  3
AcmBOMDATA
350
135
  3
AcmStdDictionary
350
143
  0
DICTIONARY
  5
7A
102
{ACAD_REACTORS
330
C
102
}
330
C
100
AcDbDictionary
281
     1
  3
AcMgSettings
350
7B
  3
AMGLAYCFG
350
145
  0
DICTIONARY
  5
17D
102
{ACAD_REACTORS
330
C
102
}
330
C
100
AcDbDictionary
281
     1
  3
DIMENSION
350
182
  3
FEA
350
181
  3
HATCH (1)
350
17E
  3
HATCH (2)
350
17F
  3
SIMPLE WELD
350
183
  3
SYMBOLS
350
180
  0
XRECORD
  5
5D2
102
{ACAD_REACTORS
330
C
102
}
330
C
100
AcDbXrecord
280
     1
  1
DWGPROPS COOKIE
  2

  3

  4

  6

  7

  8

  9

300
AmdtFileType=84
301
=
302
=
303
=
304
=
305
=
306
=
307
=
308
=
309
=
 40
0.0125562152777778
 41
2311940.850465301
 42
2454697.731263923
  1

 90
        1
  0
DICTIONARY
  5
173
102
{ACAD_REACTORS
330
172
102
}
330
172
100
AcDbDictionary
281
     1
  3
*A1
350
174
  0
LAYOUT
  5
74
102
{ACAD_REACTORS
330
72
102
}
330
72
100
AcDbPlotSettings
  1

  2
EPSON PM-3700C
  4

  6

 40
0.0
 41
0.0
 42
0.0
 43
0.0
 44
0.0
 45
0.0
 46
0.0
 47
0.0
 48
0.0
 49
0.0
140
0.0
141
0.0
142
1.0
143
1.0
 70
  1712
 72
     0
 73
     0
 74
     0
  7

 75
     0
147
1.0
148
0.0
149
0.0
100
AcDbLayout
  1
Model
 70
     1
 71
     0
 10
0.0
 20
0.0
 11
12.0
 21
9.0
 12
0.0
 22
0.0
 32
0.0
 14
0.0
 24
0.0
 34
0.0
 15
0.0
 25
0.0
 35
0.0
146
0.0
 13
0.0
 23
0.0
 33
0.0
 16
1.0
 26
0.0
 36
0.0
 17
0.0
 27
1.0
 37
0.0
 76
     0
330
18
  0
LAYOUT
  5
75
102
{ACAD_REACTORS
330
72
102
}
330
72
100
AcDbPlotSettings
  1

  2
EPSON PM-3700C
  4

  6

 40
0.0
 41
0.0
 42
0.0
 43
0.0
 44
0.0
 45
0.0
 46
0.0
 47
0.0
 48
0.0
 49
0.0
140
0.0
141
0.0
142
1.0
143
1.0
 70
   688
 72
     0
 73
     0
 74
     5
  7

 75
    16
147
1.0
148
0.0
149
0.0
100
AcDbLayout
  1
ﾚｲｱｳﾄ1
 70
     1
 71
     1
 10
0.0
 20
0.0
 11
12.0
 21
9.0
 12
0.0
 22
0.0
 32
0.0
 14
1.000000000000000E+20
 24
1.000000000000000E+20
 34
1.000000000000000E+20
 15
-1.000000000000000E+20
 25
-1.000000000000000E+20
 35
-1.000000000000000E+20
146
0.0
 13
0.0
 23
0.0
 33
0.0
 16
1.0
 26
0.0
 36
0.0
 17
0.0
 27
1.0
 37
0.0
 76
     0
330
15
  0
MLINESTYLE
  5
1C
102
{ACAD_REACTORS
330
1B
102
}
330
1B
100
AcDbMlineStyle
  2
STANDARD
 70
     0
  3

 62
   256
 51
90.0
 52
90.0
 71
     2
 49
0.5
 62
   256
  6
BYLAYER
 49
-0.5
 62
   256
  6
BYLAYER
  0
ACDBPLACEHOLDER
  5
71
102
{ACAD_REACTORS
330
70
102
}
330
70
  0
DICTIONARYVAR
  5
17C
102
{ACAD_REACTORS
330
17A
102
}
330
17A
100
DictionaryVariables
280
     0
  1
1
  0
DICTIONARYVAR
  5
17B
102
{ACAD_REACTORS
330
17A
102
}
330
17A
100
DictionaryVariables
280
     0
  1
1
  0
ACMDATADICTIONARY
  5
135
102
{ACAD_REACTORS
330
134
102
}
330
134
100
AcDbDictionary
281
     1
  3
*A1
350
136
100
AcmDataDictionary
  0
DICTIONARY
  5
143
102
{ACAD_REACTORS
330
134
102
}
330
134
100
AcDbDictionary
281
     1
  3
ANSI
350
144
  0
DICTIONARY
  5
7B
102
{ACAD_REACTORS
330
7A
102
}
330
7A
100
AcDbDictionary
281
     1
  3
DWGSETTINGS
350
7C
  3
TRANSSETTINGS
350
80
  0
ACAMGFILTERDAT
  5
182
102
{ACAD_REACTORS
330
17D
102
}
330
17D
100
AcAmgFilterDat
 70
    15
  1
DIMENSION,AMDT_*_DIM
  2
*
  3
*
  4
*
  5
*
290
     1
  0
ACAMGFILTERDAT
  5
181
102
{ACAD_REACTORS
330
17D
102
}
330
17D
100
AcAmgFilterDat
 70
    15
  1
*
  2
AM_FEA-AM_*
  3
*
  4
*
  5
*
290
     1
  0
ACAMGFILTERDAT
  5
17E
102
{ACAD_REACTORS
330
17D
102
}
330
17D
100
AcAmgFilterDat
 70
    15
  1
HATCH
  2
*
  3
*
  4
*
  5
*
290
     1
  0
ACAMGFILTERDAT
  5
17F
102
{ACAD_REACTORS
330
17D
102
}
330
17D
100
AcAmgFilterDat
 70
    15
  1
LINE
  2
8,8N,*-8,*-8N,AM_8,AM_8N,*-AM_8,*-AM_8N
  3
*
  4
*
  5
INSERT,STDPART2D
290
     1
  0
ACAMGFILTERDAT
  5
183
102
{ACAD_REACTORS
330
17D
102
}
330
17D
100
AcAmgFilterDat
 70
    15
  1
ARC
  2
AM_5
  3
*
  4
2
  5
INSERT
290
     0
  0
ACAMGFILTERDAT
  5
180
102
{ACAD_REACTORS
330
17D
102
}
330
17D
100
AcAmgFilterDat
 70
    15
  1
ACMFCFRAME,ACMDATUMTARGET,ACMDATUMID,ACMWELDSYM,ACMSURFSYM,ACMFEATID,ACMPARTREF,ACMBALLOON,AMDTEDGESYM,AMGSCREWCALCTABLE
  2
*
  3
*
  4
*
  5
*
290
     1
  0
LAYER_INDEX
  5
174
102
{ACAD_REACTORS
330
173
102
}
330
173
100
AcDbIndex
 40
2454697.737221308
100
AcDbLayerIndex
  8
0
360
175
 90
       12
  8
HALDER_NORMTEILE
360
176
 90
        0
  8
HALDER_NORMTEILE_MITTELLINIE
360
177
 90
        0
  8
HALDER_INFO
360
178
 90
        0
  8
1
360
236
 90
        3
  8
3
360
237
 90
       39
  8
DEFPOINTS
360
238
 90
        0
  0
ACMDATAENTRYBLOCK
  5
136
102
{ACAD_REACTORS
330
135
102
}
330
135
100
AcmDataEntry
100
AcmDataEntryBlock
  0
IDBUFFER
  5
175
330
0
100
AcDbIdBuffer
330
62A
330
643
330
640
330
63F
330
63E
330
63A
330
639
330
638
330
634
330
631
330
630
330
62C
  0
IDBUFFER
  5
176
330
0
100
AcDbIdBuffer
  0
IDBUFFER
  5
177
330
0
100
AcDbIdBuffer
  0
IDBUFFER
  5
178
330
0
100
AcDbIdBuffer
  0
IDBUFFER
  5
236
330
0
100
AcDbIdBuffer
330
635
330
62D
330
68B
  0
IDBUFFER
  5
237
330
0
100
AcDbIdBuffer
330
65F
330
660
330
661
330
662
330
68E
330
68F
330
690
330
692
330
694
330
695
330
696
330
697
330
69B
330
624
330
625
330
628
330
65B
330
629
330
659
330
62B
330
62E
330
62F
330
655
330
654
330
632
330
633
330
636
330
637
330
64F
330
64C
330
64B
330
646
330
645
330
644
330
642
330
641
330
63D
330
63C
330
63B
  0
IDBUFFER
  5
238
330
0
100
AcDbIdBuffer
  0
ENDSEC
  0
EOF
