  0
SECTION
  2
HEADER
  9
$ACADVER
  1
AC1015
  9
$ACADMAINTVER
 70
    13
  9
$DWGCODEPAGE
  3
ANSI_932
  9
$INSBASE
 10
0.0
 20
0.0
 30
0.0
  9
$EXTMIN
 10
-121.2329216236822
 20
-48.01559447086193
 30
0.0
  9
$EXTMAX
 10
55.86308620551532
 20
112.7647565504282
 30
0.0
  9
$LIMMIN
 10
-31.5
 20
-5.0
  9
$LIMMAX
 10
31.5
 20
45.0
  9
$ORTHOMODE
 70
     0
  9
$REGENMODE
 70
     1
  9
$FILLMODE
 70
     1
  9
$QTEXTMODE
 70
     0
  9
$MIRRTEXT
 70
     1
  9
$LTSCALE
 40
1.0
  9
$ATTMODE
 70
     1
  9
$TEXTSIZE
 40
3.5
  9
$TRACEWID
 40
0.5
  9
$TEXTSTYLE
  7
STANDARD
  9
$CLAYER
  8
0
  9
$CELTYPE
  6
BYLAYER
  9
$CECOLOR
 62
   256
  9
$CELTSCALE
 40
1.0
  9
$DISPSILH
 70
     0
  9
$DIMSCALE
 40
1.0
  9
$DIMASZ
 40
0.18
  9
$DIMEXO
 40
0.0625
  9
$DIMDLI
 40
0.38
  9
$DIMRND
 40
0.0
  9
$DIMDLE
 40
0.0
  9
$DIMEXE
 40
0.18
  9
$DIMTP
 40
0.0
  9
$DIMTM
 40
0.0
  9
$DIMTXT
 40
0.18
  9
$DIMCEN
 40
0.09
  9
$DIMTSZ
 40
0.0
  9
$DIMTOL
 70
     0
  9
$DIMLIM
 70
     0
  9
$DIMTIH
 70
     1
  9
$DIMTOH
 70
     1
  9
$DIMSE1
 70
     0
  9
$DIMSE2
 70
     0
  9
$DIMTAD
 70
     0
  9
$DIMZIN
 70
     0
  9
$DIMBLK
  1

  9
$DIMASO
 70
     1
  9
$DIMSHO
 70
     1
  9
$DIMPOST
  1

  9
$DIMAPOST
  1

  9
$DIMALT
 70
     0
  9
$DIMALTD
 70
     2
  9
$DIMALTF
 40
25.4
  9
$DIMLFAC
 40
1.0
  9
$DIMTOFL
 70
     0
  9
$DIMTVP
 40
0.0
  9
$DIMTIX
 70
     0
  9
$DIMSOXD
 70
     0
  9
$DIMSAH
 70
     0
  9
$DIMBLK1
  1

  9
$DIMBLK2
  1

  9
$DIMSTYLE
  2
STANDARD
  9
$DIMCLRD
 70
     0
  9
$DIMCLRE
 70
     0
  9
$DIMCLRT
 70
     0
  9
$DIMTFAC
 40
1.0
  9
$DIMGAP
 40
0.09
  9
$DIMJUST
 70
     0
  9
$DIMSD1
 70
     0
  9
$DIMSD2
 70
     0
  9
$DIMTOLJ
 70
     1
  9
$DIMTZIN
 70
     0
  9
$DIMALTZ
 70
     0
  9
$DIMALTTZ
 70
     0
  9
$DIMUPT
 70
     0
  9
$DIMDEC
 70
     4
  9
$DIMTDEC
 70
     4
  9
$DIMALTU
 70
     2
  9
$DIMALTTD
 70
     2
  9
$DIMTXSTY
  7
STANDARD
  9
$DIMAUNIT
 70
     0
  9
$DIMADEC
 70
     0
  9
$DIMALTRND
 40
0.0
  9
$DIMAZIN
 70
     0
  9
$DIMDSEP
 70
    46
  9
$DIMATFIT
 70
     3
  9
$DIMFRAC
 70
     0
  9
$DIMLDRBLK
  1

  9
$DIMLUNIT
 70
     2
  9
$DIMLWD
 70
    -2
  9
$DIMLWE
 70
    -2
  9
$DIMTMOVE
 70
     0
  9
$LUNITS
 70
     2
  9
$LUPREC
 70
     4
  9
$SKETCHINC
 40
0.1
  9
$FILLETRAD
 40
2.0
  9
$AUNITS
 70
     0
  9
$AUPREC
 70
     0
  9
$MENU
  1
ACAD
  9
$ELEVATION
 40
0.0
  9
$PELEVATION
 40
0.0
  9
$THICKNESS
 40
0.0
  9
$LIMCHECK
 70
     0
  9
$CHAMFERA
 40
0.0
  9
$CHAMFERB
 40
0.0
  9
$CHAMFERC
 40
0.0
  9
$CHAMFERD
 40
0.0
  9
$SKPOLY
 70
     0
  9
$TDCREATE
 40
2311940.850465301
  9
$TDUCREATE
 40
2311940.475465301
  9
$TDUPDATE
 40
2454697.727977430
  9
$TDUUPDATE
 40
2454697.352977430
  9
$TDINDWG
 40
0.0091890741
  9
$TDUSRTIMER
 40
0.0091890741
  9
$USRTIMER
 70
     1
  9
$ANGBASE
 50
0.0
  9
$ANGDIR
 70
     0
  9
$PDMODE
 70
     0
  9
$PDSIZE
 40
0.0
  9
$PLINEWID
 40
0.0
  9
$SPLFRAME
 70
     0
  9
$SPLINETYPE
 70
     6
  9
$SPLINESEGS
 70
     8
  9
$HANDSEED
  5
47C
  9
$SURFTAB1
 70
     6
  9
$SURFTAB2
 70
     6
  9
$SURFTYPE
 70
     6
  9
$SURFU
 70
     6
  9
$SURFV
 70
     6
  9
$UCSBASE
  2

  9
$UCSNAME
  2

  9
$UCSORG
 10
0.0
 20
0.0
 30
0.0
  9
$UCSXDIR
 10
1.0
 20
0.0
 30
0.0
  9
$UCSYDIR
 10
0.0
 20
1.0
 30
0.0
  9
$UCSORTHOREF
  2

  9
$UCSORTHOVIEW
 70
     0
  9
$UCSORGTOP
 10
0.0
 20
0.0
 30
0.0
  9
$UCSORGBOTTOM
 10
0.0
 20
0.0
 30
0.0
  9
$UCSORGLEFT
 10
0.0
 20
0.0
 30
0.0
  9
$UCSORGRIGHT
 10
0.0
 20
0.0
 30
0.0
  9
$UCSORGFRONT
 10
0.0
 20
0.0
 30
0.0
  9
$UCSORGBACK
 10
0.0
 20
0.0
 30
0.0
  9
$PUCSBASE
  2

  9
$PUCSNAME
  2

  9
$PUCSORG
 10
0.0
 20
0.0
 30
0.0
  9
$PUCSXDIR
 10
1.0
 20
0.0
 30
0.0
  9
$PUCSYDIR
 10
0.0
 20
1.0
 30
0.0
  9
$PUCSORTHOREF
  2

  9
$PUCSORTHOVIEW
 70
     0
  9
$PUCSORGTOP
 10
0.0
 20
0.0
 30
0.0
  9
$PUCSORGBOTTOM
 10
0.0
 20
0.0
 30
0.0
  9
$PUCSORGLEFT
 10
0.0
 20
0.0
 30
0.0
  9
$PUCSORGRIGHT
 10
0.0
 20
0.0
 30
0.0
  9
$PUCSORGFRONT
 10
0.0
 20
0.0
 30
0.0
  9
$PUCSORGBACK
 10
0.0
 20
0.0
 30
0.0
  9
$USERI1
 70
     0
  9
$USERI2
 70
     0
  9
$USERI3
 70
     0
  9
$USERI4
 70
     0
  9
$USERI5
 70
     0
  9
$USERR1
 40
0.0
  9
$USERR2
 40
0.0
  9
$USERR3
 40
0.0
  9
$USERR4
 40
0.0
  9
$USERR5
 40
0.0
  9
$WORLDVIEW
 70
     1
  9
$SHADEDGE
 70
     3
  9
$SHADEDIF
 70
    70
  9
$TILEMODE
 70
     1
  9
$MAXACTVP
 70
    48
  9
$PINSBASE
 10
0.0
 20
0.0
 30
0.0
  9
$PLIMCHECK
 70
     0
  9
$PEXTMIN
 10
1.000000000000000E+20
 20
1.000000000000000E+20
 30
1.000000000000000E+20
  9
$PEXTMAX
 10
-1.000000000000000E+20
 20
-1.000000000000000E+20
 30
-1.000000000000000E+20
  9
$PLIMMIN
 10
0.0
 20
0.0
  9
$PLIMMAX
 10
12.0
 20
9.0
  9
$UNITMODE
 70
     0
  9
$VISRETAIN
 70
     1
  9
$PLINEGEN
 70
     0
  9
$PSLTSCALE
 70
     1
  9
$TREEDEPTH
 70
  3020
  9
$CMLSTYLE
  2
STANDARD
  9
$CMLJUST
 70
     0
  9
$CMLSCALE
 40
1.0
  9
$PROXYGRAPHICS
 70
     1
  9
$MEASUREMENT
 70
     0
  9
$CELWEIGHT
370
    -1
  9
$ENDCAPS
280
     0
  9
$JOINSTYLE
280
     0
  9
$LWDISPLAY
290
     0
  9
$INSUNITS
 70
     0
  9
$HYPERLINKBASE
  1

  9
$STYLESHEET
  1

  9
$XEDIT
290
     1
  9
$CEPSNTYPE
380
     0
  9
$PSTYLEMODE
290
     1
  9
$FINGERPRINTGUID
  2
{74BEC188-66F7-4CCC-A18D-03EE4744FA0B}
  9
$VERSIONGUID
  2
{A3C82FDC-BB43-44F1-BE74-627F68C1E655}
  9
$EXTNAMES
290
     1
  9
$PSVPSCALE
 40
0.0
  9
$OLESTARTUP
290
     0
  0
ENDSEC
  0
SECTION
  2
CLASSES
  0
CLASS
  1
ACDBDICTIONARYWDFLT
  2
AcDbDictionaryWithDefault
  3
AutoCAD 2000
 90
        0
280
     0
281
     0
  0
CLASS
  1
ACDBPLACEHOLDER
  2
AcDbPlaceHolder
  3
AutoCAD 2000
 90
        0
280
     0
281
     0
  0
CLASS
  1
LAYOUT
  2
AcDbLayout
  3
AutoCAD 2000
 90
        0
280
     0
281
     0
  0
CLASS
  1
AMGSETTINGSOBJ
  2
AmgSettingsObj
  3
"AcadM|Product Description: AutoCAD Mechanical 2000|Company: Autodesk"
 90
        0
280
     0
281
     0
  0
CLASS
  1
ACME_DOCUMENT
  2
AcMeDbDoc
  3
AcMeServices
 90
        0
280
     0
281
     0
  0
CLASS
  1
ACMESCOPE
  2
AcMeScope
  3
AcMeServices
 90
        0
280
     0
281
     0
  0
CLASS
  1
ACMECOMMANDHISTORY
  2
AcMeCommandHistory
  3
AcMeServices
 90
        0
280
     0
281
     0
  0
CLASS
  1
ACIMSYSVARMAN
  2
AcImSysVarManager
  3
AcMeServices
 90
        0
280
     0
281
     0
  0
CLASS
  1
ACIMREALSYSVAR
  2
AcImRealSysVar
  3
AcMeServices
 90
        0
280
     0
281
     0
  0
CLASS
  1
ACIMINTSYSVAR
  2
AcImIntSysVar
  3
AcMeServices
 90
        0
280
     0
281
     0
  0
CLASS
  1
ACMEDRAWINGMAN
  2
AcMeDrawingMan
  3
AcMeServices
 90
        0
280
     0
281
     0
  0
CLASS
  1
ACMEVIEW
  2
AcMeView
  3
AcMeServices
 90
        0
280
     0
281
     0
  0
CLASS
  1
ACDBENTITYCACHE
  2
AcMeEntityCache
  3
AcMeServices
 90
        0
280
     0
281
     0
  0
CLASS
  1
GSMANAGER
  2
AcMeGSManager
  3
AcMeServices
 90
        0
280
     0
281
     0
  0
CLASS
  1
AMDTINTERNALREACTOR
  2
AmdtInternalReactor
  3
AcMeServices
 90
        0
280
     0
281
     0
  0
CLASS
  1
ACMESTATEMGR
  2
AcMeStateMgr
  3
AcMeServices
 90
        0
280
     0
281
     0
  0
CLASS
  1
ACGREFMASTER
  2
AcGrefMaster
  3
AcAttribServices
 90
        0
280
     0
281
     0
  0
CLASS
  1
AM_DRAWING_MGR
  2
AcDmDwgMgr
  3
AcMechDwgViewMgmt
 90
        0
280
     0
281
     0
  0
CLASS
  1
AM_DWG_DOCUMENT
  2
AcDmDwgDocument
  3
AcMechDwgViewMgmt
 90
        0
280
     0
281
     0
  0
CLASS
  1
AM_DWG_SHEET
  2
AcDmSheet
  3
AcMechDwgViewMgmt
 90
        0
280
     0
281
     0
  0
CLASS
  1
AM_VIEWDIMPARMAP
  2
AcDmViewDimParMap
  3
AcMechDwgViewMgmt
 90
        0
280
     0
281
     0
  0
CLASS
  1
AM_DWGMGR_NAME
  2
AcDmDwgMgrName
  3
AcMechDwgViewMgmt
 90
        0
280
     0
281
     0
  0
CLASS
  1
ACME_DATABASE
  2
AcMeDbDatabase
  3
AcMeServices
 90
        0
280
     0
281
     0
  0
CLASS
  1
ACRFINSADJUSTERMGR
  2
AcRfInsAdjusterMgr
  3
AcMeServices
 90
        0
280
     0
281
     0
  0
CLASS
  1
ACGREFACADMASTER
  2
AcGrefacadMaster
  3
AcGrefServices
 90
        0
280
     0
281
     0
  0
CLASS
  1
AMDTMENUSTATEMGR
  2
AmdtMenuStateMgr
  3
McadcomServices
 90
        0
280
     0
281
     0
  0
CLASS
  1
AMDTMCOMMENUSTATE
  2
AmdtMcomMenuState
  3
McadcomServices
 90
        0
280
     0
281
     0
  0
CLASS
  1
AMIMASTER
  2
AmiMaster
  3
AmiServices
 90
        0
280
     0
281
     0
  0
CLASS
  1
ASAPP
  2
AcAsAppObject
  3
AutoSurfServices
 90
        0
280
     0
281
     0
  0
CLASS
  1
IM_STATIC_MAN
  2
AcImStaticVarManager
  3
AcMeServices
 90
        0
280
     0
281
     0
  0
CLASS
  1
ACIMSTRSYSVAR
  2
AcImStrSysVar
  3
AcMeServices
 90
        0
280
     0
281
     0
  0
CLASS
  1
ACIMDBLSTATICVAR
  2
AcImDblStaticVar
  3
AcMeServices
 90
        0
280
     0
281
     0
  0
CLASS
  1
ACIMSTRSTATICVAR
  2
AcImStrStaticVar
  3
AcMeServices
 90
        0
280
     0
281
     0
  0
CLASS
  1
ACIMINTSTATICVAR
  2
AcImIntStaticVar
  3
AcMeServices
 90
        0
280
     0
281
     0
  0
CLASS
  1
ACASGREFMASTER
  2
AcAsGrefMaster
  3
AutoSurfResolverServices
 90
        0
280
     0
281
     0
  0
CLASS
  1
ACADGREFMODULE
  2
AcAdGrefModule
  3
AdGrefServices
 90
        0
280
     0
281
     0
  0
CLASS
  1
AMDTMAPISURFMOUDULE
  2
AmdtMApiSurfModule
  3
MApiSurfServices
 90
        0
280
     0
281
     0
  0
CLASS
  1
MAPIAMMOUDLE
  2
MApiAmModule
  3
MApiAmServices
 90
        0
280
     0
281
     0
  0
CLASS
  1
AMDTADMENUSTATE
  2
AmdtAdMenuState
  3
DesignerServices
 90
        0
280
     0
281
     0
  0
CLASS
  1
ADAPPL
  2
AcAdAppl
  3
DesignerServices
 90
        0
280
     0
281
     0
  0
CLASS
  1
DEPMGR
  2
AcAdDepMgr
  3
DesignerServices
 90
        0
280
     0
281
     0
  0
CLASS
  1
PARAMMGR
  2
AcAdParamMgr
  3
DesignerServices
 90
        0
280
     0
281
     0
  0
CLASS
  1
PARAMSCOPE
  2
AcAdParamScope
  3
DesignerServices
 90
        0
280
     0
281
     0
  0
CLASS
  1
NAMEDAPPL
  2
AcAdNamedAppl
  3
DesignerServices
 90
        0
280
     0
281
     0
  0
CLASS
  1
AMDTDMMENUSTATE
  2
AmdtDmMenuState
  3
AcMechDwgViewMgmt
 90
        0
280
     0
281
     0
  0
CLASS
  1
MAPIADMODULE
  2
MApiAdModule
  3
MApiAdServices
 90
        0
280
     0
281
     0
  0
CLASS
  1
AMDTAMMENUSTATE
  2
AmdtAmMenuState
  3
DesignerAssemblies
 90
        0
280
     0
281
     0
  0
CLASS
  1
ACAMPROJECT
  2
AcAmProject
  3
DesignerAssemblies
 90
        0
280
     0
281
     0
  0
CLASS
  1
ACAMGRCOMPDEF
  2
AcAmGrCompDef
  3
DesignerAssemblies
 90
        0
280
     0
281
     0
  0
CLASS
  1
ACCMCONTEXT
  2
AcCmContext
  3
DesignerAssemblies
 90
        0
280
     0
281
     0
  0
CLASS
  1
ACAMCOMPDEF
  2
AcAmCompDef
  3
DesignerAssemblies
 90
        0
280
     0
281
     0
  0
CLASS
  1
ACAMCOMPDEFMGR
  2
AcAmCompDefMgr
  3
DesignerAssemblies
 90
        0
280
     0
281
     0
  0
CLASS
  1
AMCONTEXTMGR
  2
AcAmContextMgr
  3
DesignerAssemblies
 90
        0
280
     0
281
     0
  0
CLASS
  1
ACAMCONTEXTMODELER
  2
AcAmContextModeler
  3
DesignerAssemblies
 90
        0
280
     0
281
     0
  0
CLASS
  1
ACMDATADICTIONARY
  2
AcmDataDictionary
  3
"AcmSymBB|Product Description: AutoCAD Mechanical 2000|Company: Autodesk"
 90
        0
280
     0
281
     0
  0
CLASS
  1
ACMDATAENTRYBLOCK
  2
AcmDataEntryBlock
  3
"AcmSymBB|Product Description: AutoCAD Mechanical 2000|Company: Autodesk"
 90
        0
280
     0
281
     0
  0
CLASS
  1
CATALOGSTATE
  2
AcAmCatalogState
  3
DesignerAssemblies
 90
        0
280
     0
281
     0
  0
CLASS
  1
ACAMGRCOMPDEFSET
  2
AcAmGrCompDefSet
  3
DesignerAssemblies
 90
        0
280
     0
281
     0
  0
CLASS
  1
AMDTBROWSERDBTAB
  2
AmdtBrowserDbTab
  3
McadcomServices
 90
        0
280
     0
281
     0
  0
CLASS
  1
CBROWSERAPPOBJECT
  2
CBrowserAppObject
  3
McadcomServices
 90
        0
280
     0
281
     0
  0
CLASS
  1
DM_PLACEHOLDER
  2
AcDmSelsetPlaceholder
  3
AcMechDwgViewMgmt
 90
        0
280
     0
281
     0
  0
CLASS
  1
ACMSTANDARDANSI
  2
AcmStandardANSI
  3
"Amdt_StdImp|Product Description: AutoCAD Mechanical 2000|Company: Autodesk"
 90
        0
280
     0
281
     0
  0
CLASS
  1
AMGOBJPROPCFG
  2
AmgObjPropCfg
  3
"AmgLay|Product Description: AutoCAD Mechanical 2000|Company: Autodesk"
 90
        1
280
     0
281
     0
  0
CLASS
  1
ACMSURFSTANDARDANSI
  2
AcmSurfTextStdANSI
  3
"Amdt_StdImp|Product Description: AutoCAD Mechanical 2000|Company: Autodesk"
 90
        0
280
     0
281
     0
  0
CLASS
  1
ACMFCFSTANDARDANSI
  2
AcmFCFStdANSI
  3
"Amdt_StdImp|Product Description: AutoCAD Mechanical 2000|Company: Autodesk"
 90
        0
280
     0
281
     0
  0
CLASS
  1
ACMWELDSTANDARDANSI
  2
AcmWeldingStdANSI
  3
"Amdt_StdImp|Product Description: AutoCAD Mechanical 2000|Company: Autodesk"
 90
        0
280
     0
281
     0
  0
CLASS
  1
ACMIDSTANDARDANSI
  2
AcmIdStdANSI
  3
"Amdt_StdImp|Product Description: AutoCAD Mechanical 2000|Company: Autodesk"
 90
        0
280
     0
281
     0
  0
CLASS
  1
ACMDATUMSTANDARDANSI
  2
AcmDatumStdANSI
  3
"Amdt_StdImp|Product Description: AutoCAD Mechanical 2000|Company: Autodesk"
 90
        0
280
     0
281
     0
  0
CLASS
  1
ACMBOMSTANDARDANSI
  2
AcmBOMStdANSI
  3
"Amdt_StdImp|Product Description: AutoCAD Mechanical 2000|Company: Autodesk"
 90
        0
280
     0
281
     0
  0
CLASS
  1
ACMDETAILSTANDARDANSI
  2
AmdtDetailSymStdANSI
  3
"Amdt_StdImp|Product Description: AutoCAD Mechanical 2000|Company: Autodesk"
 90
        0
280
     0
281
     0
  0
CLASS
  1
ACMSECTIONSTANDARDANSI
  2
AmdtSectionSymStdANSI
  3
"Amdt_StdImp|Product Description: AutoCAD Mechanical 2000|Company: Autodesk"
 90
        0
280
     0
281
     0
  0
CLASS
  1
ACMCENTERLINESTANDARDANSI
  2
AmdtCenterLineStdANSI
  3
"Amdt_StdImp|Product Description: AutoCAD Mechanical 2000|Company: Autodesk"
 90
        0
280
     0
281
     0
  0
CLASS
  1
ACMTHREADLINESTANDARDANSI
  2
AmdtThreadLineStdANSI
  3
"Amdt_StdImp|Product Description: AutoCAD Mechanical 2000|Company: Autodesk"
 90
        0
280
     0
281
     0
  0
CLASS
  1
ACMNOTESTANDARDANSI
  2
AmdtNoteStdANSI
  3
"Amdt_StdImp|Product Description: AutoCAD Mechanical 2000|Company: Autodesk"
 90
        0
280
     0
281
     0
  0
CLASS
  1
ACAMGLAYSTD
  2
AcAmgLayStd
  3
"AcAmgLayStd|Product Description: AutoCAD Mechanical 2000|Company: Autodesk"
 90
        0
280
     0
281
     0
  0
CLASS
  1
ACAMGDIMSTD
  2
AcAmgDimStd
  3
"AcAmgDimStd|Product Description: AutoCAD Mechanical 2000|Company: Autodesk"
 90
        0
280
     0
281
     0
  0
CLASS
  1
ACAMGHOLECHARTSTDANSI
  2
AcAmgHoleChartStdANSI
  3
ACMSYMBB_MODULE_NAME
 90
        0
280
     0
281
     0
  0
CLASS
  1
ACAMGTITLESTD
  2
AcAmgTitleStd
  3
"TITLEAPP"
 90
        0
280
     0
281
     0
  0
CLASS
  1
LAYER_INDEX
  2
AcDbLayerIndex
  3
AutoCAD 2000
 90
        0
280
     0
281
     0
  0
CLASS
  1
IDBUFFER
  2
AcDbIdBuffer
  3
AutoCAD 2000
 90
        0
280
     0
281
     0
  0
CLASS
  1
DICTIONARYVAR
  2
AcDbDictionaryVar
  3
AutoCAD 2000
 90
        0
280
     0
281
     0
  0
CLASS
  1
ACAMGFILTERDAT
  2
AcAmgFilterDat
  3
"AcadM|Product Description: AutoCAD Mechanical 2000|Company: Autodesk"
 90
        0
280
     0
281
     0
  0
CLASS
  1
AMDTFORMULAUPDATEDISPATCHER
  2
AmdtFormulaUpdateDispatcher
  3
AcMeServices
 90
        0
280
     0
281
     0
  0
ENDSEC
  0
SECTION
  2
TABLES
  0
TABLE
  2
VPORT
  5
8
330
0
100
AcDbSymbolTable
 70
     8
  0
VPORT
  5
47B
330
8
100
AcDbSymbolTableRecord
100
AcDbViewportTableRecord
  2
*Active
 70
     0
 10
0.0
 20
0.0
 11
1.0
 21
1.0
 12
0.0
 22
0.0
 13
0.0
 23
0.0
 14
1.0
 24
1.0
 15
0.0
 25
0.0
 16
0.0
 26
0.0
 36
1.0
 17
12.57731920754716
 27
20.0
 37
0.0
 40
200.1265968248973
 41
1.516981132075471
 42
50.0
 43
0.0
 44
0.0
 50
0.0
 51
0.0
 71
     0
 72
   100
 73
     1
 74
     1
 75
     0
 76
     0
 77
     0
 78
     0
281
     0
 65
     0
110
0.0
120
0.0
130
0.0
111
1.0
121
0.0
131
0.0
112
0.0
122
1.0
132
0.0
 79
     0
146
0.0
  0
ENDTAB
  0
TABLE
  2
LTYPE
  5
5
330
0
100
AcDbSymbolTable
 70
    25
  0
LTYPE
  5
12
330
5
100
AcDbSymbolTableRecord
100
AcDbLinetypeTableRecord
  2
BYBLOCK
 70
     0
  3

 72
    65
 73
     0
 40
0.0
  0
LTYPE
  5
13
330
5
100
AcDbSymbolTableRecord
100
AcDbLinetypeTableRecord
  2
BYLAYER
 70
     0
  3

 72
    65
 73
     0
 40
0.0
  0
LTYPE
  5
14
330
5
100
AcDbSymbolTableRecord
100
AcDbLinetypeTableRecord
  2
CONTINUOUS
 70
     0
  3
Solid line
 72
    65
 73
     0
 40
0.0
  0
LTYPE
  5
1F
330
5
100
AcDbSymbolTableRecord
100
AcDbLinetypeTableRecord
  2
BORDER
 70
     0
  3
__ __ . __ __ .
 72
    65
 73
     6
 40
2.901315999999999
 49
0.8289469999999999
 74
     0
 49
-0.414474
 74
     0
 49
0.8289469999999999
 74
     0
 49
-0.414474
 74
     0
 49
0.0
 74
     0
 49
-0.414474
 74
     0
  0
LTYPE
  5
20
330
5
100
AcDbSymbolTableRecord
100
AcDbLinetypeTableRecord
  2
CENTER
 70
     0
  3
____ _ ____ _
 72
    65
 73
     4
 40
3.315789
 49
2.072367999999999
 74
     0
 49
-0.414474
 74
     0
 49
0.414474
 74
     0
 49
-0.414474
 74
     0
  0
LTYPE
  5
21
330
5
100
AcDbSymbolTableRecord
100
AcDbLinetypeTableRecord
  2
DASHDOT
 70
     0
  3
__ . __ . __ .
 72
    65
 73
     4
 40
1.657895
 49
0.8289469999999999
 74
     0
 49
-0.414474
 74
     0
 49
0.0
 74
     0
 49
-0.414474
 74
     0
  0
LTYPE
  5
22
330
5
100
AcDbSymbolTableRecord
100
AcDbLinetypeTableRecord
  2
DASHED
 70
     0
  3
__ __ __ __ __
 72
    65
 73
     2
 40
1.243420999999999
 49
0.8289469999999999
 74
     0
 49
-0.414474
 74
     0
  0
LTYPE
  5
23
330
5
100
AcDbSymbolTableRecord
100
AcDbLinetypeTableRecord
  2
DIVIDE
 70
     0
  3
__ . . __ . . 
 72
    65
 73
     6
 40
2.072367999999999
 49
0.8289469999999999
 74
     0
 49
-0.414474
 74
     0
 49
0.0
 74
     0
 49
-0.414474
 74
     0
 49
0.0
 74
     0
 49
-0.414474
 74
     0
  0
LTYPE
  5
24
330
5
100
AcDbSymbolTableRecord
100
AcDbLinetypeTableRecord
  2
DOT
 70
     0
  3
..............
 72
    65
 73
     4
 40
0.8289469999999999
 49
0.0
 74
     0
 49
-0.414474
 74
     0
 49
0.0
 74
     0
 49
-0.414474
 74
     0
  0
LTYPE
  5
25
330
5
100
AcDbSymbolTableRecord
100
AcDbLinetypeTableRecord
  2
HIDDEN
 70
     0
  3
_ _ _ _ _ _ _
 72
    65
 73
     2
 40
0.621711
 49
0.414474
 74
     0
 49
-0.207237
 74
     0
  0
LTYPE
  5
26
330
5
100
AcDbSymbolTableRecord
100
AcDbLinetypeTableRecord
  2
PHANTOM
 70
     0
  3
_____ _ _ _____ _ _ 
 72
    65
 73
     6
 40
4.144737
 49
2.072367999999999
 74
     0
 49
-0.414474
 74
     0
 49
0.414474
 74
     0
 49
-0.414474
 74
     0
 49
0.414474
 74
     0
 49
-0.414474
 74
     0
  0
LTYPE
  5
9F
330
5
100
AcDbSymbolTableRecord
100
AcDbLinetypeTableRecord
  2
PHANTOM2
 70
     0
  3
Phantom (.5x) ___ _ _ ___ _ _ ___ _ _ ___ _ _
 72
    65
 73
     6
 40
1.25
 49
0.625
 74
     0
 49
-0.125
 74
     0
 49
0.125
 74
     0
 49
-0.125
 74
     0
 49
0.125
 74
     0
 49
-0.125
 74
     0
  0
LTYPE
  5
101
330
5
100
AcDbSymbolTableRecord
100
AcDbLinetypeTableRecord
  2
ASULTYPE
 70
     0
  3
実線
 72
    65
 73
     2
 40
3.0
 49
2.5
 74
     0
 49
0.5
 74
     0
  0
LTYPE
  5
102
330
5
100
AcDbSymbolTableRecord
100
AcDbLinetypeTableRecord
  2
ASVLTYPE
 70
     0
  3
__ __ __ __ __ __ __ __ __ __ __ __ __ __ __ __ __ __ __ __ __
 72
    65
 73
     2
 40
0.75
 49
0.5
 74
     0
 49
-0.25
 74
     0
  0
LTYPE
  5
146
330
5
100
AcDbSymbolTableRecord
100
AcDbLinetypeTableRecord
  2
AM_ISO02W050
 70
     0
  3
__ __ __ __ __ __ __ __ __ __ __ __ __ __ __
 72
    65
 73
     2
 40
7.5
 49
6.0
 74
     0
 49
-1.5
 74
     0
  0
LTYPE
  5
147
330
5
100
AcDbSymbolTableRecord
100
AcDbLinetypeTableRecord
  2
AM_ISO08W050
 70
     0
  3
____ . ____ . ____ . ____ . ____ . ____ . ____
 72
    65
 73
     4
 40
18.0
 49
12.0
 74
     0
 49
-1.5
 74
     0
 49
3.0
 74
     0
 49
-1.5
 74
     0
  0
LTYPE
  5
148
330
5
100
AcDbSymbolTableRecord
100
AcDbLinetypeTableRecord
  2
AM_ISO09W050
 70
     0
  3
_____ . . _____ . . _____ . . ____ .. ____
 72
    65
 73
     6
 40
22.5
 49
12.0
 74
     0
 49
-1.5
 74
     0
 49
3.0
 74
     0
 49
-1.5
 74
     0
 49
3.0
 74
     0
 49
-1.5
 74
     0
  0
LTYPE
  5
149
330
5
100
AcDbSymbolTableRecord
100
AcDbLinetypeTableRecord
  2
Amconstr
 70
     0
  3
_______________________
 72
    65
 73
     2
 40
9999.0
 49
9999.0
 74
     0
 49
0.0
 74
     0
  0
LTYPE
  5
14A
330
5
100
AcDbSymbolTableRecord
100
AcDbLinetypeTableRecord
  2
AM_ISO08W050x2
 70
     0
  3
__ . __ . __ . __ . __ . __
 72
    65
 73
     4
 40
9.0
 49
6.0
 74
     0
 49
-0.75
 74
     0
 49
1.5
 74
     0
 49
-0.75
 74
     0
  0
LTYPE
  5
14B
330
5
100
AcDbSymbolTableRecord
100
AcDbLinetypeTableRecord
  2
AM_ISO02W050x2
 70
     0
  3
 _ _ _ _ _ _ _ _ _ _ _ _
 72
    65
 73
     2
 40
3.75
 49
3.0
 74
     0
 49
-0.75
 74
     0
  0
LTYPE
  5
14E
330
5
100
AcDbSymbolTableRecord
100
AcDbLinetypeTableRecord
  2
Amzigzag
 70
     0
  3
/\/-/\/-/\/-/\/-/\/-/\/
 72
    65
 73
     2
 40
11.00009999999999
 49
0.0001
 74
     4
 75
   135
340
14D
 46
0.04
 50
0.0
 44
0.0
 45
0.0
 49
-11.0
 74
     0
  0
LTYPE
  5
14F
330
5
100
AcDbSymbolTableRecord
100
AcDbLinetypeTableRecord
  2
CENTER2
 70
     0
  3
Center (.5x) ___ _ ___ _ ___ _ ___ _ ___ _ ___
 72
    65
 73
     4
 40
1.125
 49
0.75
 74
     0
 49
-0.125
 74
     0
 49
0.125
 74
     0
 49
-0.125
 74
     0
  0
LTYPE
  5
150
330
5
100
AcDbSymbolTableRecord
100
AcDbLinetypeTableRecord
  2
HIDDEN2
 70
     0
  3
Hidden (.5x) _ _ _ _ _ _ _ _ _ _ _ _ _ _ _ _ _
 72
    65
 73
     2
 40
0.1875
 49
0.125
 74
     0
 49
-0.0625
 74
     0
  0
LTYPE
  5
151
330
5
100
AcDbSymbolTableRecord
100
AcDbLinetypeTableRecord
  2
Amzigzag2
 70
     0
  3
/\/-/\/-/\/-/\/-/\/-/\/
 72
    65
 73
     2
 40
0.4401
 49
0.0001
 74
     4
 75
   135
340
14D
 46
0.0016
 50
0.0
 44
0.0
 45
0.0
 49
-0.4400000000000001
 74
     0
  0
LTYPE
  5
15F
330
5
100
AcDbSymbolTableRecord
100
AcDbLinetypeTableRecord
  2
ACANSTGB
 70
     0
  3
__ . . __ . .
 72
    65
 73
     6
 40
0.35433070866
 49
0.15748031496
 74
     0
 49
-0.03937007874
 74
     0
 49
0.03937007874
 74
     0
 49
-0.03937007874
 74
     0
 49
0.03937007874
 74
     0
 49
-0.03937007874
 74
     0
  0
LTYPE
  5
160
330
5
100
AcDbSymbolTableRecord
100
AcDbLinetypeTableRecord
  2
ACANSTGL
 70
     0
  3
_ _ _ _ _
 72
    65
 73
     2
 40
0.11811023622
 49
0.07874015748
 74
     0
 49
-0.03937007874
 74
     0
  0
LTYPE
  5
195
330
5
100
AcDbSymbolTableRecord
100
AcDbLinetypeTableRecord
  2
ITTEN1
 70
     0
  3

 72
    65
 73
     4
 40
8.199999999999999
 49
5.0
 74
     0
 49
-1.0
 74
     0
 49
1.199999999999999
 74
     0
 49
-1.0
 74
     0
  0
ENDTAB
  0
TABLE
  2
LAYER
  5
2
330
0
100
AcDbSymbolTable
 70
     7
  0
LAYER
  5
E
330
2
100
AcDbSymbolTableRecord
100
AcDbLayerTableRecord
  2
0
 70
     0
 62
     7
  6
CONTINUOUS
370
    -3
390
71
  0
LAYER
  5
27
330
2
100
AcDbSymbolTableRecord
100
AcDbLayerTableRecord
  2
HALDER_NORMTEILE
 70
     0
 62
     7
  6
CONTINUOUS
370
    -3
390
71
  0
LAYER
  5
28
330
2
100
AcDbSymbolTableRecord
100
AcDbLayerTableRecord
  2
HALDER_NORMTEILE_MITTELLINIE
 70
     0
 62
     7
  6
CONTINUOUS
370
    -3
390
71
  0
LAYER
  5
29
330
2
100
AcDbSymbolTableRecord
100
AcDbLayerTableRecord
  2
HALDER_INFO
 70
     0
 62
     7
  6
CONTINUOUS
370
    -3
390
71
  0
LAYER
  5
196
330
2
100
AcDbSymbolTableRecord
100
AcDbLayerTableRecord
  2
1
 70
     0
 62
     1
  6
ITTEN1
370
    -3
390
71
  0
LAYER
  5
197
330
2
100
AcDbSymbolTableRecord
100
AcDbLayerTableRecord
  2
3
 70
     0
 62
     5
  6
CONTINUOUS
370
    50
390
71
  0
LAYER
  5
198
330
2
100
AcDbSymbolTableRecord
100
AcDbLayerTableRecord
  2
DEFPOINTS
 70
     0
 62
     7
  6
CONTINUOUS
290
     0
370
    -3
390
71
  0
ENDTAB
  0
TABLE
  2
STYLE
  5
3
330
0
100
AcDbSymbolTable
 70
     8
  0
STYLE
  5
F
330
3
100
AcDbSymbolTableRecord
100
AcDbTextStyleTableRecord
  2
STANDARD
 70
     0
 40
0.0
 41
1.0
 50
0.0
 71
     0
 42
3.5
  3
txt
  4

  0
STYLE
  5
2A
330
3
100
AcDbSymbolTableRecord
100
AcDbTextStyleTableRecord
  2
SIMPLEX
 70
     0
 40
0.0
 41
1.0
 50
0.0
 71
     0
 42
3.5
  3
simplex
  4

  0
STYLE
  5
2B
330
3
100
AcDbSymbolTableRecord
100
AcDbTextStyleTableRecord
  2
COMPLEX
 70
     0
 40
0.0
 41
1.0
 50
0.0
 71
     0
 42
3.5
  3
complex
  4

  0
STYLE
  5
2C
330
3
100
AcDbSymbolTableRecord
100
AcDbTextStyleTableRecord
  2
ITALIC
 70
     0
 40
0.0
 41
1.0
 50
0.0
 71
     0
 42
3.5
  3
italic
  4

  0
STYLE
  5
14D
330
3
100
AcDbSymbolTableRecord
100
AcDbTextStyleTableRecord
  2

 70
     1
 40
0.0
 41
1.0
 50
0.0
 71
     0
 42
3.5
  3
ltypeshp.shx
  4

  0
STYLE
  5
152
330
3
100
AcDbSymbolTableRecord
100
AcDbTextStyleTableRecord
  2
ACANSTS
 70
     0
 40
1.0
 41
1.0
 50
0.0
 71
     0
 42
3.5
  3
romans.shx
  4
extfont.shx
  0
STYLE
  5
15E
330
3
100
AcDbSymbolTableRecord
100
AcDbTextStyleTableRecord
  2
ACANSGDT
 70
     0
 40
0.0
 41
1.0
 50
0.0
 71
     0
 42
3.5
  3
amgdtans.shx
  4

  0
STYLE
  5
199
330
3
100
AcDbSymbolTableRecord
100
AcDbTextStyleTableRecord
  2
BIGFONT
 70
     0
 40
5.0
 41
0.6
 50
0.0
 71
     0
 42
5.0
  3
txt.shx
  4
bigfont.shx
  0
ENDTAB
  0
TABLE
  2
VIEW
  5
6
330
0
100
AcDbSymbolTable
 70
     0
  0
ENDTAB
  0
TABLE
  2
UCS
  5
7
330
0
100
AcDbSymbolTable
 70
     0
  0
ENDTAB
  0
TABLE
  2
APPID
  5
9
330
0
100
AcDbSymbolTable
 70
    13
  0
APPID
  5
10
330
9
100
AcDbSymbolTableRecord
100
AcDbRegAppTableRecord
  2
ACAD
 70
     0
  0
APPID
  5
7D
330
9
100
AcDbSymbolTableRecord
100
AcDbRegAppTableRecord
  2
GENIUS_GENDIM_13
 70
     0
  0
APPID
  5
7E
330
9
100
AcDbSymbolTableRecord
100
AcDbRegAppTableRecord
  2
GENIUS_GENDTOL_13
 70
     0
  0
APPID
  5
7F
330
9
100
AcDbSymbolTableRecord
100
AcDbRegAppTableRecord
  2
GENIUS_GE3DTOL_13
 70
     0
  0
APPID
  5
82
330
9
100
AcDbSymbolTableRecord
100
AcDbRegAppTableRecord
  2
MCAD_NO_VIS
 70
     0
  0
APPID
  5
83
330
9
100
AcDbSymbolTableRecord
100
AcDbRegAppTableRecord
  2
ACAD_TEMP_GRAPHIC
 70
     0
  0
APPID
  5
B4
330
9
100
AcDbSymbolTableRecord
100
AcDbRegAppTableRecord
  2
AD_DRAW
 70
     0
  0
APPID
  5
B7
330
9
100
AcDbSymbolTableRecord
100
AcDbRegAppTableRecord
  2
ACATTRIBSERVICES
 70
     0
  0
APPID
  5
103
330
9
100
AcDbSymbolTableRecord
100
AcDbRegAppTableRecord
  2
ASURF_PCURVE_APPNAME
 70
     0
  0
APPID
  5
108
330
9
100
AcDbSymbolTableRecord
100
AcDbRegAppTableRecord
  2
AMG_3D2D_5.0
 70
     0
  0
APPID
  5
133
330
9
100
AcDbSymbolTableRecord
100
AcDbRegAppTableRecord
  2
DESIGNERASSEMBLIES
 70
     0
  0
APPID
  5
13B
330
9
100
AcDbSymbolTableRecord
100
AcDbRegAppTableRecord
  2
ACADM_DIM_EDIT
 70
     0
  0
APPID
  5
13C
330
9
100
AcDbSymbolTableRecord
100
AcDbRegAppTableRecord
  2
AMDT_DM_ADJ
 70
     0
  0
ENDTAB
  0
TABLE
  2
DIMSTYLE
  5
A
330
0
100
AcDbSymbolTable
 70
     7
100
AcDbDimStyleTable
 71
     0
  0
DIMSTYLE
105
52
330
A
100
AcDbSymbolTableRecord
100
AcDbDimStyleTableRecord
  2
STANDARD
 70
     0
340
F
  0
DIMSTYLE
105
165
330
A
100
AcDbSymbolTableRecord
100
AcDbDimStyleTableRecord
  2
AM_ANSI
 70
     0
  4
mm
 41
0.1
 42
0.05
 43
0.5
 44
0.1
 47
0.1
 48
0.1
 78
     7
 79
     2
140
0.12
141
0.0
146
0.71
147
0.06
176
   256
177
   256
178
     2
274
     4
284
     7
340
F
371
    -1
372
    -1
  0
DIMSTYLE
105
166
330
A
100
AcDbSymbolTableRecord
100
AcDbDimStyleTableRecord
  2
AM_ANSI$3
 70
     0
  4
mm
 41
0.1
 42
0.05
 43
0.5
 44
0.1
 47
0.1
 48
0.1
 78
     7
 79
     2
140
0.12
141
0.0
146
0.71
147
0.06
176
   256
177
   256
178
     2
274
     4
284
     7
288
     1
289
     0
340
F
371
    -1
372
    -1
  0
DIMSTYLE
105
167
330
A
100
AcDbSymbolTableRecord
100
AcDbDimStyleTableRecord
  2
AM_ANSI$4
 70
     0
  4
mm
 41
0.1
 42
0.05
 43
0.5
 44
0.1
 47
0.1
 48
0.1
 78
     7
 79
     2
140
0.12
141
0.0
146
0.71
147
0.06
176
   256
177
   256
178
     2
274
     4
284
     7
288
     1
289
     0
340
F
371
    -1
372
    -1
  0
DIMSTYLE
105
168
330
A
100
AcDbSymbolTableRecord
100
AcDbDimStyleTableRecord
  2
AM_ANSI$7
 70
     0
  4
mm
 41
0.1
 42
0.05
 43
0.5
 44
0.1
 47
0.1
 48
0.1
 78
     7
 79
     2
140
0.24
141
0.0
146
0.71
147
0.06
176
   256
177
   256
178
     2
274
     4
284
     7
340
F
371
    -1
372
    -1
  0
DIMSTYLE
105
169
330
A
100
AcDbSymbolTableRecord
100
AcDbDimStyleTableRecord
  2
AM_ANSI$SF
 70
     0
  4
mm
 41
0.1
 42
0.05
 43
0.5
 44
0.1
 47
0.1
 48
0.1
 75
     1
 76
     1
 78
     7
 79
     2
140
0.12
141
0.0
146
0.71
147
0.06
176
   256
177
   256
178
     2
274
     4
284
     7
340
F
371
    -1
372
    -1
  0
DIMSTYLE
105
16E
330
A
100
AcDbSymbolTableRecord
100
AcDbDimStyleTableRecord
  2
AM_ANSI$SH
 70
     0
  4
mm
 41
0.1
 42
0.05
 43
0.5
 44
0.1
 47
0.1
 48
0.1
 75
     1
 76
     1
 78
     7
 79
     2
140
0.12
141
0.0
146
0.71
147
0.06
173
     1
176
   256
177
   256
178
     2
274
     4
284
     7
340
F
343
16A
371
    -1
372
    -1
  0
ENDTAB
  0
TABLE
  2
BLOCK_RECORD
  5
1
330
0
100
AcDbSymbolTable
 70
    12
  0
BLOCK_RECORD
  5
18
102
{ACAD_XDICTIONARY
360
172
102
}
330
1
100
AcDbSymbolTableRecord
100
AcDbBlockTableRecord
  2
*MODEL_SPACE
340
74
  0
BLOCK_RECORD
  5
15
330
1
100
AcDbSymbolTableRecord
100
AcDbBlockTableRecord
  2
*PAPER_SPACE
340
75
  0
BLOCK_RECORD
  5
53
330
1
100
AcDbSymbolTableRecord
100
AcDbBlockTableRecord
  2
A$C65FD32EE
340
0
  0
BLOCK_RECORD
  5
12A
330
1
100
AcDbSymbolTableRecord
100
AcDbBlockTableRecord
  2
*U1
340
0
  0
BLOCK_RECORD
  5
16A
330
1
100
AcDbSymbolTableRecord
100
AcDbBlockTableRecord
  2
GENAXEH
340
0
  0
BLOCK_RECORD
  5
186
330
1
100
AcDbSymbolTableRecord
100
AcDbBlockTableRecord
  2
_None
340
0
  0
BLOCK_RECORD
  5
327
330
1
100
AcDbSymbolTableRecord
100
AcDbBlockTableRecord
  2
*D6
340
0
  0
BLOCK_RECORD
  5
3AB
330
1
100
AcDbSymbolTableRecord
100
AcDbBlockTableRecord
  2
*D8
340
0
  0
BLOCK_RECORD
  5
3D2
330
1
100
AcDbSymbolTableRecord
100
AcDbBlockTableRecord
  2
*D9
340
0
  0
BLOCK_RECORD
  5
458
330
1
100
AcDbSymbolTableRecord
100
AcDbBlockTableRecord
  2
*D11
340
0
  0
ENDTAB
  0
ENDSEC
  0
SECTION
  2
BLOCKS
  0
BLOCK
  5
19
330
18
100
AcDbEntity
  8
0
100
AcDbBlockBegin
  2
*MODEL_SPACE
 70
     0
 10
0.0
 20
0.0
 30
0.0
  3
*MODEL_SPACE
  1

  0
ENDBLK
  5
1A
330
18
100
AcDbEntity
  8
0
100
AcDbBlockEnd
  0
BLOCK
  5
16
330
15
100
AcDbEntity
 67
     1
  8
0
100
AcDbBlockBegin
  2
*PAPER_SPACE
 70
     0
 10
0.0
 20
0.0
 30
0.0
  3
*PAPER_SPACE
  1

  0
ENDBLK
  5
17
330
15
100
AcDbEntity
 67
     1
  8
0
100
AcDbBlockEnd
  0
BLOCK
  5
6A
330
53
100
AcDbEntity
  8
0
100
AcDbBlockBegin
  2
A$C65FD32EE
 70
     0
 10
0.0
 20
0.0
 30
0.0
  3
A$C65FD32EE
  1

  0
CIRCLE
  5
54
330
53
100
AcDbEntity
  8
HALDER_NORMTEILE
  6
DASHED
 62
     3
100
AcDbCircle
 10
36.5
 20
36.5
 30
0.0
 40
15.0
  0
CIRCLE
  5
55
330
53
100
AcDbEntity
  8
HALDER_NORMTEILE
  6
DASHED
 62
     3
100
AcDbCircle
 10
36.5
 20
36.5
 30
0.0
 40
4.25
  0
CIRCLE
  5
56
330
53
100
AcDbEntity
  8
HALDER_NORMTEILE
  6
DASHED
 62
     3
100
AcDbCircle
 10
36.5
 20
36.5
 30
0.0
 40
12.5
  0
ARC
  5
57
330
53
100
AcDbEntity
  8
HALDER_NORMTEILE
 62
     7
100
AcDbCircle
 10
36.5
 20
63.0
 30
0.0
 40
5.0
100
AcDbArc
 50
358.8872839999999
 51
90.0
  0
ARC
  5
58
330
53
100
AcDbEntity
  8
HALDER_NORMTEILE
 62
     7
100
AcDbCircle
 10
36.5
 20
10.0
 30
0.0
 40
5.0
100
AcDbArc
 50
270.0
 51
1.112716
  0
ARC
  5
59
330
53
100
AcDbEntity
  8
HALDER_NORMTEILE
  6
DASHED
 62
     3
100
AcDbCircle
 10
36.5
 20
36.5
 30
0.0
 40
5.0
100
AcDbArc
 50
170.0
 51
100.0
  0
LINE
  5
5A
330
53
100
AcDbEntity
  8
HALDER_NORMTEILE_MITTELLINIE
  6
DASHDOT
 62
     2
100
AcDbLine
 10
0.0
 20
36.5
 30
0.0
 11
73.0
 21
36.5
 31
0.0
  0
ARC
  5
5B
330
53
100
AcDbEntity
  8
HALDER_NORMTEILE
 62
     7
100
AcDbCircle
 10
10.0
 20
36.5
 30
0.0
 40
5.0
100
AcDbArc
 50
88.88728399999999
 51
180.0
  0
LINE
  5
5C
330
53
100
AcDbEntity
  8
HALDER_NORMTEILE_MITTELLINIE
  6
DASHDOT
 62
     2
100
AcDbLine
 10
36.5
 20
0.0
 30
0.0
 11
36.5
 21
73.0
 31
0.0
  0
ARC
  5
5D
330
53
100
AcDbEntity
  8
HALDER_NORMTEILE
 62
     7
100
AcDbCircle
 10
10.504903
 20
10.504903
 30
0.0
 40
21.0
100
AcDbArc
 50
45.0
 51
91.112716
  0
ARC
  5
5E
330
53
100
AcDbEntity
  8
HALDER_NORMTEILE
 62
     7
100
AcDbCircle
 10
10.0
 20
36.5
 30
0.0
 40
5.0
100
AcDbArc
 50
180.0
 51
271.112716
  0
ARC
  5
5F
330
53
100
AcDbEntity
  8
HALDER_NORMTEILE
 62
     7
100
AcDbCircle
 10
10.504903
 20
10.504903
 30
0.0
 40
21.0
100
AcDbArc
 50
358.8872839999999
 51
45.0
  0
ARC
  5
60
330
53
100
AcDbEntity
  8
HALDER_NORMTEILE
 62
     7
100
AcDbCircle
 10
36.5
 20
10.0
 30
0.0
 40
5.0
100
AcDbArc
 50
178.887284
 51
270.0
  0
ARC
  5
61
330
53
100
AcDbEntity
  8
HALDER_NORMTEILE
 62
     7
100
AcDbCircle
 10
10.504903
 20
62.49509699999999
 30
0.0
 40
21.0
100
AcDbArc
 50
268.8872839999999
 51
315.0
  0
ARC
  5
62
330
53
100
AcDbEntity
  8
HALDER_NORMTEILE
 62
     7
100
AcDbCircle
 10
10.504903
 20
62.49509699999999
 30
0.0
 40
21.0
100
AcDbArc
 50
315.0
 51
1.112716
  0
ARC
  5
63
330
53
100
AcDbEntity
  8
HALDER_NORMTEILE
 62
     7
100
AcDbCircle
 10
36.5
 20
63.0
 30
0.0
 40
5.0
100
AcDbArc
 50
90.0
 51
181.1127159999999
  0
ARC
  5
64
330
53
100
AcDbEntity
  8
HALDER_NORMTEILE
 62
     7
100
AcDbCircle
 10
63.0
 20
36.5
 30
0.0
 40
5.0
100
AcDbArc
 50
0.0
 51
91.112716
  0
ARC
  5
65
330
53
100
AcDbEntity
  8
HALDER_NORMTEILE
 62
     7
100
AcDbCircle
 10
62.49509699999999
 20
10.504903
 30
0.0
 40
21.0
100
AcDbArc
 50
88.88728399999999
 51
135.0
  0
ARC
  5
66
330
53
100
AcDbEntity
  8
HALDER_NORMTEILE
 62
     7
100
AcDbCircle
 10
62.49509699999999
 20
10.504903
 30
0.0
 40
21.0
100
AcDbArc
 50
135.0
 51
181.1127159999999
  0
ARC
  5
67
330
53
100
AcDbEntity
  8
HALDER_NORMTEILE
 62
     7
100
AcDbCircle
 10
63.0
 20
36.5
 30
0.0
 40
5.0
100
AcDbArc
 50
268.8872839999999
 51
0.0
  0
ARC
  5
68
330
53
100
AcDbEntity
  8
HALDER_NORMTEILE
 62
     7
100
AcDbCircle
 10
62.49509699999999
 20
62.49509699999999
 30
0.0
 40
21.0
100
AcDbArc
 50
225.0
 51
271.112716
  0
ARC
  5
69
330
53
100
AcDbEntity
  8
HALDER_NORMTEILE
 62
     7
100
AcDbCircle
 10
62.49509699999999
 20
62.49509699999999
 30
0.0
 40
21.0
100
AcDbArc
 50
178.887284
 51
225.0
  0
ENDBLK
  5
6B
330
53
100
AcDbEntity
  8
0
100
AcDbBlockEnd
  0
BLOCK
  5
12B
330
12A
100
AcDbEntity
  8
0
100
AcDbBlockBegin
  2
*U1
 70
     1
 10
0.0
 20
0.0
 30
0.0
  3
*U1
  1

  0
ENDBLK
  5
12C
330
12A
100
AcDbEntity
  8
0
100
AcDbBlockEnd
  0
BLOCK
  5
16C
330
16A
100
AcDbEntity
  8
0
100
AcDbBlockBegin
  2
GENAXEH
 70
     0
 10
0.0
 20
0.0
 30
0.0
  3
GENAXEH
  1

  0
LINE
  5
16B
330
16A
100
AcDbEntity
  8
0
100
AcDbLine
 10
-1.0
 20
0.0
 30
0.0
 11
1.0
 21
0.0
 31
0.0
  0
ENDBLK
  5
16D
330
16A
100
AcDbEntity
  8
0
100
AcDbBlockEnd
  0
BLOCK
  5
187
330
186
100
AcDbEntity
  8
0
100
AcDbBlockBegin
  2
_None
 70
     0
 10
0.0
 20
0.0
 30
0.0
  3
_None
  1

  0
ENDBLK
  5
188
330
186
100
AcDbEntity
  8
0
100
AcDbBlockEnd
  0
BLOCK
  5
332
330
327
100
AcDbEntity
  8
0
100
AcDbBlockBegin
  2
*D6
 70
     1
 10
0.0
 20
0.0
 30
0.0
  3
*D6
  1

  0
LINE
  5
328
330
327
100
AcDbEntity
  8
0
 62
     0
370
    -2
100
AcDbLine
 10
164.9734407275984
 20
159.186785421447
 30
0.0
 11
130.5641860554389
 21
159.186785421447
 31
0.0
  0
LINE
  5
329
330
327
100
AcDbEntity
  8
0
 62
     0
370
    -2
100
AcDbLine
 10
164.9734407275984
 20
119.1867854214469
 30
0.0
 11
130.5641860554389
 21
119.186785421447
 31
0.0
  0
LINE
  5
32A
330
327
100
AcDbEntity
  8
0
 62
     0
370
    -2
100
AcDbLine
 10
131.0641860554389
 20
157.186785421447
 30
0.0
 11
131.0641860554389
 21
144.3567227379335
 31
0.0
  0
LINE
  5
32B
330
327
100
AcDbEntity
  8
0
 62
     0
370
    -2
100
AcDbLine
 10
131.0641860554389
 20
121.186785421447
 30
0.0
 11
131.0641860554389
 21
138.3567227379335
 31
0.0
  0
SOLID
  5
32C
330
327
100
AcDbEntity
  8
0
 62
     0
100
AcDbTrace
 10
130.7308527221056
 20
157.186785421447
 30
0.0
 11
131.3975193887722
 21
157.186785421447
 31
0.0
 12
131.0641860554389
 22
159.186785421447
 32
0.0
 13
131.0641860554389
 23
159.186785421447
 33
0.0
  0
SOLID
  5
32D
330
327
100
AcDbEntity
  8
0
 62
     0
100
AcDbTrace
 10
130.7308527221056
 20
121.186785421447
 30
0.0
 11
131.3975193887722
 21
121.186785421447
 31
0.0
 12
131.0641860554389
 22
119.186785421447
 32
0.0
 13
131.0641860554389
 23
119.186785421447
 33
0.0
  0
MTEXT
  5
32E
330
327
100
AcDbEntity
  8
0
 62
     0
100
AcDbMText
 10
131.0641860554389
 20
141.3567227379335
 30
0.0
 40
4.0
 41
0.0
 71
     5
 72
     1
  1
\A2;40\P
 11
0.0000000000000001
 21
1.0
 31
0.0
 73
     1
 44
1.0
  0
POINT
  5
32F
330
327
100
AcDbEntity
  8
DEFPOINTS
 62
     0
100
AcDbPoint
 10
165.4734407275984
 20
159.186785421447
 30
0.0
  0
POINT
  5
330
330
327
100
AcDbEntity
  8
DEFPOINTS
 62
     0
100
AcDbPoint
 10
165.4734407275984
 20
119.1867854214469
 30
0.0
  0
POINT
  5
331
330
327
100
AcDbEntity
  8
DEFPOINTS
 62
     0
100
AcDbPoint
 10
131.0641860554389
 20
119.186785421447
 30
0.0
  0
ENDBLK
  5
333
330
327
100
AcDbEntity
  8
0
100
AcDbBlockEnd
  0
BLOCK
  5
3B6
330
3AB
100
AcDbEntity
  8
0
100
AcDbBlockBegin
  2
*D8
 70
     1
 10
0.0
 20
0.0
 30
0.0
  3
*D8
  1

  0
LINE
  5
3C2
330
3AB
100
AcDbEntity
  8
0
 62
     0
370
    -2
100
AcDbLine
 10
-3.817762971236049
 20
33.34205020750355
 30
0.0
 11
-38.22701764339555
 21
33.34205020750355
 31
0.0
  0
LINE
  5
3C3
330
3AB
100
AcDbEntity
  8
0
 62
     0
370
    -2
100
AcDbLine
 10
-3.817762971236049
 20
-6.657949792496509
 30
0.0
 11
-38.22701764339555
 21
-6.657949792496499
 31
0.0
  0
LINE
  5
3C4
330
3AB
100
AcDbEntity
  8
0
 62
     0
370
    -2
100
AcDbLine
 10
-37.72701764339554
 20
31.34205020750355
 30
0.0
 11
-37.72701764339554
 21
18.51198752399006
 31
0.0
  0
LINE
  5
3C5
330
3AB
100
AcDbEntity
  8
0
 62
     0
370
    -2
100
AcDbLine
 10
-37.72701764339555
 20
-4.6579497924965
 30
0.0
 11
-37.72701764339555
 21
12.51198752399006
 31
0.0
  0
SOLID
  5
3C6
330
3AB
100
AcDbEntity
  8
0
 62
     0
100
AcDbTrace
 10
-38.06035097672888
 20
31.34205020750355
 30
0.0
 11
-37.39368431006221
 21
31.34205020750355
 31
0.0
 12
-37.72701764339554
 22
33.34205020750355
 32
0.0
 13
-37.72701764339554
 23
33.34205020750355
 33
0.0
  0
SOLID
  5
3C7
330
3AB
100
AcDbEntity
  8
0
 62
     0
100
AcDbTrace
 10
-38.06035097672889
 20
-4.657949792496499
 30
0.0
 11
-37.39368431006222
 21
-4.6579497924965
 31
0.0
 12
-37.72701764339555
 22
-6.6579497924965
 32
0.0
 13
-37.72701764339555
 23
-6.6579497924965
 33
0.0
  0
MTEXT
  5
3C8
330
3AB
100
AcDbEntity
  8
0
 62
     0
100
AcDbMText
 10
-37.72701764339555
 20
15.51198752399005
 30
0.0
 40
4.0
 41
0.0
 71
     5
 72
     1
  1
\A2;40\P
 11
0.0000000000000001
 21
1.0
 31
0.0
 73
     1
 44
1.0
  0
POINT
  5
3C9
330
3AB
100
AcDbEntity
  8
DEFPOINTS
 62
     0
100
AcDbPoint
 10
-3.317762971236049
 20
33.34205020750355
 30
0.0
  0
POINT
  5
3CA
330
3AB
100
AcDbEntity
  8
DEFPOINTS
 62
     0
100
AcDbPoint
 10
-3.317762971236049
 20
-6.657949792496509
 30
0.0
  0
POINT
  5
3CB
330
3AB
100
AcDbEntity
  8
DEFPOINTS
 62
     0
100
AcDbPoint
 10
-37.72701764339555
 20
-6.6579497924965
 30
0.0
  0
ENDBLK
  5
3B7
330
3AB
100
AcDbEntity
  8
0
100
AcDbBlockEnd
  0
BLOCK
  5
3DD
330
3D2
100
AcDbEntity
  8
0
100
AcDbBlockBegin
  2
*D9
 70
     1
 10
0.0
 20
0.0
 30
0.0
  3
*D9
  1

  0
LINE
  5
3D3
330
3D2
100
AcDbEntity
  8
0
 62
     0
370
    -2
100
AcDbLine
 10
160.4181784605436
 20
146.5441424166206
 30
0.0
 11
127.1582214479546
 21
146.5441424166206
 31
0.0
  0
LINE
  5
3D4
330
3D2
100
AcDbEntity
  8
0
 62
     0
370
    -2
100
AcDbLine
 10
160.4181784605435
 20
96.54414241662067
 30
0.0
 11
127.1582214479546
 21
96.54414241662069
 31
0.0
  0
LINE
  5
3D5
330
3D2
100
AcDbEntity
  8
0
 62
     0
370
    -2
100
AcDbLine
 10
127.6582214479546
 20
144.5441424166206
 30
0.0
 11
127.6582214479546
 21
125.6092962055715
 31
0.0
  0
LINE
  5
3D6
330
3D2
100
AcDbEntity
  8
0
 62
     0
370
    -2
100
AcDbLine
 10
127.6582214479546
 20
98.5441424166207
 30
0.0
 11
127.6582214479546
 21
119.6092962055715
 31
0.0
  0
SOLID
  5
3D7
330
3D2
100
AcDbEntity
  8
0
 62
     0
100
AcDbTrace
 10
127.3248881146213
 20
144.5441424166206
 30
0.0
 11
127.9915547812879
 21
144.5441424166206
 31
0.0
 12
127.6582214479546
 22
146.5441424166206
 32
0.0
 13
127.6582214479546
 23
146.5441424166206
 33
0.0
  0
SOLID
  5
3D8
330
3D2
100
AcDbEntity
  8
0
 62
     0
100
AcDbTrace
 10
127.3248881146213
 20
98.5441424166207
 30
0.0
 11
127.9915547812879
 21
98.5441424166207
 31
0.0
 12
127.6582214479546
 22
96.54414241662069
 32
0.0
 13
127.6582214479546
 23
96.54414241662069
 33
0.0
  0
MTEXT
  5
3D9
330
3D2
100
AcDbEntity
  8
0
 62
     0
100
AcDbMText
 10
127.6582214479546
 20
122.6092962055716
 30
0.0
 40
4.0
 41
0.0
 71
     5
 72
     1
  1
\A2;50\P
 11
0.0000000000000001
 21
1.0
 31
0.0
 73
     1
 44
1.0
  0
POINT
  5
3DA
330
3D2
100
AcDbEntity
  8
DEFPOINTS
 62
     0
100
AcDbPoint
 10
160.9181784605436
 20
146.5441424166206
 30
0.0
  0
POINT
  5
3DB
330
3D2
100
AcDbEntity
  8
DEFPOINTS
 62
     0
100
AcDbPoint
 10
160.9181784605435
 20
96.54414241662067
 30
0.0
  0
POINT
  5
3DC
330
3D2
100
AcDbEntity
  8
DEFPOINTS
 62
     0
100
AcDbPoint
 10
127.6582214479546
 20
96.54414241662069
 30
0.0
  0
ENDBLK
  5
3DE
330
3D2
100
AcDbEntity
  8
0
100
AcDbBlockEnd
  0
BLOCK
  5
463
330
458
100
AcDbEntity
  8
0
100
AcDbBlockBegin
  2
*D11
 70
     1
 10
0.0
 20
0.0
 30
0.0
  3
*D11
  1

  0
LINE
  5
46F
330
458
100
AcDbEntity
  8
0
 62
     0
370
    -2
100
AcDbLine
 10
-7.010990484576353
 20
34.5532971016226
 30
0.0
 11
-40.27094749716533
 21
34.55329710162261
 31
0.0
  0
LINE
  5
470
330
458
100
AcDbEntity
  8
0
 62
     0
370
    -2
100
AcDbLine
 10
-7.010990484576382
 20
-15.44670289837736
 30
0.0
 11
-40.27094749716534
 21
-15.44670289837736
 31
0.0
  0
LINE
  5
471
330
458
100
AcDbEntity
  8
0
 62
     0
370
    -2
100
AcDbLine
 10
-39.77094749716533
 20
32.55329710162261
 30
0.0
 11
-39.77094749716533
 21
13.61845089057357
 31
0.0
  0
LINE
  5
472
330
458
100
AcDbEntity
  8
0
 62
     0
370
    -2
100
AcDbLine
 10
-39.77094749716533
 20
-13.44670289837735
 30
0.0
 11
-39.77094749716533
 21
7.618450890573576
 31
0.0
  0
SOLID
  5
473
330
458
100
AcDbEntity
  8
0
 62
     0
100
AcDbTrace
 10
-40.10428083049866
 20
32.55329710162261
 30
0.0
 11
-39.43761416383199
 21
32.55329710162261
 31
0.0
 12
-39.77094749716533
 22
34.55329710162261
 32
0.0
 13
-39.77094749716533
 23
34.55329710162261
 33
0.0
  0
SOLID
  5
474
330
458
100
AcDbEntity
  8
0
 62
     0
100
AcDbTrace
 10
-40.10428083049867
 20
-13.44670289837735
 30
0.0
 11
-39.437614163832
 21
-13.44670289837735
 31
0.0
 12
-39.77094749716533
 22
-15.44670289837736
 32
0.0
 13
-39.77094749716533
 23
-15.44670289837736
 33
0.0
  0
MTEXT
  5
475
330
458
100
AcDbEntity
  8
0
 62
     0
100
AcDbMText
 10
-39.77094749716533
 20
10.61845089057356
 30
0.0
 40
4.0
 41
0.0
 71
     5
 72
     1
  1
\A2;50\P
 11
0.0000000000000001
 21
1.0
 31
0.0
 73
     1
 44
1.0
  0
POINT
  5
476
330
458
100
AcDbEntity
  8
DEFPOINTS
 62
     0
100
AcDbPoint
 10
-6.510990484576353
 20
34.5532971016226
 30
0.0
  0
POINT
  5
477
330
458
100
AcDbEntity
  8
DEFPOINTS
 62
     0
100
AcDbPoint
 10
-6.510990484576382
 20
-15.44670289837736
 30
0.0
  0
POINT
  5
478
330
458
100
AcDbEntity
  8
DEFPOINTS
 62
     0
100
AcDbPoint
 10
-39.77094749716533
 20
-15.44670289837736
 30
0.0
  0
ENDBLK
  5
464
330
458
100
AcDbEntity
  8
0
100
AcDbBlockEnd
  0
ENDSEC
  0
SECTION
  2
ENTITIES
  0
LINE
  5
41E
330
18
100
AcDbEntity
  8
3
100
AcDbLine
 10
-32.1764989406789
 20
-24.06738910302133
 30
0.0
 11
-32.17649894067891
 21
-39.06738910302133
 31
0.0
  0
LINE
  5
41F
330
18
100
AcDbEntity
  8
3
100
AcDbLine
 10
-22.17649894067891
 20
-39.06738910302133
 30
0.0
 11
-22.1764989406789
 21
-24.06738910302133
 31
0.0
  0
LINE
  5
420
330
18
100
AcDbEntity
  8
3
100
AcDbLine
 10
-36.20983227401224
 20
-39.06738910302133
 30
0.0
 11
-36.67649894067887
 21
-25.06738910302135
 31
0.0
  0
LINE
  5
421
330
18
100
AcDbEntity
  8
3
100
AcDbLine
 10
-18.14316560734554
 20
-39.06738910302133
 30
0.0
 11
-17.6764989406789
 21
-25.06738910302135
 31
0.0
  0
LINE
  5
422
330
18
100
AcDbEntity
  8
1
100
AcDbLine
 10
-27.1764989406789
 20
2.507425363557217
 30
0.0
 11
-27.17649894067891
 21
-48.01559447086191
 31
0.0
  0
LINE
  5
423
330
18
100
AcDbEntity
  8
3
100
AcDbLine
 10
-22.6764989406789
 20
-21.06738910302133
 30
0.0
 11
-27.1764989406789
 21
-19.00664922572542
 31
0.0
  0
LINE
  5
424
330
18
100
AcDbEntity
  8
3
100
AcDbLine
 10
-22.6764989406789
 20
-21.06738910302133
 30
0.0
 11
-27.17649894067891
 21
-21.0673891030213
 31
0.0
  0
LINE
  5
425
330
18
100
AcDbEntity
  8
3
100
AcDbLine
 10
-22.1764989406789
 20
-24.06738910302133
 30
0.0
 11
-32.1764989406789
 21
-24.06738910302133
 31
0.0
  0
ARC
  5
426
330
18
100
AcDbEntity
  8
3
100
AcDbCircle
 10
-27.17649894067887
 20
94.129992673891
 30
0.0
 40
3.5
100
AcDbArc
 50
0.0000000000178874
 51
89.99999999999998
  0
ARC
  5
427
330
18
100
AcDbEntity
  8
3
100
AcDbCircle
 10
-5.4450296161741
 20
94.36146199839567
 30
0.0
 40
18.23293864900952
100
AcDbArc
 50
180.7273962743184
 51
269.2726037256815
  0
ARC
  5
428
330
18
100
AcDbEntity
  8
3
100
AcDbCircle
 10
-5.445029616174164
 20
50.89852334938617
 30
0.0
 40
18.23293864900952
100
AcDbArc
 50
90.72739627431843
 51
179.2726037256807
  0
ARC
  5
429
330
18
100
AcDbEntity
  8
3
100
AcDbCircle
 10
-27.17649894067893
 20
51.12999267389094
 30
0.0
 40
3.5
100
AcDbArc
 50
270.0000000000008
 51
359.9999999999992
  0
ARC
  5
42B
330
18
100
AcDbEntity
  8
0
100
AcDbCircle
 10
-27.17586793309043
 20
94.57068169620965
 30
0.0
 40
1.044450839758878
100
AcDbArc
 50
0.0346153905593567
 51
179.9653846093298
  0
ARC
  5
42C
330
18
100
AcDbEntity
  8
0
100
AcDbCircle
 10
-1.698772605021918
 20
94.24182586072697
 30
0.0
 40
24.43486622812192
100
AcDbArc
 50
179.2273836297964
 51
218.5767088695552
  0
ARC
  5
42D
330
18
100
AcDbEntity
  8
0
100
AcDbCircle
 10
-1.358349610484733
 20
50.89958454913077
 30
0.0
 40
24.77522745310247
100
AcDbArc
 50
141.6998264720736
 51
180.487765773431
  0
ARC
  5
42E
330
18
100
AcDbEntity
  8
0
100
AcDbCircle
 10
-27.1764989406788
 20
50.68867264398377
 30
0.0
 40
1.043819641558101
100
AcDbArc
 50
179.9999999999983
 51
0.000000000001603
  0
LINE
  5
42F
330
18
100
AcDbEntity
  8
1
100
AcDbLine
 10
-57.17649894067888
 20
72.62999267389097
 30
0.0
 11
2.82350105932111
 21
72.62999267389095
 31
0.0
  0
LINE
  5
430
330
18
100
AcDbEntity
  8
3
100
AcDbLine
 10
-21.17649894067921
 20
-5.06738910302133
 30
0.0
 11
-27.17649894067887
 21
-5.067389103021328
 31
0.0
  0
ARC
  5
431
330
18
100
AcDbEntity
  8
3
100
AcDbCircle
 10
-48.90796826518362
 20
94.3614619983958
 30
0.0
 40
18.23293864900952
100
AcDbArc
 50
270.7273962743184
 51
359.2726037256815
  0
ARC
  5
432
330
18
100
AcDbEntity
  8
0
100
AcDbCircle
 10
-53.08351553841159
 20
94.38882189817327
 30
0.0
 40
24.86260468865929
100
AcDbArc
 50
321.7753543453588
 51
0.4205531552893714
  0
LINE
  5
433
330
18
100
AcDbEntity
  8
1
100
AcDbLine
 10
-27.17649894067888
 20
102.6299926738909
 30
0.0
 11
-27.17649894067889
 21
42.62999267389097
 31
0.0
  0
ARC
  5
434
330
18
100
AcDbEntity
  8
3
100
AcDbCircle
 10
-27.17649894067884
 20
94.129992673891
 30
0.0
 40
3.5
100
AcDbArc
 50
90.00000000000079
 51
179.9999999999991
  0
ARC
  5
435
330
18
100
AcDbEntity
  8
3
100
AcDbCircle
 10
-48.90796826518372
 20
50.89852334938625
 30
0.0
 40
18.23293864900952
100
AcDbArc
 50
0.7273962743184283
 51
89.27260372568154
  0
ARC
  5
436
330
18
100
AcDbEntity
  8
0
100
AcDbCircle
 10
-52.61858490273889
 20
51.03036333641738
 30
0.0
 40
24.39939695163272
100
AcDbArc
 50
359.1976000648144
 51
38.60649243455521
  0
ARC
  5
437
330
18
100
AcDbEntity
  8
0
100
AcDbCircle
 10
-48.76267847025997
 20
47.23295180383397
 30
0.0
 40
24.35581057939101
100
AcDbArc
 50
51.3521130542983
 51
90.83547919121294
  0
ARC
  5
438
330
18
100
AcDbEntity
  8
0
100
AcDbCircle
 10
-48.60918332991603
 20
97.58452916301962
 30
0.0
 40
23.91486442774117
100
AcDbArc
 50
268.7813071996931
 51
309.0227852996533
  0
ARC
  5
439
330
18
100
AcDbEntity
  8
3
100
AcDbCircle
 10
-48.67649894067895
 20
72.62999267389104
 30
0.0
 40
3.5
100
AcDbArc
 50
180.0
 51
269.9999999999992
  0
ARC
  5
43A
330
18
100
AcDbEntity
  8
3
100
AcDbCircle
 10
-48.67649894067893
 20
72.62999267389101
 30
0.0
 40
3.5
100
AcDbArc
 50
90.0000000000179
 51
180.0
  0
ARC
  5
43B
330
18
100
AcDbEntity
  8
0
100
AcDbCircle
 10
-49.11781897058585
 20
72.62999267389087
 30
0.0
 40
1.043819641558116
100
AcDbArc
 50
89.99999999999918
 51
270.0000000000008
  0
ARC
  5
43C
330
18
100
AcDbEntity
  8
3
100
AcDbCircle
 10
-27.17649894067893
 20
51.12999267389094
 30
0.0
 40
3.5
100
AcDbArc
 50
180.0000000000179
 51
270.0
  0
LINE
  5
43D
330
18
100
AcDbEntity
  8
3
100
AcDbLine
 10
-41.67649894067888
 20
-20.06738910302135
 30
0.0
 11
-49.46092621856287
 21
-19.32601507655621
 31
0.0
  0
ARC
  5
43E
330
18
100
AcDbEntity
  8
3
100
AcDbCircle
 10
-25.03825886539456
 20
-74.59270138910198
 30
0.0
 40
70.0
100
AcDbArc
 50
96.67633827494002
 51
111.1169161473209
  0
LINE
  5
43F
330
18
100
AcDbEntity
  8
3
100
AcDbLine
 10
-52.17649894067887
 20
-12.09193846521489
 30
0.0
 11
-52.17649894067887
 21
-16.33952865877432
 31
0.0
  0
ARC
  5
440
330
18
100
AcDbEntity
  8
3
100
AcDbCircle
 10
-49.17649894067888
 20
-12.09193846521492
 30
0.0
 40
3.0
100
AcDbArc
 50
111.1169161473209
 51
180.0
  0
ARC
  5
441
330
18
100
AcDbEntity
  8
3
100
AcDbCircle
 10
-49.17649894067888
 20
-16.33952865877435
 30
0.0
 40
3.0
100
AcDbArc
 50
180.0
 51
264.5596679689944
  0
LINE
  5
442
330
18
100
AcDbEntity
  8
3
100
AcDbLine
 10
-33.17649894067856
 20
-5.067389103021326
 30
0.0
 11
-27.17649894067887
 21
-5.067389103021328
 31
0.0
  0
ARC
  5
443
330
18
100
AcDbEntity
  8
3
100
AcDbCircle
 10
-41.67649894067888
 20
-25.06738910302135
 30
0.0
 40
5.0
100
AcDbArc
 50
0.0
 51
89.99999999999998
  0
LINE
  5
444
330
18
100
AcDbEntity
  8
3
100
AcDbLine
 10
-31.6764989406789
 20
-21.06738910302132
 30
0.0
 11
-27.1764989406789
 21
-19.00664922572542
 31
0.0
  0
LINE
  5
445
330
18
100
AcDbEntity
  8
3
100
AcDbLine
 10
-31.6764989406789
 20
-21.06738910302132
 30
0.0
 11
-27.17649894067889
 21
-21.0673891030213
 31
0.0
  0
LINE
  5
446
330
18
100
AcDbEntity
  8
3
100
AcDbLine
 10
-31.6764989406789
 20
-24.06738910302133
 30
0.0
 11
-31.6764989406789
 21
-21.06738910302132
 31
0.0
  0
ARC
  5
447
330
18
100
AcDbEntity
  8
0
100
AcDbCircle
 10
-5.925432992636888
 20
97.05412691835391
 30
0.0
 40
23.38924006027747
100
AcDbArc
 50
230.5047713821525
 51
271.6911361185009
  0
ARC
  5
448
330
18
100
AcDbEntity
  8
0
100
AcDbCircle
 10
-5.895305091056172
 20
48.11787228374518
 30
0.0
 40
23.4763215493675
100
AcDbArc
 50
88.38869859006317
 51
129.4153939092806
  0
ARC
  5
449
330
18
100
AcDbEntity
  8
3
100
AcDbCircle
 10
-5.676498940678861
 20
72.62999267389097
 30
0.0
 40
3.5
100
AcDbArc
 50
270.0000000000179
 51
0.0
  0
ARC
  5
44A
330
18
100
AcDbEntity
  8
3
100
AcDbCircle
 10
-5.676498940678861
 20
72.62999267389091
 30
0.0
 40
3.5
100
AcDbArc
 50
0.0000000000008015
 51
89.99999999999918
  0
ARC
  5
44B
330
18
100
AcDbEntity
  8
0
100
AcDbCircle
 10
-5.236441688859393
 20
72.62999267389088
 30
0.0
 40
1.045082419645572
100
AcDbArc
 50
270.0692307812599
 51
89.93076921866917
  0
ARC
  5
44C
330
18
100
AcDbEntity
  8
3
100
AcDbCircle
 10
-29.31473901596327
 20
-74.59270138910198
 30
0.0
 40
70.0
100
AcDbArc
 50
68.88308385267906
 51
83.32366172505995
  0
LINE
  5
44D
330
18
100
AcDbEntity
  8
3
100
AcDbLine
 10
-12.6764989406789
 20
-20.06738910302135
 30
0.0
 11
-4.892071662794911
 21
-19.32601507655622
 31
0.0
  0
ARC
  5
44E
330
18
100
AcDbEntity
  8
3
100
AcDbCircle
 10
-12.67649894067891
 20
-25.06738910302135
 30
0.0
 40
5.0
100
AcDbArc
 50
89.99999999999998
 51
180.0
  0
LINE
  5
44F
330
18
100
AcDbEntity
  8
3
100
AcDbLine
 10
-22.6764989406789
 20
-24.06738910302133
 30
0.0
 11
-22.6764989406789
 21
-21.06738910302133
 31
0.0
  0
LINE
  5
450
330
18
100
AcDbEntity
  8
3
100
AcDbLine
 10
-2.176498940678904
 20
-12.09193846521493
 30
0.0
 11
-2.176498940678904
 21
-16.33952865877436
 31
0.0
  0
ARC
  5
451
330
18
100
AcDbEntity
  8
3
100
AcDbCircle
 10
-5.176498940678907
 20
-12.09193846521493
 30
0.0
 40
3.0
100
AcDbArc
 50
0.0
 51
68.88308385267906
  0
ARC
  5
452
330
18
100
AcDbEntity
  8
3
100
AcDbCircle
 10
-5.176498940678907
 20
-16.33952865877436
 30
0.0
 40
3.0
100
AcDbArc
 50
275.4403320310056
 51
0.0
  0
LINE
  5
453
330
18
100
AcDbEntity
  8
3
100
AcDbLine
 10
-36.20983227401224
 20
-39.06738910302133
 30
0.0
 11
-18.14316560734557
 21
-39.06738910302133
 31
0.0
  0
TEXT
  5
479
330
18
100
AcDbEntity
  8
0
100
AcDbText
 10
-10.31127486071372
 20
-39.96255472762681
 30
0.0
 40
3.5
  1
CK-50-R-SUS
100
AcDbText
  0
ENDSEC
  0
SECTION
  2
OBJECTS
  0
DICTIONARY
  5
C
330
0
100
AcDbDictionary
281
     1
  3
ACAD_GROUP
350
D
  3
ACAD_LAYOUT
350
72
  3
ACAD_MLINESTYLE
350
1B
  3
ACAD_PLOTSETTINGS
350
73
  3
ACAD_PLOTSTYLENAME
350
70
  3
AcDbVariableDictionary
350
17A
  3
AcmDictionary
350
134
  3
AMG
350
7A
  3
AMGSNAPSETTINGS
350
17D
  3
DWGPROPS
350
3D1
  3
MAPISURF_MODULE
350
106
  0
DICTIONARY
  5
172
330
18
100
AcDbDictionary
280
     1
281
     1
  3
ACAD_INDEX
360
173
  0
DICTIONARY
  5
D
102
{ACAD_REACTORS
330
C
102
}
330
C
100
AcDbDictionary
281
     1
  0
DICTIONARY
  5
72
102
{ACAD_REACTORS
330
C
102
}
330
C
100
AcDbDictionary
281
     1
  3
Model
350
74
  3
ﾚｲｱｳﾄ1
350
75
  0
DICTIONARY
  5
1B
102
{ACAD_REACTORS
330
C
102
}
330
C
100
AcDbDictionary
281
     1
  3
STANDARD
350
1C
  0
DICTIONARY
  5
73
102
{ACAD_REACTORS
330
C
102
}
330
C
100
AcDbDictionary
281
     1
  0
ACDBDICTIONARYWDFLT
  5
70
102
{ACAD_REACTORS
330
C
102
}
330
C
100
AcDbDictionary
281
     1
  3
Normal
350
71
100
AcDbDictionaryWithDefault
340
71
  0
DICTIONARY
  5
17A
102
{ACAD_REACTORS
330
C
102
}
330
C
100
AcDbDictionary
281
     1
  3
DIMASSOC
350
17C
  3
INDEXCTL
350
17B
  0
DICTIONARY
  5
134
102
{ACAD_REACTORS
330
C
102
}
330
C
100
AcDbDictionary
281
     1
  3
AcmBOMDATA
350
135
  3
AcmStdDictionary
350
143
  0
DICTIONARY
  5
7A
102
{ACAD_REACTORS
330
C
102
}
330
C
100
AcDbDictionary
281
     1
  3
AcMgSettings
350
7B
  3
AMGLAYCFG
350
145
  0
DICTIONARY
  5
17D
102
{ACAD_REACTORS
330
C
102
}
330
C
100
AcDbDictionary
281
     1
  3
DIMENSION
350
182
  3
FEA
350
181
  3
HATCH (1)
350
17E
  3
HATCH (2)
350
17F
  3
SIMPLE WELD
350
183
  3
SYMBOLS
350
180
  0
XRECORD
  5
3D1
102
{ACAD_REACTORS
330
C
102
}
330
C
100
AcDbXrecord
280
     1
  1
DWGPROPS COOKIE
  2

  3

  4

  6

  7

  8

  9

300
AmdtFileType=84
301
=
302
=
303
=
304
=
305
=
306
=
307
=
308
=
309
=
 40
0.0064651851851852
 41
2311940.850465301
 42
2454697.725174328
  1

 90
        1
  0
DICTIONARY
  5
173
102
{ACAD_REACTORS
330
172
102
}
330
172
100
AcDbDictionary
281
     1
  3
*A1
350
174
  0
LAYOUT
  5
74
102
{ACAD_REACTORS
330
72
102
}
330
72
100
AcDbPlotSettings
  1

  2
EPSON PM-3700C
  4

  6

 40
0.0
 41
0.0
 42
0.0
 43
0.0
 44
0.0
 45
0.0
 46
0.0
 47
0.0
 48
0.0
 49
0.0
140
0.0
141
0.0
142
1.0
143
1.0
 70
  1712
 72
     0
 73
     0
 74
     0
  7

 75
     0
147
1.0
148
0.0
149
0.0
100
AcDbLayout
  1
Model
 70
     1
 71
     0
 10
0.0
 20
0.0
 11
12.0
 21
9.0
 12
0.0
 22
0.0
 32
0.0
 14
0.0
 24
0.0
 34
0.0
 15
0.0
 25
0.0
 35
0.0
146
0.0
 13
0.0
 23
0.0
 33
0.0
 16
1.0
 26
0.0
 36
0.0
 17
0.0
 27
1.0
 37
0.0
 76
     0
330
18
  0
LAYOUT
  5
75
102
{ACAD_REACTORS
330
72
102
}
330
72
100
AcDbPlotSettings
  1

  2
EPSON PM-3700C
  4

  6

 40
0.0
 41
0.0
 42
0.0
 43
0.0
 44
0.0
 45
0.0
 46
0.0
 47
0.0
 48
0.0
 49
0.0
140
0.0
141
0.0
142
1.0
143
1.0
 70
   688
 72
     0
 73
     0
 74
     5
  7

 75
    16
147
1.0
148
0.0
149
0.0
100
AcDbLayout
  1
ﾚｲｱｳﾄ1
 70
     1
 71
     1
 10
0.0
 20
0.0
 11
12.0
 21
9.0
 12
0.0
 22
0.0
 32
0.0
 14
1.000000000000000E+20
 24
1.000000000000000E+20
 34
1.000000000000000E+20
 15
-1.000000000000000E+20
 25
-1.000000000000000E+20
 35
-1.000000000000000E+20
146
0.0
 13
0.0
 23
0.0
 33
0.0
 16
1.0
 26
0.0
 36
0.0
 17
0.0
 27
1.0
 37
0.0
 76
     0
330
15
  0
MLINESTYLE
  5
1C
102
{ACAD_REACTORS
330
1B
102
}
330
1B
100
AcDbMlineStyle
  2
STANDARD
 70
     0
  3

 62
   256
 51
90.0
 52
90.0
 71
     2
 49
0.5
 62
   256
  6
BYLAYER
 49
-0.5
 62
   256
  6
BYLAYER
  0
ACDBPLACEHOLDER
  5
71
102
{ACAD_REACTORS
330
70
102
}
330
70
  0
DICTIONARYVAR
  5
17C
102
{ACAD_REACTORS
330
17A
102
}
330
17A
100
DictionaryVariables
280
     0
  1
1
  0
DICTIONARYVAR
  5
17B
102
{ACAD_REACTORS
330
17A
102
}
330
17A
100
DictionaryVariables
280
     0
  1
1
  0
ACMDATADICTIONARY
  5
135
102
{ACAD_REACTORS
330
134
102
}
330
134
100
AcDbDictionary
281
     1
  3
*A1
350
136
100
AcmDataDictionary
  0
DICTIONARY
  5
143
102
{ACAD_REACTORS
330
134
102
}
330
134
100
AcDbDictionary
281
     1
  3
ANSI
350
144
  0
DICTIONARY
  5
7B
102
{ACAD_REACTORS
330
7A
102
}
330
7A
100
AcDbDictionary
281
     1
  3
DWGSETTINGS
350
7C
  3
TRANSSETTINGS
350
80
  0
ACAMGFILTERDAT
  5
182
102
{ACAD_REACTORS
330
17D
102
}
330
17D
100
AcAmgFilterDat
 70
    15
  1
DIMENSION,AMDT_*_DIM
  2
*
  3
*
  4
*
  5
*
290
     1
  0
ACAMGFILTERDAT
  5
181
102
{ACAD_REACTORS
330
17D
102
}
330
17D
100
AcAmgFilterDat
 70
    15
  1
*
  2
AM_FEA-AM_*
  3
*
  4
*
  5
*
290
     1
  0
ACAMGFILTERDAT
  5
17E
102
{ACAD_REACTORS
330
17D
102
}
330
17D
100
AcAmgFilterDat
 70
    15
  1
HATCH
  2
*
  3
*
  4
*
  5
*
290
     1
  0
ACAMGFILTERDAT
  5
17F
102
{ACAD_REACTORS
330
17D
102
}
330
17D
100
AcAmgFilterDat
 70
    15
  1
LINE
  2
8,8N,*-8,*-8N,AM_8,AM_8N,*-AM_8,*-AM_8N
  3
*
  4
*
  5
INSERT,STDPART2D
290
     1
  0
ACAMGFILTERDAT
  5
183
102
{ACAD_REACTORS
330
17D
102
}
330
17D
100
AcAmgFilterDat
 70
    15
  1
ARC
  2
AM_5
  3
*
  4
2
  5
INSERT
290
     0
  0
ACAMGFILTERDAT
  5
180
102
{ACAD_REACTORS
330
17D
102
}
330
17D
100
AcAmgFilterDat
 70
    15
  1
ACMFCFRAME,ACMDATUMTARGET,ACMDATUMID,ACMWELDSYM,ACMSURFSYM,ACMFEATID,ACMPARTREF,ACMBALLOON,AMDTEDGESYM,AMGSCREWCALCTABLE
  2
*
  3
*
  4
*
  5
*
290
     1
  0
LAYER_INDEX
  5
174
102
{ACAD_REACTORS
330
173
102
}
330
173
100
AcDbIndex
 40
2454697.72797743
100
AcDbLayerIndex
  8
0
360
175
 90
       13
  8
HALDER_NORMTEILE
360
176
 90
        0
  8
HALDER_NORMTEILE_MITTELLINIE
360
177
 90
        0
  8
HALDER_INFO
360
178
 90
        0
  8
1
360
236
 90
        3
  8
3
360
237
 90
       38
  8
DEFPOINTS
360
238
 90
        0
  0
ACMDATAENTRYBLOCK
  5
136
102
{ACAD_REACTORS
330
135
102
}
330
135
100
AcmDataEntry
100
AcmDataEntryBlock
  0
IDBUFFER
  5
175
330
0
100
AcDbIdBuffer
330
44B
330
479
330
42B
330
42C
330
42D
330
42E
330
432
330
436
330
437
330
438
330
43B
330
447
330
448
  0
IDBUFFER
  5
176
330
0
100
AcDbIdBuffer
  0
IDBUFFER
  5
177
330
0
100
AcDbIdBuffer
  0
IDBUFFER
  5
178
330
0
100
AcDbIdBuffer
  0
IDBUFFER
  5
236
330
0
100
AcDbIdBuffer
330
422
330
42F
330
433
  0
IDBUFFER
  5
237
330
0
100
AcDbIdBuffer
330
41E
330
41F
330
420
330
421
330
423
330
424
330
425
330
426
330
427
330
428
330
429
330
430
330
431
330
434
330
435
330
439
330
43A
330
43C
330
43D
330
43E
330
43F
330
440
330
441
330
442
330
443
330
444
330
445
330
446
330
449
330
44A
330
44C
330
44D
330
44E
330
44F
330
450
330
451
330
452
330
453
  0
IDBUFFER
  5
238
330
0
100
AcDbIdBuffer
  0
ENDSEC
  0
EOF
