  0
SECTION
  2
HEADER
  9
$ACADVER
  1
AC1015
  9
$ACADMAINTVER
 70
    13
  9
$DWGCODEPAGE
  3
ANSI_932
  9
$INSBASE
 10
0.0
 20
0.0
 30
0.0
  9
$EXTMIN
 10
-111.3871928873187
 20
-24.40749134317375
 30
0.0
  9
$EXTMAX
 10
55.86308620551532
 20
112.7647565504282
 30
0.0
  9
$LIMMIN
 10
-31.5
 20
-5.0
  9
$LIMMAX
 10
31.5
 20
45.0
  9
$ORTHOMODE
 70
     0
  9
$REGENMODE
 70
     1
  9
$FILLMODE
 70
     1
  9
$QTEXTMODE
 70
     0
  9
$MIRRTEXT
 70
     1
  9
$LTSCALE
 40
1.0
  9
$ATTMODE
 70
     1
  9
$TEXTSIZE
 40
3.5
  9
$TRACEWID
 40
0.5
  9
$TEXTSTYLE
  7
STANDARD
  9
$CLAYER
  8
0
  9
$CELTYPE
  6
BYLAYER
  9
$CECOLOR
 62
   256
  9
$CELTSCALE
 40
1.0
  9
$DISPSILH
 70
     0
  9
$DIMSCALE
 40
1.0
  9
$DIMASZ
 40
0.18
  9
$DIMEXO
 40
0.0625
  9
$DIMDLI
 40
0.38
  9
$DIMRND
 40
0.0
  9
$DIMDLE
 40
0.0
  9
$DIMEXE
 40
0.18
  9
$DIMTP
 40
0.0
  9
$DIMTM
 40
0.0
  9
$DIMTXT
 40
0.18
  9
$DIMCEN
 40
0.09
  9
$DIMTSZ
 40
0.0
  9
$DIMTOL
 70
     0
  9
$DIMLIM
 70
     0
  9
$DIMTIH
 70
     1
  9
$DIMTOH
 70
     1
  9
$DIMSE1
 70
     0
  9
$DIMSE2
 70
     0
  9
$DIMTAD
 70
     0
  9
$DIMZIN
 70
     0
  9
$DIMBLK
  1

  9
$DIMASO
 70
     1
  9
$DIMSHO
 70
     1
  9
$DIMPOST
  1

  9
$DIMAPOST
  1

  9
$DIMALT
 70
     0
  9
$DIMALTD
 70
     2
  9
$DIMALTF
 40
25.4
  9
$DIMLFAC
 40
1.0
  9
$DIMTOFL
 70
     0
  9
$DIMTVP
 40
0.0
  9
$DIMTIX
 70
     0
  9
$DIMSOXD
 70
     0
  9
$DIMSAH
 70
     0
  9
$DIMBLK1
  1

  9
$DIMBLK2
  1

  9
$DIMSTYLE
  2
STANDARD
  9
$DIMCLRD
 70
     0
  9
$DIMCLRE
 70
     0
  9
$DIMCLRT
 70
     0
  9
$DIMTFAC
 40
1.0
  9
$DIMGAP
 40
0.09
  9
$DIMJUST
 70
     0
  9
$DIMSD1
 70
     0
  9
$DIMSD2
 70
     0
  9
$DIMTOLJ
 70
     1
  9
$DIMTZIN
 70
     0
  9
$DIMALTZ
 70
     0
  9
$DIMALTTZ
 70
     0
  9
$DIMUPT
 70
     0
  9
$DIMDEC
 70
     4
  9
$DIMTDEC
 70
     4
  9
$DIMALTU
 70
     2
  9
$DIMALTTD
 70
     2
  9
$DIMTXSTY
  7
STANDARD
  9
$DIMAUNIT
 70
     0
  9
$DIMADEC
 70
     0
  9
$DIMALTRND
 40
0.0
  9
$DIMAZIN
 70
     0
  9
$DIMDSEP
 70
    46
  9
$DIMATFIT
 70
     3
  9
$DIMFRAC
 70
     0
  9
$DIMLDRBLK
  1

  9
$DIMLUNIT
 70
     2
  9
$DIMLWD
 70
    -2
  9
$DIMLWE
 70
    -2
  9
$DIMTMOVE
 70
     0
  9
$LUNITS
 70
     2
  9
$LUPREC
 70
     4
  9
$SKETCHINC
 40
0.1
  9
$FILLETRAD
 40
2.0
  9
$AUNITS
 70
     0
  9
$AUPREC
 70
     0
  9
$MENU
  1
ACAD
  9
$ELEVATION
 40
0.0
  9
$PELEVATION
 40
0.0
  9
$THICKNESS
 40
0.0
  9
$LIMCHECK
 70
     0
  9
$CHAMFERA
 40
0.0
  9
$CHAMFERB
 40
0.0
  9
$CHAMFERC
 40
0.0
  9
$CHAMFERD
 40
0.0
  9
$SKPOLY
 70
     0
  9
$TDCREATE
 40
2311940.850465301
  9
$TDUCREATE
 40
2311940.475465301
  9
$TDUPDATE
 40
2454697.724588206
  9
$TDUUPDATE
 40
2454697.349588206
  9
$TDINDWG
 40
0.0057998495
  9
$TDUSRTIMER
 40
0.0057998495
  9
$USRTIMER
 70
     1
  9
$ANGBASE
 50
0.0
  9
$ANGDIR
 70
     0
  9
$PDMODE
 70
     0
  9
$PDSIZE
 40
0.0
  9
$PLINEWID
 40
0.0
  9
$SPLFRAME
 70
     0
  9
$SPLINETYPE
 70
     6
  9
$SPLINESEGS
 70
     8
  9
$HANDSEED
  5
3CF
  9
$SURFTAB1
 70
     6
  9
$SURFTAB2
 70
     6
  9
$SURFTYPE
 70
     6
  9
$SURFU
 70
     6
  9
$SURFV
 70
     6
  9
$UCSBASE
  2

  9
$UCSNAME
  2

  9
$UCSORG
 10
0.0
 20
0.0
 30
0.0
  9
$UCSXDIR
 10
1.0
 20
0.0
 30
0.0
  9
$UCSYDIR
 10
0.0
 20
1.0
 30
0.0
  9
$UCSORTHOREF
  2

  9
$UCSORTHOVIEW
 70
     0
  9
$UCSORGTOP
 10
0.0
 20
0.0
 30
0.0
  9
$UCSORGBOTTOM
 10
0.0
 20
0.0
 30
0.0
  9
$UCSORGLEFT
 10
0.0
 20
0.0
 30
0.0
  9
$UCSORGRIGHT
 10
0.0
 20
0.0
 30
0.0
  9
$UCSORGFRONT
 10
0.0
 20
0.0
 30
0.0
  9
$UCSORGBACK
 10
0.0
 20
0.0
 30
0.0
  9
$PUCSBASE
  2

  9
$PUCSNAME
  2

  9
$PUCSORG
 10
0.0
 20
0.0
 30
0.0
  9
$PUCSXDIR
 10
1.0
 20
0.0
 30
0.0
  9
$PUCSYDIR
 10
0.0
 20
1.0
 30
0.0
  9
$PUCSORTHOREF
  2

  9
$PUCSORTHOVIEW
 70
     0
  9
$PUCSORGTOP
 10
0.0
 20
0.0
 30
0.0
  9
$PUCSORGBOTTOM
 10
0.0
 20
0.0
 30
0.0
  9
$PUCSORGLEFT
 10
0.0
 20
0.0
 30
0.0
  9
$PUCSORGRIGHT
 10
0.0
 20
0.0
 30
0.0
  9
$PUCSORGFRONT
 10
0.0
 20
0.0
 30
0.0
  9
$PUCSORGBACK
 10
0.0
 20
0.0
 30
0.0
  9
$USERI1
 70
     0
  9
$USERI2
 70
     0
  9
$USERI3
 70
     0
  9
$USERI4
 70
     0
  9
$USERI5
 70
     0
  9
$USERR1
 40
0.0
  9
$USERR2
 40
0.0
  9
$USERR3
 40
0.0
  9
$USERR4
 40
0.0
  9
$USERR5
 40
0.0
  9
$WORLDVIEW
 70
     1
  9
$SHADEDGE
 70
     3
  9
$SHADEDIF
 70
    70
  9
$TILEMODE
 70
     1
  9
$MAXACTVP
 70
    48
  9
$PINSBASE
 10
0.0
 20
0.0
 30
0.0
  9
$PLIMCHECK
 70
     0
  9
$PEXTMIN
 10
1.000000000000000E+20
 20
1.000000000000000E+20
 30
1.000000000000000E+20
  9
$PEXTMAX
 10
-1.000000000000000E+20
 20
-1.000000000000000E+20
 30
-1.000000000000000E+20
  9
$PLIMMIN
 10
0.0
 20
0.0
  9
$PLIMMAX
 10
12.0
 20
9.0
  9
$UNITMODE
 70
     0
  9
$VISRETAIN
 70
     1
  9
$PLINEGEN
 70
     0
  9
$PSLTSCALE
 70
     1
  9
$TREEDEPTH
 70
  3020
  9
$CMLSTYLE
  2
STANDARD
  9
$CMLJUST
 70
     0
  9
$CMLSCALE
 40
1.0
  9
$PROXYGRAPHICS
 70
     1
  9
$MEASUREMENT
 70
     0
  9
$CELWEIGHT
370
    -1
  9
$ENDCAPS
280
     0
  9
$JOINSTYLE
280
     0
  9
$LWDISPLAY
290
     0
  9
$INSUNITS
 70
     0
  9
$HYPERLINKBASE
  1

  9
$STYLESHEET
  1

  9
$XEDIT
290
     1
  9
$CEPSNTYPE
380
     0
  9
$PSTYLEMODE
290
     1
  9
$FINGERPRINTGUID
  2
{74BEC188-66F7-4CCC-A18D-03EE4744FA0B}
  9
$VERSIONGUID
  2
{290E4796-F665-485B-AE59-DC49BA15BEA7}
  9
$EXTNAMES
290
     1
  9
$PSVPSCALE
 40
0.0
  9
$OLESTARTUP
290
     0
  0
ENDSEC
  0
SECTION
  2
CLASSES
  0
CLASS
  1
ACDBDICTIONARYWDFLT
  2
AcDbDictionaryWithDefault
  3
AutoCAD 2000
 90
        0
280
     0
281
     0
  0
CLASS
  1
ACDBPLACEHOLDER
  2
AcDbPlaceHolder
  3
AutoCAD 2000
 90
        0
280
     0
281
     0
  0
CLASS
  1
LAYOUT
  2
AcDbLayout
  3
AutoCAD 2000
 90
        0
280
     0
281
     0
  0
CLASS
  1
AMGSETTINGSOBJ
  2
AmgSettingsObj
  3
"AcadM|Product Description: AutoCAD Mechanical 2000|Company: Autodesk"
 90
        0
280
     0
281
     0
  0
CLASS
  1
ACME_DOCUMENT
  2
AcMeDbDoc
  3
AcMeServices
 90
        0
280
     0
281
     0
  0
CLASS
  1
ACMESCOPE
  2
AcMeScope
  3
AcMeServices
 90
        0
280
     0
281
     0
  0
CLASS
  1
ACMECOMMANDHISTORY
  2
AcMeCommandHistory
  3
AcMeServices
 90
        0
280
     0
281
     0
  0
CLASS
  1
ACIMSYSVARMAN
  2
AcImSysVarManager
  3
AcMeServices
 90
        0
280
     0
281
     0
  0
CLASS
  1
ACIMREALSYSVAR
  2
AcImRealSysVar
  3
AcMeServices
 90
        0
280
     0
281
     0
  0
CLASS
  1
ACIMINTSYSVAR
  2
AcImIntSysVar
  3
AcMeServices
 90
        0
280
     0
281
     0
  0
CLASS
  1
ACMEDRAWINGMAN
  2
AcMeDrawingMan
  3
AcMeServices
 90
        0
280
     0
281
     0
  0
CLASS
  1
ACMEVIEW
  2
AcMeView
  3
AcMeServices
 90
        0
280
     0
281
     0
  0
CLASS
  1
ACDBENTITYCACHE
  2
AcMeEntityCache
  3
AcMeServices
 90
        0
280
     0
281
     0
  0
CLASS
  1
GSMANAGER
  2
AcMeGSManager
  3
AcMeServices
 90
        0
280
     0
281
     0
  0
CLASS
  1
AMDTINTERNALREACTOR
  2
AmdtInternalReactor
  3
AcMeServices
 90
        0
280
     0
281
     0
  0
CLASS
  1
ACMESTATEMGR
  2
AcMeStateMgr
  3
AcMeServices
 90
        0
280
     0
281
     0
  0
CLASS
  1
ACGREFMASTER
  2
AcGrefMaster
  3
AcAttribServices
 90
        0
280
     0
281
     0
  0
CLASS
  1
AM_DRAWING_MGR
  2
AcDmDwgMgr
  3
AcMechDwgViewMgmt
 90
        0
280
     0
281
     0
  0
CLASS
  1
AM_DWG_DOCUMENT
  2
AcDmDwgDocument
  3
AcMechDwgViewMgmt
 90
        0
280
     0
281
     0
  0
CLASS
  1
AM_DWG_SHEET
  2
AcDmSheet
  3
AcMechDwgViewMgmt
 90
        0
280
     0
281
     0
  0
CLASS
  1
AM_VIEWDIMPARMAP
  2
AcDmViewDimParMap
  3
AcMechDwgViewMgmt
 90
        0
280
     0
281
     0
  0
CLASS
  1
AM_DWGMGR_NAME
  2
AcDmDwgMgrName
  3
AcMechDwgViewMgmt
 90
        0
280
     0
281
     0
  0
CLASS
  1
ACME_DATABASE
  2
AcMeDbDatabase
  3
AcMeServices
 90
        0
280
     0
281
     0
  0
CLASS
  1
ACRFINSADJUSTERMGR
  2
AcRfInsAdjusterMgr
  3
AcMeServices
 90
        0
280
     0
281
     0
  0
CLASS
  1
ACGREFACADMASTER
  2
AcGrefacadMaster
  3
AcGrefServices
 90
        0
280
     0
281
     0
  0
CLASS
  1
AMDTMENUSTATEMGR
  2
AmdtMenuStateMgr
  3
McadcomServices
 90
        0
280
     0
281
     0
  0
CLASS
  1
AMDTMCOMMENUSTATE
  2
AmdtMcomMenuState
  3
McadcomServices
 90
        0
280
     0
281
     0
  0
CLASS
  1
AMIMASTER
  2
AmiMaster
  3
AmiServices
 90
        0
280
     0
281
     0
  0
CLASS
  1
ASAPP
  2
AcAsAppObject
  3
AutoSurfServices
 90
        0
280
     0
281
     0
  0
CLASS
  1
IM_STATIC_MAN
  2
AcImStaticVarManager
  3
AcMeServices
 90
        0
280
     0
281
     0
  0
CLASS
  1
ACIMSTRSYSVAR
  2
AcImStrSysVar
  3
AcMeServices
 90
        0
280
     0
281
     0
  0
CLASS
  1
ACIMDBLSTATICVAR
  2
AcImDblStaticVar
  3
AcMeServices
 90
        0
280
     0
281
     0
  0
CLASS
  1
ACIMSTRSTATICVAR
  2
AcImStrStaticVar
  3
AcMeServices
 90
        0
280
     0
281
     0
  0
CLASS
  1
ACIMINTSTATICVAR
  2
AcImIntStaticVar
  3
AcMeServices
 90
        0
280
     0
281
     0
  0
CLASS
  1
ACASGREFMASTER
  2
AcAsGrefMaster
  3
AutoSurfResolverServices
 90
        0
280
     0
281
     0
  0
CLASS
  1
ACADGREFMODULE
  2
AcAdGrefModule
  3
AdGrefServices
 90
        0
280
     0
281
     0
  0
CLASS
  1
AMDTMAPISURFMOUDULE
  2
AmdtMApiSurfModule
  3
MApiSurfServices
 90
        0
280
     0
281
     0
  0
CLASS
  1
MAPIAMMOUDLE
  2
MApiAmModule
  3
MApiAmServices
 90
        0
280
     0
281
     0
  0
CLASS
  1
AMDTADMENUSTATE
  2
AmdtAdMenuState
  3
DesignerServices
 90
        0
280
     0
281
     0
  0
CLASS
  1
ADAPPL
  2
AcAdAppl
  3
DesignerServices
 90
        0
280
     0
281
     0
  0
CLASS
  1
DEPMGR
  2
AcAdDepMgr
  3
DesignerServices
 90
        0
280
     0
281
     0
  0
CLASS
  1
PARAMMGR
  2
AcAdParamMgr
  3
DesignerServices
 90
        0
280
     0
281
     0
  0
CLASS
  1
PARAMSCOPE
  2
AcAdParamScope
  3
DesignerServices
 90
        0
280
     0
281
     0
  0
CLASS
  1
NAMEDAPPL
  2
AcAdNamedAppl
  3
DesignerServices
 90
        0
280
     0
281
     0
  0
CLASS
  1
AMDTDMMENUSTATE
  2
AmdtDmMenuState
  3
AcMechDwgViewMgmt
 90
        0
280
     0
281
     0
  0
CLASS
  1
MAPIADMODULE
  2
MApiAdModule
  3
MApiAdServices
 90
        0
280
     0
281
     0
  0
CLASS
  1
AMDTAMMENUSTATE
  2
AmdtAmMenuState
  3
DesignerAssemblies
 90
        0
280
     0
281
     0
  0
CLASS
  1
ACAMPROJECT
  2
AcAmProject
  3
DesignerAssemblies
 90
        0
280
     0
281
     0
  0
CLASS
  1
ACAMGRCOMPDEF
  2
AcAmGrCompDef
  3
DesignerAssemblies
 90
        0
280
     0
281
     0
  0
CLASS
  1
ACCMCONTEXT
  2
AcCmContext
  3
DesignerAssemblies
 90
        0
280
     0
281
     0
  0
CLASS
  1
ACAMCOMPDEF
  2
AcAmCompDef
  3
DesignerAssemblies
 90
        0
280
     0
281
     0
  0
CLASS
  1
ACAMCOMPDEFMGR
  2
AcAmCompDefMgr
  3
DesignerAssemblies
 90
        0
280
     0
281
     0
  0
CLASS
  1
AMCONTEXTMGR
  2
AcAmContextMgr
  3
DesignerAssemblies
 90
        0
280
     0
281
     0
  0
CLASS
  1
ACAMCONTEXTMODELER
  2
AcAmContextModeler
  3
DesignerAssemblies
 90
        0
280
     0
281
     0
  0
CLASS
  1
ACMDATADICTIONARY
  2
AcmDataDictionary
  3
"AcmSymBB|Product Description: AutoCAD Mechanical 2000|Company: Autodesk"
 90
        0
280
     0
281
     0
  0
CLASS
  1
ACMDATAENTRYBLOCK
  2
AcmDataEntryBlock
  3
"AcmSymBB|Product Description: AutoCAD Mechanical 2000|Company: Autodesk"
 90
        0
280
     0
281
     0
  0
CLASS
  1
CATALOGSTATE
  2
AcAmCatalogState
  3
DesignerAssemblies
 90
        0
280
     0
281
     0
  0
CLASS
  1
ACAMGRCOMPDEFSET
  2
AcAmGrCompDefSet
  3
DesignerAssemblies
 90
        0
280
     0
281
     0
  0
CLASS
  1
AMDTBROWSERDBTAB
  2
AmdtBrowserDbTab
  3
McadcomServices
 90
        0
280
     0
281
     0
  0
CLASS
  1
CBROWSERAPPOBJECT
  2
CBrowserAppObject
  3
McadcomServices
 90
        0
280
     0
281
     0
  0
CLASS
  1
DM_PLACEHOLDER
  2
AcDmSelsetPlaceholder
  3
AcMechDwgViewMgmt
 90
        0
280
     0
281
     0
  0
CLASS
  1
ACMSTANDARDANSI
  2
AcmStandardANSI
  3
"Amdt_StdImp|Product Description: AutoCAD Mechanical 2000|Company: Autodesk"
 90
        0
280
     0
281
     0
  0
CLASS
  1
AMGOBJPROPCFG
  2
AmgObjPropCfg
  3
"AmgLay|Product Description: AutoCAD Mechanical 2000|Company: Autodesk"
 90
        1
280
     0
281
     0
  0
CLASS
  1
ACMSURFSTANDARDANSI
  2
AcmSurfTextStdANSI
  3
"Amdt_StdImp|Product Description: AutoCAD Mechanical 2000|Company: Autodesk"
 90
        0
280
     0
281
     0
  0
CLASS
  1
ACMFCFSTANDARDANSI
  2
AcmFCFStdANSI
  3
"Amdt_StdImp|Product Description: AutoCAD Mechanical 2000|Company: Autodesk"
 90
        0
280
     0
281
     0
  0
CLASS
  1
ACMWELDSTANDARDANSI
  2
AcmWeldingStdANSI
  3
"Amdt_StdImp|Product Description: AutoCAD Mechanical 2000|Company: Autodesk"
 90
        0
280
     0
281
     0
  0
CLASS
  1
ACMIDSTANDARDANSI
  2
AcmIdStdANSI
  3
"Amdt_StdImp|Product Description: AutoCAD Mechanical 2000|Company: Autodesk"
 90
        0
280
     0
281
     0
  0
CLASS
  1
ACMDATUMSTANDARDANSI
  2
AcmDatumStdANSI
  3
"Amdt_StdImp|Product Description: AutoCAD Mechanical 2000|Company: Autodesk"
 90
        0
280
     0
281
     0
  0
CLASS
  1
ACMBOMSTANDARDANSI
  2
AcmBOMStdANSI
  3
"Amdt_StdImp|Product Description: AutoCAD Mechanical 2000|Company: Autodesk"
 90
        0
280
     0
281
     0
  0
CLASS
  1
ACMDETAILSTANDARDANSI
  2
AmdtDetailSymStdANSI
  3
"Amdt_StdImp|Product Description: AutoCAD Mechanical 2000|Company: Autodesk"
 90
        0
280
     0
281
     0
  0
CLASS
  1
ACMSECTIONSTANDARDANSI
  2
AmdtSectionSymStdANSI
  3
"Amdt_StdImp|Product Description: AutoCAD Mechanical 2000|Company: Autodesk"
 90
        0
280
     0
281
     0
  0
CLASS
  1
ACMCENTERLINESTANDARDANSI
  2
AmdtCenterLineStdANSI
  3
"Amdt_StdImp|Product Description: AutoCAD Mechanical 2000|Company: Autodesk"
 90
        0
280
     0
281
     0
  0
CLASS
  1
ACMTHREADLINESTANDARDANSI
  2
AmdtThreadLineStdANSI
  3
"Amdt_StdImp|Product Description: AutoCAD Mechanical 2000|Company: Autodesk"
 90
        0
280
     0
281
     0
  0
CLASS
  1
ACMNOTESTANDARDANSI
  2
AmdtNoteStdANSI
  3
"Amdt_StdImp|Product Description: AutoCAD Mechanical 2000|Company: Autodesk"
 90
        0
280
     0
281
     0
  0
CLASS
  1
ACAMGLAYSTD
  2
AcAmgLayStd
  3
"AcAmgLayStd|Product Description: AutoCAD Mechanical 2000|Company: Autodesk"
 90
        0
280
     0
281
     0
  0
CLASS
  1
ACAMGDIMSTD
  2
AcAmgDimStd
  3
"AcAmgDimStd|Product Description: AutoCAD Mechanical 2000|Company: Autodesk"
 90
        0
280
     0
281
     0
  0
CLASS
  1
ACAMGHOLECHARTSTDANSI
  2
AcAmgHoleChartStdANSI
  3
ACMSYMBB_MODULE_NAME
 90
        0
280
     0
281
     0
  0
CLASS
  1
ACAMGTITLESTD
  2
AcAmgTitleStd
  3
"TITLEAPP"
 90
        0
280
     0
281
     0
  0
CLASS
  1
LAYER_INDEX
  2
AcDbLayerIndex
  3
AutoCAD 2000
 90
        0
280
     0
281
     0
  0
CLASS
  1
IDBUFFER
  2
AcDbIdBuffer
  3
AutoCAD 2000
 90
        0
280
     0
281
     0
  0
CLASS
  1
DICTIONARYVAR
  2
AcDbDictionaryVar
  3
AutoCAD 2000
 90
        0
280
     0
281
     0
  0
CLASS
  1
ACAMGFILTERDAT
  2
AcAmgFilterDat
  3
"AcadM|Product Description: AutoCAD Mechanical 2000|Company: Autodesk"
 90
        0
280
     0
281
     0
  0
CLASS
  1
AMDTFORMULAUPDATEDISPATCHER
  2
AmdtFormulaUpdateDispatcher
  3
AcMeServices
 90
        0
280
     0
281
     0
  0
ENDSEC
  0
SECTION
  2
TABLES
  0
TABLE
  2
VPORT
  5
8
330
0
100
AcDbSymbolTable
 70
     5
  0
VPORT
  5
3CE
330
8
100
AcDbSymbolTableRecord
100
AcDbViewportTableRecord
  2
*Active
 70
     0
 10
0.0
 20
0.0
 11
1.0
 21
1.0
 12
0.0
 22
0.0
 13
0.0
 23
0.0
 14
1.0
 24
1.0
 15
0.0
 25
0.0
 16
0.0
 26
0.0
 36
1.0
 17
12.57731920754716
 27
20.0
 37
0.0
 40
200.0679613268866
 41
1.516981132075471
 42
50.0
 43
0.0
 44
0.0
 50
0.0
 51
0.0
 71
     0
 72
   100
 73
     1
 74
     1
 75
     0
 76
     0
 77
     0
 78
     0
281
     0
 65
     0
110
0.0
120
0.0
130
0.0
111
1.0
121
0.0
131
0.0
112
0.0
122
1.0
132
0.0
 79
     0
146
0.0
  0
ENDTAB
  0
TABLE
  2
LTYPE
  5
5
330
0
100
AcDbSymbolTable
 70
    25
  0
LTYPE
  5
12
330
5
100
AcDbSymbolTableRecord
100
AcDbLinetypeTableRecord
  2
BYBLOCK
 70
     0
  3

 72
    65
 73
     0
 40
0.0
  0
LTYPE
  5
13
330
5
100
AcDbSymbolTableRecord
100
AcDbLinetypeTableRecord
  2
BYLAYER
 70
     0
  3

 72
    65
 73
     0
 40
0.0
  0
LTYPE
  5
14
330
5
100
AcDbSymbolTableRecord
100
AcDbLinetypeTableRecord
  2
CONTINUOUS
 70
     0
  3
Solid line
 72
    65
 73
     0
 40
0.0
  0
LTYPE
  5
1F
330
5
100
AcDbSymbolTableRecord
100
AcDbLinetypeTableRecord
  2
BORDER
 70
     0
  3
__ __ . __ __ .
 72
    65
 73
     6
 40
2.901315999999999
 49
0.8289469999999999
 74
     0
 49
-0.414474
 74
     0
 49
0.8289469999999999
 74
     0
 49
-0.414474
 74
     0
 49
0.0
 74
     0
 49
-0.414474
 74
     0
  0
LTYPE
  5
20
330
5
100
AcDbSymbolTableRecord
100
AcDbLinetypeTableRecord
  2
CENTER
 70
     0
  3
____ _ ____ _
 72
    65
 73
     4
 40
3.315789
 49
2.072367999999999
 74
     0
 49
-0.414474
 74
     0
 49
0.414474
 74
     0
 49
-0.414474
 74
     0
  0
LTYPE
  5
21
330
5
100
AcDbSymbolTableRecord
100
AcDbLinetypeTableRecord
  2
DASHDOT
 70
     0
  3
__ . __ . __ .
 72
    65
 73
     4
 40
1.657895
 49
0.8289469999999999
 74
     0
 49
-0.414474
 74
     0
 49
0.0
 74
     0
 49
-0.414474
 74
     0
  0
LTYPE
  5
22
330
5
100
AcDbSymbolTableRecord
100
AcDbLinetypeTableRecord
  2
DASHED
 70
     0
  3
__ __ __ __ __
 72
    65
 73
     2
 40
1.243420999999999
 49
0.8289469999999999
 74
     0
 49
-0.414474
 74
     0
  0
LTYPE
  5
23
330
5
100
AcDbSymbolTableRecord
100
AcDbLinetypeTableRecord
  2
DIVIDE
 70
     0
  3
__ . . __ . . 
 72
    65
 73
     6
 40
2.072367999999999
 49
0.8289469999999999
 74
     0
 49
-0.414474
 74
     0
 49
0.0
 74
     0
 49
-0.414474
 74
     0
 49
0.0
 74
     0
 49
-0.414474
 74
     0
  0
LTYPE
  5
24
330
5
100
AcDbSymbolTableRecord
100
AcDbLinetypeTableRecord
  2
DOT
 70
     0
  3
..............
 72
    65
 73
     4
 40
0.8289469999999999
 49
0.0
 74
     0
 49
-0.414474
 74
     0
 49
0.0
 74
     0
 49
-0.414474
 74
     0
  0
LTYPE
  5
25
330
5
100
AcDbSymbolTableRecord
100
AcDbLinetypeTableRecord
  2
HIDDEN
 70
     0
  3
_ _ _ _ _ _ _
 72
    65
 73
     2
 40
0.621711
 49
0.414474
 74
     0
 49
-0.207237
 74
     0
  0
LTYPE
  5
26
330
5
100
AcDbSymbolTableRecord
100
AcDbLinetypeTableRecord
  2
PHANTOM
 70
     0
  3
_____ _ _ _____ _ _ 
 72
    65
 73
     6
 40
4.144737
 49
2.072367999999999
 74
     0
 49
-0.414474
 74
     0
 49
0.414474
 74
     0
 49
-0.414474
 74
     0
 49
0.414474
 74
     0
 49
-0.414474
 74
     0
  0
LTYPE
  5
9F
330
5
100
AcDbSymbolTableRecord
100
AcDbLinetypeTableRecord
  2
PHANTOM2
 70
     0
  3
Phantom (.5x) ___ _ _ ___ _ _ ___ _ _ ___ _ _
 72
    65
 73
     6
 40
1.25
 49
0.625
 74
     0
 49
-0.125
 74
     0
 49
0.125
 74
     0
 49
-0.125
 74
     0
 49
0.125
 74
     0
 49
-0.125
 74
     0
  0
LTYPE
  5
101
330
5
100
AcDbSymbolTableRecord
100
AcDbLinetypeTableRecord
  2
ASULTYPE
 70
     0
  3
実線
 72
    65
 73
     2
 40
3.0
 49
2.5
 74
     0
 49
0.5
 74
     0
  0
LTYPE
  5
102
330
5
100
AcDbSymbolTableRecord
100
AcDbLinetypeTableRecord
  2
ASVLTYPE
 70
     0
  3
__ __ __ __ __ __ __ __ __ __ __ __ __ __ __ __ __ __ __ __ __
 72
    65
 73
     2
 40
0.75
 49
0.5
 74
     0
 49
-0.25
 74
     0
  0
LTYPE
  5
146
330
5
100
AcDbSymbolTableRecord
100
AcDbLinetypeTableRecord
  2
AM_ISO02W050
 70
     0
  3
__ __ __ __ __ __ __ __ __ __ __ __ __ __ __
 72
    65
 73
     2
 40
7.5
 49
6.0
 74
     0
 49
-1.5
 74
     0
  0
LTYPE
  5
147
330
5
100
AcDbSymbolTableRecord
100
AcDbLinetypeTableRecord
  2
AM_ISO08W050
 70
     0
  3
____ . ____ . ____ . ____ . ____ . ____ . ____
 72
    65
 73
     4
 40
18.0
 49
12.0
 74
     0
 49
-1.5
 74
     0
 49
3.0
 74
     0
 49
-1.5
 74
     0
  0
LTYPE
  5
148
330
5
100
AcDbSymbolTableRecord
100
AcDbLinetypeTableRecord
  2
AM_ISO09W050
 70
     0
  3
_____ . . _____ . . _____ . . ____ .. ____
 72
    65
 73
     6
 40
22.5
 49
12.0
 74
     0
 49
-1.5
 74
     0
 49
3.0
 74
     0
 49
-1.5
 74
     0
 49
3.0
 74
     0
 49
-1.5
 74
     0
  0
LTYPE
  5
149
330
5
100
AcDbSymbolTableRecord
100
AcDbLinetypeTableRecord
  2
Amconstr
 70
     0
  3
_______________________
 72
    65
 73
     2
 40
9999.0
 49
9999.0
 74
     0
 49
0.0
 74
     0
  0
LTYPE
  5
14A
330
5
100
AcDbSymbolTableRecord
100
AcDbLinetypeTableRecord
  2
AM_ISO08W050x2
 70
     0
  3
__ . __ . __ . __ . __ . __
 72
    65
 73
     4
 40
9.0
 49
6.0
 74
     0
 49
-0.75
 74
     0
 49
1.5
 74
     0
 49
-0.75
 74
     0
  0
LTYPE
  5
14B
330
5
100
AcDbSymbolTableRecord
100
AcDbLinetypeTableRecord
  2
AM_ISO02W050x2
 70
     0
  3
 _ _ _ _ _ _ _ _ _ _ _ _
 72
    65
 73
     2
 40
3.75
 49
3.0
 74
     0
 49
-0.75
 74
     0
  0
LTYPE
  5
14E
330
5
100
AcDbSymbolTableRecord
100
AcDbLinetypeTableRecord
  2
Amzigzag
 70
     0
  3
/\/-/\/-/\/-/\/-/\/-/\/
 72
    65
 73
     2
 40
11.00009999999999
 49
0.0001
 74
     4
 75
   135
340
14D
 46
0.04
 50
0.0
 44
0.0
 45
0.0
 49
-11.0
 74
     0
  0
LTYPE
  5
14F
330
5
100
AcDbSymbolTableRecord
100
AcDbLinetypeTableRecord
  2
CENTER2
 70
     0
  3
Center (.5x) ___ _ ___ _ ___ _ ___ _ ___ _ ___
 72
    65
 73
     4
 40
1.125
 49
0.75
 74
     0
 49
-0.125
 74
     0
 49
0.125
 74
     0
 49
-0.125
 74
     0
  0
LTYPE
  5
150
330
5
100
AcDbSymbolTableRecord
100
AcDbLinetypeTableRecord
  2
HIDDEN2
 70
     0
  3
Hidden (.5x) _ _ _ _ _ _ _ _ _ _ _ _ _ _ _ _ _
 72
    65
 73
     2
 40
0.1875
 49
0.125
 74
     0
 49
-0.0625
 74
     0
  0
LTYPE
  5
151
330
5
100
AcDbSymbolTableRecord
100
AcDbLinetypeTableRecord
  2
Amzigzag2
 70
     0
  3
/\/-/\/-/\/-/\/-/\/-/\/
 72
    65
 73
     2
 40
0.4401
 49
0.0001
 74
     4
 75
   135
340
14D
 46
0.0016
 50
0.0
 44
0.0
 45
0.0
 49
-0.4400000000000001
 74
     0
  0
LTYPE
  5
15F
330
5
100
AcDbSymbolTableRecord
100
AcDbLinetypeTableRecord
  2
ACANSTGB
 70
     0
  3
__ . . __ . .
 72
    65
 73
     6
 40
0.35433070866
 49
0.15748031496
 74
     0
 49
-0.03937007874
 74
     0
 49
0.03937007874
 74
     0
 49
-0.03937007874
 74
     0
 49
0.03937007874
 74
     0
 49
-0.03937007874
 74
     0
  0
LTYPE
  5
160
330
5
100
AcDbSymbolTableRecord
100
AcDbLinetypeTableRecord
  2
ACANSTGL
 70
     0
  3
_ _ _ _ _
 72
    65
 73
     2
 40
0.11811023622
 49
0.07874015748
 74
     0
 49
-0.03937007874
 74
     0
  0
LTYPE
  5
195
330
5
100
AcDbSymbolTableRecord
100
AcDbLinetypeTableRecord
  2
ITTEN1
 70
     0
  3

 72
    65
 73
     4
 40
8.199999999999999
 49
5.0
 74
     0
 49
-1.0
 74
     0
 49
1.199999999999999
 74
     0
 49
-1.0
 74
     0
  0
ENDTAB
  0
TABLE
  2
LAYER
  5
2
330
0
100
AcDbSymbolTable
 70
     7
  0
LAYER
  5
E
330
2
100
AcDbSymbolTableRecord
100
AcDbLayerTableRecord
  2
0
 70
     0
 62
     7
  6
CONTINUOUS
370
    -3
390
71
  0
LAYER
  5
27
330
2
100
AcDbSymbolTableRecord
100
AcDbLayerTableRecord
  2
HALDER_NORMTEILE
 70
     0
 62
     7
  6
CONTINUOUS
370
    -3
390
71
  0
LAYER
  5
28
330
2
100
AcDbSymbolTableRecord
100
AcDbLayerTableRecord
  2
HALDER_NORMTEILE_MITTELLINIE
 70
     0
 62
     7
  6
CONTINUOUS
370
    -3
390
71
  0
LAYER
  5
29
330
2
100
AcDbSymbolTableRecord
100
AcDbLayerTableRecord
  2
HALDER_INFO
 70
     0
 62
     7
  6
CONTINUOUS
370
    -3
390
71
  0
LAYER
  5
196
330
2
100
AcDbSymbolTableRecord
100
AcDbLayerTableRecord
  2
1
 70
     0
 62
     1
  6
ITTEN1
370
    -3
390
71
  0
LAYER
  5
197
330
2
100
AcDbSymbolTableRecord
100
AcDbLayerTableRecord
  2
3
 70
     0
 62
     5
  6
CONTINUOUS
370
    50
390
71
  0
LAYER
  5
198
330
2
100
AcDbSymbolTableRecord
100
AcDbLayerTableRecord
  2
DEFPOINTS
 70
     0
 62
     7
  6
CONTINUOUS
290
     0
370
    -3
390
71
  0
ENDTAB
  0
TABLE
  2
STYLE
  5
3
330
0
100
AcDbSymbolTable
 70
     8
  0
STYLE
  5
F
330
3
100
AcDbSymbolTableRecord
100
AcDbTextStyleTableRecord
  2
STANDARD
 70
     0
 40
0.0
 41
1.0
 50
0.0
 71
     0
 42
3.5
  3
txt
  4

  0
STYLE
  5
2A
330
3
100
AcDbSymbolTableRecord
100
AcDbTextStyleTableRecord
  2
SIMPLEX
 70
     0
 40
0.0
 41
1.0
 50
0.0
 71
     0
 42
3.5
  3
simplex
  4

  0
STYLE
  5
2B
330
3
100
AcDbSymbolTableRecord
100
AcDbTextStyleTableRecord
  2
COMPLEX
 70
     0
 40
0.0
 41
1.0
 50
0.0
 71
     0
 42
3.5
  3
complex
  4

  0
STYLE
  5
2C
330
3
100
AcDbSymbolTableRecord
100
AcDbTextStyleTableRecord
  2
ITALIC
 70
     0
 40
0.0
 41
1.0
 50
0.0
 71
     0
 42
3.5
  3
italic
  4

  0
STYLE
  5
14D
330
3
100
AcDbSymbolTableRecord
100
AcDbTextStyleTableRecord
  2

 70
     1
 40
0.0
 41
1.0
 50
0.0
 71
     0
 42
3.5
  3
ltypeshp.shx
  4

  0
STYLE
  5
152
330
3
100
AcDbSymbolTableRecord
100
AcDbTextStyleTableRecord
  2
ACANSTS
 70
     0
 40
1.0
 41
1.0
 50
0.0
 71
     0
 42
3.5
  3
romans.shx
  4
extfont.shx
  0
STYLE
  5
15E
330
3
100
AcDbSymbolTableRecord
100
AcDbTextStyleTableRecord
  2
ACANSGDT
 70
     0
 40
0.0
 41
1.0
 50
0.0
 71
     0
 42
3.5
  3
amgdtans.shx
  4

  0
STYLE
  5
199
330
3
100
AcDbSymbolTableRecord
100
AcDbTextStyleTableRecord
  2
BIGFONT
 70
     0
 40
5.0
 41
0.6
 50
0.0
 71
     0
 42
5.0
  3
txt.shx
  4
bigfont.shx
  0
ENDTAB
  0
TABLE
  2
VIEW
  5
6
330
0
100
AcDbSymbolTable
 70
     0
  0
ENDTAB
  0
TABLE
  2
UCS
  5
7
330
0
100
AcDbSymbolTable
 70
     0
  0
ENDTAB
  0
TABLE
  2
APPID
  5
9
330
0
100
AcDbSymbolTable
 70
    13
  0
APPID
  5
10
330
9
100
AcDbSymbolTableRecord
100
AcDbRegAppTableRecord
  2
ACAD
 70
     0
  0
APPID
  5
7D
330
9
100
AcDbSymbolTableRecord
100
AcDbRegAppTableRecord
  2
GENIUS_GENDIM_13
 70
     0
  0
APPID
  5
7E
330
9
100
AcDbSymbolTableRecord
100
AcDbRegAppTableRecord
  2
GENIUS_GENDTOL_13
 70
     0
  0
APPID
  5
7F
330
9
100
AcDbSymbolTableRecord
100
AcDbRegAppTableRecord
  2
GENIUS_GE3DTOL_13
 70
     0
  0
APPID
  5
82
330
9
100
AcDbSymbolTableRecord
100
AcDbRegAppTableRecord
  2
MCAD_NO_VIS
 70
     0
  0
APPID
  5
83
330
9
100
AcDbSymbolTableRecord
100
AcDbRegAppTableRecord
  2
ACAD_TEMP_GRAPHIC
 70
     0
  0
APPID
  5
B4
330
9
100
AcDbSymbolTableRecord
100
AcDbRegAppTableRecord
  2
AD_DRAW
 70
     0
  0
APPID
  5
B7
330
9
100
AcDbSymbolTableRecord
100
AcDbRegAppTableRecord
  2
ACATTRIBSERVICES
 70
     0
  0
APPID
  5
103
330
9
100
AcDbSymbolTableRecord
100
AcDbRegAppTableRecord
  2
ASURF_PCURVE_APPNAME
 70
     0
  0
APPID
  5
108
330
9
100
AcDbSymbolTableRecord
100
AcDbRegAppTableRecord
  2
AMG_3D2D_5.0
 70
     0
  0
APPID
  5
133
330
9
100
AcDbSymbolTableRecord
100
AcDbRegAppTableRecord
  2
DESIGNERASSEMBLIES
 70
     0
  0
APPID
  5
13B
330
9
100
AcDbSymbolTableRecord
100
AcDbRegAppTableRecord
  2
ACADM_DIM_EDIT
 70
     0
  0
APPID
  5
13C
330
9
100
AcDbSymbolTableRecord
100
AcDbRegAppTableRecord
  2
AMDT_DM_ADJ
 70
     0
  0
ENDTAB
  0
TABLE
  2
DIMSTYLE
  5
A
330
0
100
AcDbSymbolTable
 70
     7
100
AcDbDimStyleTable
 71
     0
  0
DIMSTYLE
105
52
330
A
100
AcDbSymbolTableRecord
100
AcDbDimStyleTableRecord
  2
STANDARD
 70
     0
340
F
  0
DIMSTYLE
105
165
330
A
100
AcDbSymbolTableRecord
100
AcDbDimStyleTableRecord
  2
AM_ANSI
 70
     0
  4
mm
 41
0.1
 42
0.05
 43
0.5
 44
0.1
 47
0.1
 48
0.1
 78
     7
 79
     2
140
0.12
141
0.0
146
0.71
147
0.06
176
   256
177
   256
178
     2
274
     4
284
     7
340
F
371
    -1
372
    -1
  0
DIMSTYLE
105
166
330
A
100
AcDbSymbolTableRecord
100
AcDbDimStyleTableRecord
  2
AM_ANSI$3
 70
     0
  4
mm
 41
0.1
 42
0.05
 43
0.5
 44
0.1
 47
0.1
 48
0.1
 78
     7
 79
     2
140
0.12
141
0.0
146
0.71
147
0.06
176
   256
177
   256
178
     2
274
     4
284
     7
288
     1
289
     0
340
F
371
    -1
372
    -1
  0
DIMSTYLE
105
167
330
A
100
AcDbSymbolTableRecord
100
AcDbDimStyleTableRecord
  2
AM_ANSI$4
 70
     0
  4
mm
 41
0.1
 42
0.05
 43
0.5
 44
0.1
 47
0.1
 48
0.1
 78
     7
 79
     2
140
0.12
141
0.0
146
0.71
147
0.06
176
   256
177
   256
178
     2
274
     4
284
     7
288
     1
289
     0
340
F
371
    -1
372
    -1
  0
DIMSTYLE
105
168
330
A
100
AcDbSymbolTableRecord
100
AcDbDimStyleTableRecord
  2
AM_ANSI$7
 70
     0
  4
mm
 41
0.1
 42
0.05
 43
0.5
 44
0.1
 47
0.1
 48
0.1
 78
     7
 79
     2
140
0.24
141
0.0
146
0.71
147
0.06
176
   256
177
   256
178
     2
274
     4
284
     7
340
F
371
    -1
372
    -1
  0
DIMSTYLE
105
169
330
A
100
AcDbSymbolTableRecord
100
AcDbDimStyleTableRecord
  2
AM_ANSI$SF
 70
     0
  4
mm
 41
0.1
 42
0.05
 43
0.5
 44
0.1
 47
0.1
 48
0.1
 75
     1
 76
     1
 78
     7
 79
     2
140
0.12
141
0.0
146
0.71
147
0.06
176
   256
177
   256
178
     2
274
     4
284
     7
340
F
371
    -1
372
    -1
  0
DIMSTYLE
105
16E
330
A
100
AcDbSymbolTableRecord
100
AcDbDimStyleTableRecord
  2
AM_ANSI$SH
 70
     0
  4
mm
 41
0.1
 42
0.05
 43
0.5
 44
0.1
 47
0.1
 48
0.1
 75
     1
 76
     1
 78
     7
 79
     2
140
0.12
141
0.0
146
0.71
147
0.06
173
     1
176
   256
177
   256
178
     2
274
     4
284
     7
340
F
343
16A
371
    -1
372
    -1
  0
ENDTAB
  0
TABLE
  2
BLOCK_RECORD
  5
1
330
0
100
AcDbSymbolTable
 70
     9
  0
BLOCK_RECORD
  5
18
102
{ACAD_XDICTIONARY
360
172
102
}
330
1
100
AcDbSymbolTableRecord
100
AcDbBlockTableRecord
  2
*MODEL_SPACE
340
74
  0
BLOCK_RECORD
  5
15
330
1
100
AcDbSymbolTableRecord
100
AcDbBlockTableRecord
  2
*PAPER_SPACE
340
75
  0
BLOCK_RECORD
  5
53
330
1
100
AcDbSymbolTableRecord
100
AcDbBlockTableRecord
  2
A$C65FD32EE
340
0
  0
BLOCK_RECORD
  5
12A
330
1
100
AcDbSymbolTableRecord
100
AcDbBlockTableRecord
  2
*U1
340
0
  0
BLOCK_RECORD
  5
16A
330
1
100
AcDbSymbolTableRecord
100
AcDbBlockTableRecord
  2
GENAXEH
340
0
  0
BLOCK_RECORD
  5
186
330
1
100
AcDbSymbolTableRecord
100
AcDbBlockTableRecord
  2
_None
340
0
  0
BLOCK_RECORD
  5
327
330
1
100
AcDbSymbolTableRecord
100
AcDbBlockTableRecord
  2
*D6
340
0
  0
BLOCK_RECORD
  5
3AB
330
1
100
AcDbSymbolTableRecord
100
AcDbBlockTableRecord
  2
*D8
340
0
  0
ENDTAB
  0
ENDSEC
  0
SECTION
  2
BLOCKS
  0
BLOCK
  5
19
330
18
100
AcDbEntity
  8
0
100
AcDbBlockBegin
  2
*MODEL_SPACE
 70
     0
 10
0.0
 20
0.0
 30
0.0
  3
*MODEL_SPACE
  1

  0
ENDBLK
  5
1A
330
18
100
AcDbEntity
  8
0
100
AcDbBlockEnd
  0
BLOCK
  5
16
330
15
100
AcDbEntity
 67
     1
  8
0
100
AcDbBlockBegin
  2
*PAPER_SPACE
 70
     0
 10
0.0
 20
0.0
 30
0.0
  3
*PAPER_SPACE
  1

  0
ENDBLK
  5
17
330
15
100
AcDbEntity
 67
     1
  8
0
100
AcDbBlockEnd
  0
BLOCK
  5
6A
330
53
100
AcDbEntity
  8
0
100
AcDbBlockBegin
  2
A$C65FD32EE
 70
     0
 10
0.0
 20
0.0
 30
0.0
  3
A$C65FD32EE
  1

  0
CIRCLE
  5
54
330
53
100
AcDbEntity
  8
HALDER_NORMTEILE
  6
DASHED
 62
     3
100
AcDbCircle
 10
36.5
 20
36.5
 30
0.0
 40
15.0
  0
CIRCLE
  5
55
330
53
100
AcDbEntity
  8
HALDER_NORMTEILE
  6
DASHED
 62
     3
100
AcDbCircle
 10
36.5
 20
36.5
 30
0.0
 40
4.25
  0
CIRCLE
  5
56
330
53
100
AcDbEntity
  8
HALDER_NORMTEILE
  6
DASHED
 62
     3
100
AcDbCircle
 10
36.5
 20
36.5
 30
0.0
 40
12.5
  0
ARC
  5
57
330
53
100
AcDbEntity
  8
HALDER_NORMTEILE
 62
     7
100
AcDbCircle
 10
36.5
 20
63.0
 30
0.0
 40
5.0
100
AcDbArc
 50
358.8872839999999
 51
90.0
  0
ARC
  5
58
330
53
100
AcDbEntity
  8
HALDER_NORMTEILE
 62
     7
100
AcDbCircle
 10
36.5
 20
10.0
 30
0.0
 40
5.0
100
AcDbArc
 50
270.0
 51
1.112716
  0
ARC
  5
59
330
53
100
AcDbEntity
  8
HALDER_NORMTEILE
  6
DASHED
 62
     3
100
AcDbCircle
 10
36.5
 20
36.5
 30
0.0
 40
5.0
100
AcDbArc
 50
170.0
 51
100.0
  0
LINE
  5
5A
330
53
100
AcDbEntity
  8
HALDER_NORMTEILE_MITTELLINIE
  6
DASHDOT
 62
     2
100
AcDbLine
 10
0.0
 20
36.5
 30
0.0
 11
73.0
 21
36.5
 31
0.0
  0
ARC
  5
5B
330
53
100
AcDbEntity
  8
HALDER_NORMTEILE
 62
     7
100
AcDbCircle
 10
10.0
 20
36.5
 30
0.0
 40
5.0
100
AcDbArc
 50
88.88728399999999
 51
180.0
  0
LINE
  5
5C
330
53
100
AcDbEntity
  8
HALDER_NORMTEILE_MITTELLINIE
  6
DASHDOT
 62
     2
100
AcDbLine
 10
36.5
 20
0.0
 30
0.0
 11
36.5
 21
73.0
 31
0.0
  0
ARC
  5
5D
330
53
100
AcDbEntity
  8
HALDER_NORMTEILE
 62
     7
100
AcDbCircle
 10
10.504903
 20
10.504903
 30
0.0
 40
21.0
100
AcDbArc
 50
45.0
 51
91.112716
  0
ARC
  5
5E
330
53
100
AcDbEntity
  8
HALDER_NORMTEILE
 62
     7
100
AcDbCircle
 10
10.0
 20
36.5
 30
0.0
 40
5.0
100
AcDbArc
 50
180.0
 51
271.112716
  0
ARC
  5
5F
330
53
100
AcDbEntity
  8
HALDER_NORMTEILE
 62
     7
100
AcDbCircle
 10
10.504903
 20
10.504903
 30
0.0
 40
21.0
100
AcDbArc
 50
358.8872839999999
 51
45.0
  0
ARC
  5
60
330
53
100
AcDbEntity
  8
HALDER_NORMTEILE
 62
     7
100
AcDbCircle
 10
36.5
 20
10.0
 30
0.0
 40
5.0
100
AcDbArc
 50
178.887284
 51
270.0
  0
ARC
  5
61
330
53
100
AcDbEntity
  8
HALDER_NORMTEILE
 62
     7
100
AcDbCircle
 10
10.504903
 20
62.49509699999999
 30
0.0
 40
21.0
100
AcDbArc
 50
268.8872839999999
 51
315.0
  0
ARC
  5
62
330
53
100
AcDbEntity
  8
HALDER_NORMTEILE
 62
     7
100
AcDbCircle
 10
10.504903
 20
62.49509699999999
 30
0.0
 40
21.0
100
AcDbArc
 50
315.0
 51
1.112716
  0
ARC
  5
63
330
53
100
AcDbEntity
  8
HALDER_NORMTEILE
 62
     7
100
AcDbCircle
 10
36.5
 20
63.0
 30
0.0
 40
5.0
100
AcDbArc
 50
90.0
 51
181.1127159999999
  0
ARC
  5
64
330
53
100
AcDbEntity
  8
HALDER_NORMTEILE
 62
     7
100
AcDbCircle
 10
63.0
 20
36.5
 30
0.0
 40
5.0
100
AcDbArc
 50
0.0
 51
91.112716
  0
ARC
  5
65
330
53
100
AcDbEntity
  8
HALDER_NORMTEILE
 62
     7
100
AcDbCircle
 10
62.49509699999999
 20
10.504903
 30
0.0
 40
21.0
100
AcDbArc
 50
88.88728399999999
 51
135.0
  0
ARC
  5
66
330
53
100
AcDbEntity
  8
HALDER_NORMTEILE
 62
     7
100
AcDbCircle
 10
62.49509699999999
 20
10.504903
 30
0.0
 40
21.0
100
AcDbArc
 50
135.0
 51
181.1127159999999
  0
ARC
  5
67
330
53
100
AcDbEntity
  8
HALDER_NORMTEILE
 62
     7
100
AcDbCircle
 10
63.0
 20
36.5
 30
0.0
 40
5.0
100
AcDbArc
 50
268.8872839999999
 51
0.0
  0
ARC
  5
68
330
53
100
AcDbEntity
  8
HALDER_NORMTEILE
 62
     7
100
AcDbCircle
 10
62.49509699999999
 20
62.49509699999999
 30
0.0
 40
21.0
100
AcDbArc
 50
225.0
 51
271.112716
  0
ARC
  5
69
330
53
100
AcDbEntity
  8
HALDER_NORMTEILE
 62
     7
100
AcDbCircle
 10
62.49509699999999
 20
62.49509699999999
 30
0.0
 40
21.0
100
AcDbArc
 50
178.887284
 51
225.0
  0
ENDBLK
  5
6B
330
53
100
AcDbEntity
  8
0
100
AcDbBlockEnd
  0
BLOCK
  5
12B
330
12A
100
AcDbEntity
  8
0
100
AcDbBlockBegin
  2
*U1
 70
     1
 10
0.0
 20
0.0
 30
0.0
  3
*U1
  1

  0
ENDBLK
  5
12C
330
12A
100
AcDbEntity
  8
0
100
AcDbBlockEnd
  0
BLOCK
  5
16C
330
16A
100
AcDbEntity
  8
0
100
AcDbBlockBegin
  2
GENAXEH
 70
     0
 10
0.0
 20
0.0
 30
0.0
  3
GENAXEH
  1

  0
LINE
  5
16B
330
16A
100
AcDbEntity
  8
0
100
AcDbLine
 10
-1.0
 20
0.0
 30
0.0
 11
1.0
 21
0.0
 31
0.0
  0
ENDBLK
  5
16D
330
16A
100
AcDbEntity
  8
0
100
AcDbBlockEnd
  0
BLOCK
  5
187
330
186
100
AcDbEntity
  8
0
100
AcDbBlockBegin
  2
_None
 70
     0
 10
0.0
 20
0.0
 30
0.0
  3
_None
  1

  0
ENDBLK
  5
188
330
186
100
AcDbEntity
  8
0
100
AcDbBlockEnd
  0
BLOCK
  5
332
330
327
100
AcDbEntity
  8
0
100
AcDbBlockBegin
  2
*D6
 70
     1
 10
0.0
 20
0.0
 30
0.0
  3
*D6
  1

  0
LINE
  5
328
330
327
100
AcDbEntity
  8
0
 62
     0
370
    -2
100
AcDbLine
 10
164.9734407275984
 20
159.186785421447
 30
0.0
 11
130.5641860554389
 21
159.186785421447
 31
0.0
  0
LINE
  5
329
330
327
100
AcDbEntity
  8
0
 62
     0
370
    -2
100
AcDbLine
 10
164.9734407275984
 20
119.1867854214469
 30
0.0
 11
130.5641860554389
 21
119.186785421447
 31
0.0
  0
LINE
  5
32A
330
327
100
AcDbEntity
  8
0
 62
     0
370
    -2
100
AcDbLine
 10
131.0641860554389
 20
157.186785421447
 30
0.0
 11
131.0641860554389
 21
144.3567227379335
 31
0.0
  0
LINE
  5
32B
330
327
100
AcDbEntity
  8
0
 62
     0
370
    -2
100
AcDbLine
 10
131.0641860554389
 20
121.186785421447
 30
0.0
 11
131.0641860554389
 21
138.3567227379335
 31
0.0
  0
SOLID
  5
32C
330
327
100
AcDbEntity
  8
0
 62
     0
100
AcDbTrace
 10
130.7308527221056
 20
157.186785421447
 30
0.0
 11
131.3975193887722
 21
157.186785421447
 31
0.0
 12
131.0641860554389
 22
159.186785421447
 32
0.0
 13
131.0641860554389
 23
159.186785421447
 33
0.0
  0
SOLID
  5
32D
330
327
100
AcDbEntity
  8
0
 62
     0
100
AcDbTrace
 10
130.7308527221056
 20
121.186785421447
 30
0.0
 11
131.3975193887722
 21
121.186785421447
 31
0.0
 12
131.0641860554389
 22
119.186785421447
 32
0.0
 13
131.0641860554389
 23
119.186785421447
 33
0.0
  0
MTEXT
  5
32E
330
327
100
AcDbEntity
  8
0
 62
     0
100
AcDbMText
 10
131.0641860554389
 20
141.3567227379335
 30
0.0
 40
4.0
 41
0.0
 71
     5
 72
     1
  1
\A2;40\P
 11
0.0000000000000001
 21
1.0
 31
0.0
 73
     1
 44
1.0
  0
POINT
  5
32F
330
327
100
AcDbEntity
  8
DEFPOINTS
 62
     0
100
AcDbPoint
 10
165.4734407275984
 20
159.186785421447
 30
0.0
  0
POINT
  5
330
330
327
100
AcDbEntity
  8
DEFPOINTS
 62
     0
100
AcDbPoint
 10
165.4734407275984
 20
119.1867854214469
 30
0.0
  0
POINT
  5
331
330
327
100
AcDbEntity
  8
DEFPOINTS
 62
     0
100
AcDbPoint
 10
131.0641860554389
 20
119.186785421447
 30
0.0
  0
ENDBLK
  5
333
330
327
100
AcDbEntity
  8
0
100
AcDbBlockEnd
  0
BLOCK
  5
3B6
330
3AB
100
AcDbEntity
  8
0
100
AcDbBlockBegin
  2
*D8
 70
     1
 10
0.0
 20
0.0
 30
0.0
  3
*D8
  1

  0
LINE
  5
3C2
330
3AB
100
AcDbEntity
  8
0
 62
     0
370
    -2
100
AcDbLine
 10
-3.817762971236049
 20
33.34205020750355
 30
0.0
 11
-38.22701764339555
 21
33.34205020750355
 31
0.0
  0
LINE
  5
3C3
330
3AB
100
AcDbEntity
  8
0
 62
     0
370
    -2
100
AcDbLine
 10
-3.817762971236049
 20
-6.657949792496509
 30
0.0
 11
-38.22701764339555
 21
-6.657949792496499
 31
0.0
  0
LINE
  5
3C4
330
3AB
100
AcDbEntity
  8
0
 62
     0
370
    -2
100
AcDbLine
 10
-37.72701764339554
 20
31.34205020750355
 30
0.0
 11
-37.72701764339554
 21
18.51198752399006
 31
0.0
  0
LINE
  5
3C5
330
3AB
100
AcDbEntity
  8
0
 62
     0
370
    -2
100
AcDbLine
 10
-37.72701764339555
 20
-4.6579497924965
 30
0.0
 11
-37.72701764339555
 21
12.51198752399006
 31
0.0
  0
SOLID
  5
3C6
330
3AB
100
AcDbEntity
  8
0
 62
     0
100
AcDbTrace
 10
-38.06035097672888
 20
31.34205020750355
 30
0.0
 11
-37.39368431006221
 21
31.34205020750355
 31
0.0
 12
-37.72701764339554
 22
33.34205020750355
 32
0.0
 13
-37.72701764339554
 23
33.34205020750355
 33
0.0
  0
SOLID
  5
3C7
330
3AB
100
AcDbEntity
  8
0
 62
     0
100
AcDbTrace
 10
-38.06035097672889
 20
-4.657949792496499
 30
0.0
 11
-37.39368431006222
 21
-4.6579497924965
 31
0.0
 12
-37.72701764339555
 22
-6.6579497924965
 32
0.0
 13
-37.72701764339555
 23
-6.6579497924965
 33
0.0
  0
MTEXT
  5
3C8
330
3AB
100
AcDbEntity
  8
0
 62
     0
100
AcDbMText
 10
-37.72701764339555
 20
15.51198752399005
 30
0.0
 40
4.0
 41
0.0
 71
     5
 72
     1
  1
\A2;40\P
 11
0.0000000000000001
 21
1.0
 31
0.0
 73
     1
 44
1.0
  0
POINT
  5
3C9
330
3AB
100
AcDbEntity
  8
DEFPOINTS
 62
     0
100
AcDbPoint
 10
-3.317762971236049
 20
33.34205020750355
 30
0.0
  0
POINT
  5
3CA
330
3AB
100
AcDbEntity
  8
DEFPOINTS
 62
     0
100
AcDbPoint
 10
-3.317762971236049
 20
-6.657949792496509
 30
0.0
  0
POINT
  5
3CB
330
3AB
100
AcDbEntity
  8
DEFPOINTS
 62
     0
100
AcDbPoint
 10
-37.72701764339555
 20
-6.6579497924965
 30
0.0
  0
ENDBLK
  5
3B7
330
3AB
100
AcDbEntity
  8
0
100
AcDbBlockEnd
  0
ENDSEC
  0
SECTION
  2
ENTITIES
  0
LINE
  5
372
330
18
100
AcDbEntity
  8
3
100
AcDbLine
 10
-17.3471762873828
 20
-2.327058395867879
 30
0.0
 11
-17.34717628738281
 21
-17.32705839586787
 31
0.0
  0
LINE
  5
373
330
18
100
AcDbEntity
  8
3
100
AcDbLine
 10
-10.3471762873828
 20
-2.327058395867881
 30
0.0
 11
-10.34717628738281
 21
-17.32705839586787
 31
0.0
  0
LINE
  5
374
330
18
100
AcDbEntity
  8
3
100
AcDbLine
 10
-17.8471762873828
 20
-2.327058395867879
 30
0.0
 11
-17.84717628738281
 21
-17.32705839586787
 31
0.0
  0
LINE
  5
375
330
18
100
AcDbEntity
  8
3
100
AcDbLine
 10
-9.847176287382811
 20
-17.32705839586787
 30
0.0
 11
-9.847176287382808
 21
-2.327058395867881
 31
0.0
  0
ARC
  5
376
330
18
100
AcDbEntity
  8
3
100
AcDbCircle
 10
-2.34717628738281
 20
-8.327058395868053
 30
0.0
 40
4.0
100
AcDbArc
 50
90.00000000000323
 51
180.0
  0
ARC
  5
377
330
18
100
AcDbEntity
  8
3
100
AcDbCircle
 10
-25.34717628738281
 20
-8.32705839586805
 30
0.0
 40
4.0
100
AcDbArc
 50
0.0
 51
89.99999999999673
  0
LINE
  5
378
330
18
100
AcDbEntity
  8
1
100
AcDbLine
 10
-13.8471762873828
 20
13.34205020750351
 30
0.0
 11
-13.84717628738281
 21
-24.40749134317374
 31
0.0
  0
LINE
  5
379
330
18
100
AcDbEntity
  8
1
100
AcDbLine
 10
-38.84717628738279
 20
85.88206680743949
 30
0.0
 11
11.15282371261723
 21
85.88206680743949
 31
0.0
  0
ARC
  5
37A
330
18
100
AcDbEntity
  8
3
100
AcDbCircle
 10
-17.44223980760375
 20
-26.24433607509465
 30
0.0
 40
35.0
100
AcDbArc
 50
93.94003915649989
 51
114.7654284714439
  0
LINE
  5
37B
330
18
100
AcDbEntity
  8
3
100
AcDbLine
 10
-25.34717628738281
 20
-4.32705839586805
 30
0.0
 11
-31.19770003008507
 21
-3.638761484961801
 31
0.0
  0
ARC
  5
37C
330
18
100
AcDbEntity
  8
0
100
AcDbCircle
 10
-31.82058407800535
 20
67.90866001681681
 30
0.0
 40
16.74000000000003
100
AcDbArc
 50
3.183270491805655
 51
86.98341110913267
  0
ARC
  5
37D
330
18
100
AcDbEntity
  8
0
100
AcDbCircle
 10
-31.82058407800535
 20
103.8554735980621
 30
0.0
 40
16.74000000000003
100
AcDbArc
 50
273.0165888908672
 51
356.8167295081943
  0
ARC
  5
37F
330
18
100
AcDbEntity
  8
3
100
AcDbCircle
 10
-32.84102827470346
 20
66.88821482011881
 30
0.0
 40
16.56136308217606
100
AcDbArc
 50
5.175172228279708
 51
84.82482777172021
  0
ARC
  5
380
330
18
100
AcDbEntity
  8
3
100
AcDbCircle
 10
-32.84102827470342
 20
104.8759187947601
 30
0.0
 40
16.56136308217606
100
AcDbArc
 50
275.1751722282798
 51
354.8248277717202
  0
ARC
  5
381
330
18
100
AcDbEntity
  8
0
100
AcDbCircle
 10
-30.84717628738278
 20
85.88206680743954
 30
0.0
 40
1.260000000000038
100
AcDbArc
 50
180.0000000000024
 51
265.7916246105834
  0
ARC
  5
382
330
18
100
AcDbEntity
  8
3
100
AcDbCircle
 10
-31.34717628738278
 20
85.88206680743949
 30
0.0
 40
2.5
100
AcDbArc
 50
180.0
 51
270.0
  0
ARC
  5
383
330
18
100
AcDbEntity
  8
0
100
AcDbCircle
 10
-30.84717628738278
 20
85.88206680743942
 30
0.0
 40
1.260000000000038
100
AcDbArc
 50
94.20837538941652
 51
179.9999999999975
  0
ARC
  5
384
330
18
100
AcDbEntity
  8
3
100
AcDbCircle
 10
-31.34717628738279
 20
85.88206680743949
 30
0.0
 40
2.5
100
AcDbArc
 50
89.99999999999673
 51
180.0
  0
LINE
  5
385
330
18
100
AcDbEntity
  8
3
100
AcDbLine
 10
-33.84717628738282
 20
-0.6593096719931815
 30
0.0
 11
-33.84717628738283
 21
2.812636891356763
 31
0.0
  0
ARC
  5
386
330
18
100
AcDbEntity
  8
3
100
AcDbCircle
 10
-30.84717628738282
 20
2.812636891356763
 30
0.0
 40
3.0
100
AcDbArc
 50
114.7654284714439
 51
180.0
  0
ARC
  5
387
330
18
100
AcDbEntity
  8
3
100
AcDbCircle
 10
-30.84717628738282
 20
-0.6593096719931833
 30
0.0
 40
3.0
100
AcDbArc
 50
180.0
 51
263.2901631922417
  0
LINE
  5
388
330
18
100
AcDbEntity
  8
1
100
AcDbLine
 10
-13.84717628738278
 20
110.8820668074394
 30
0.0
 11
-13.84717628738279
 21
60.88206680743948
 31
0.0
  0
ARC
  5
389
330
18
100
AcDbEntity
  8
0
100
AcDbCircle
 10
4.126231503239742
 20
103.8554735980621
 30
0.0
 40
16.74000000000001
100
AcDbArc
 50
183.1832704918007
 51
266.9834111091424
  0
ARC
  5
38A
330
18
100
AcDbEntity
  8
3
100
AcDbCircle
 10
5.146675699937892
 20
104.8759187947601
 30
0.0
 40
16.56136308217606
100
AcDbArc
 50
185.1751722282797
 51
264.8248277717202
  0
ARC
  5
38B
330
18
100
AcDbEntity
  8
3
100
AcDbCircle
 10
-13.84717628738276
 20
103.3820668074394
 30
0.0
 40
2.5
100
AcDbArc
 50
359.9999999999959
 51
89.99999999999998
  0
ARC
  5
38C
330
18
100
AcDbEntity
  8
3
100
AcDbCircle
 10
-13.84717628738276
 20
103.3820668074394
 30
0.0
 40
2.5
100
AcDbArc
 50
89.99999999999998
 51
179.9999999999991
  0
ARC
  5
38D
330
18
100
AcDbEntity
  8
0
100
AcDbCircle
 10
-13.84717628738281
 20
102.8820668074394
 30
0.0
 40
1.260000000000012
100
AcDbArc
 50
4.206305257036616
 51
178.0062936896651
  0
ARC
  5
38E
330
18
100
AcDbEntity
  8
0
100
AcDbCircle
 10
4.126231503239734
 20
67.90866001681681
 30
0.0
 40
16.74000000000001
100
AcDbArc
 50
93.0165888908575
 51
176.8167295081992
  0
ARC
  5
38F
330
18
100
AcDbEntity
  8
3
100
AcDbCircle
 10
5.146675699937857
 20
66.88821482011883
 30
0.0
 40
16.56136308217606
100
AcDbArc
 50
95.17517222827978
 51
174.8248277717202
  0
ARC
  5
390
330
18
100
AcDbEntity
  8
3
100
AcDbCircle
 10
3.652823712617207
 20
85.88206680743949
 30
0.0
 40
2.5
100
AcDbArc
 50
269.9999999999967
 51
0.0
  0
ARC
  5
391
330
18
100
AcDbEntity
  8
0
100
AcDbCircle
 10
3.152823712617179
 20
85.88206680743949
 30
0.0
 40
1.260000000000033
100
AcDbArc
 50
274.2083753895374
 51
0.0
  0
ARC
  5
392
330
18
100
AcDbEntity
  8
0
100
AcDbCircle
 10
3.152823712617179
 20
85.88206680743949
 30
0.0
 40
1.260000000000033
100
AcDbArc
 50
0.0
 51
85.79162461046259
  0
ARC
  5
393
330
18
100
AcDbEntity
  8
3
100
AcDbCircle
 10
3.652823712617179
 20
85.88206680743947
 30
0.0
 40
2.5
100
AcDbArc
 50
0.0
 51
89.99999999999998
  0
ARC
  5
394
330
18
100
AcDbEntity
  8
3
100
AcDbCircle
 10
-13.84717628738282
 20
68.38206680743951
 30
0.0
 40
2.5
100
AcDbArc
 50
270.0
 51
359.9999999999992
  0
ARC
  5
395
330
18
100
AcDbEntity
  8
0
100
AcDbCircle
 10
-13.84717628738282
 20
68.88206680743948
 30
0.0
 40
1.260000000000012
100
AcDbArc
 50
181.9937063103348
 51
355.7936947429634
  0
ARC
  5
396
330
18
100
AcDbEntity
  8
3
100
AcDbCircle
 10
-13.84717628738279
 20
68.38206680743948
 30
0.0
 40
2.5
100
AcDbArc
 50
179.9999999999959
 51
270.0
  0
LINE
  5
397
330
18
100
AcDbEntity
  8
3
100
AcDbLine
 10
-10.3471762873828
 20
-0.3270583958678817
 30
0.0
 11
-13.8471762873828
 21
1.112333729505991
 31
0.0
  0
LINE
  5
398
330
18
100
AcDbEntity
  8
3
100
AcDbLine
 10
-10.3471762873828
 20
-0.3270583958678817
 30
0.0
 11
-13.8471762873828
 21
-0.3270583958678799
 31
0.0
  0
LINE
  5
399
330
18
100
AcDbEntity
  8
3
100
AcDbLine
 10
-9.847176287382808
 20
-2.327058395867881
 30
0.0
 11
-17.8471762873828
 21
-2.327058395867879
 31
0.0
  0
LINE
  5
39A
330
18
100
AcDbEntity
  8
3
100
AcDbLine
 10
-13.8471762873828
 20
8.672941604131949
 30
0.0
 11
-7.847176287382779
 21
8.672941604132118
 31
0.0
  0
LINE
  5
39B
330
18
100
AcDbEntity
  8
3
100
AcDbLine
 10
-13.8471762873828
 20
8.672941604131949
 30
0.0
 11
-19.84717628738283
 21
8.67294160413212
 31
0.0
  0
LINE
  5
39C
330
18
100
AcDbEntity
  8
3
100
AcDbLine
 10
-17.3471762873828
 20
-0.3270583958678799
 30
0.0
 11
-13.8471762873828
 21
1.112333729505991
 31
0.0
  0
LINE
  5
39D
330
18
100
AcDbEntity
  8
3
100
AcDbLine
 10
-17.3471762873828
 20
-0.3270583958678799
 30
0.0
 11
-13.8471762873828
 21
-0.3270583958678799
 31
0.0
  0
LINE
  5
39E
330
18
100
AcDbEntity
  8
3
100
AcDbLine
 10
-17.3471762873828
 20
-2.327058395867879
 30
0.0
 11
-17.3471762873828
 21
-0.3270583958678799
 31
0.0
  0
ARC
  5
39F
330
18
100
AcDbEntity
  8
3
100
AcDbCircle
 10
-10.25211276716186
 20
-26.24433607509465
 30
0.0
 40
35.0
100
AcDbArc
 50
65.23457152855603
 51
86.05996084350007
  0
LINE
  5
3A0
330
18
100
AcDbEntity
  8
3
100
AcDbLine
 10
-2.347176287382808
 20
-4.327058395868053
 30
0.0
 11
3.503347455319472
 21
-3.638761484961808
 31
0.0
  0
LINE
  5
3A1
330
18
100
AcDbEntity
  8
3
100
AcDbLine
 10
-10.3471762873828
 20
-2.327058395867881
 30
0.0
 11
-10.3471762873828
 21
-0.3270583958678817
 31
0.0
  0
LINE
  5
3A2
330
18
100
AcDbEntity
  8
3
100
AcDbLine
 10
6.152823712617221
 20
-0.6593096719931886
 30
0.0
 11
6.152823712617221
 21
2.812636891356756
 31
0.0
  0
ARC
  5
3A3
330
18
100
AcDbEntity
  8
3
100
AcDbCircle
 10
3.152823712617221
 20
2.812636891356756
 30
0.0
 40
3.0
100
AcDbArc
 50
0.0
 51
65.23457152855603
  0
ARC
  5
3A4
330
18
100
AcDbEntity
  8
3
100
AcDbCircle
 10
3.152823712617221
 20
-0.6593096719931886
 30
0.0
 40
3.0
100
AcDbArc
 50
276.7098368077582
 51
0.0
  0
LINE
  5
3A7
330
18
100
AcDbEntity
  8
3
100
AcDbLine
 10
-13.84717628738281
 20
-17.32705839586787
 30
0.0
 11
-9.847176287382811
 21
-17.32705839586787
 31
0.0
  0
LINE
  5
3A8
330
18
100
AcDbEntity
  8
3
100
AcDbLine
 10
-20.89717628738285
 20
-17.32705839586787
 30
0.0
 11
-6.797176287382772
 21
-17.32705839586787
 31
0.0
  0
LINE
  5
3A9
330
18
100
AcDbEntity
  8
3
100
AcDbLine
 10
-20.89717628738285
 20
-17.32705839586787
 30
0.0
 11
-21.3471762873828
 21
-8.32705839586805
 31
0.0
  0
LINE
  5
3AA
330
18
100
AcDbEntity
  8
3
100
AcDbLine
 10
-6.797176287382772
 20
-17.32705839586787
 30
0.0
 11
-6.347176287382808
 21
-8.32705839586805
 31
0.0
  0
TEXT
  5
3CC
330
18
100
AcDbEntity
  8
0
100
AcDbText
 10
3.273694741946684
 20
-24.11046138674737
 30
0.0
 40
3.5
  1
CK-40-T-SUS
100
AcDbText
  0
ENDSEC
  0
SECTION
  2
OBJECTS
  0
DICTIONARY
  5
C
330
0
100
AcDbDictionary
281
     1
  3
ACAD_GROUP
350
D
  3
ACAD_LAYOUT
350
72
  3
ACAD_MLINESTYLE
350
1B
  3
ACAD_PLOTSETTINGS
350
73
  3
ACAD_PLOTSTYLENAME
350
70
  3
AcDbVariableDictionary
350
17A
  3
AcmDictionary
350
134
  3
AMG
350
7A
  3
AMGSNAPSETTINGS
350
17D
  3
DWGPROPS
350
326
  3
MAPISURF_MODULE
350
106
  0
DICTIONARY
  5
172
330
18
100
AcDbDictionary
280
     1
281
     1
  3
ACAD_INDEX
360
173
  0
DICTIONARY
  5
D
102
{ACAD_REACTORS
330
C
102
}
330
C
100
AcDbDictionary
281
     1
  0
DICTIONARY
  5
72
102
{ACAD_REACTORS
330
C
102
}
330
C
100
AcDbDictionary
281
     1
  3
Model
350
74
  3
ﾚｲｱｳﾄ1
350
75
  0
DICTIONARY
  5
1B
102
{ACAD_REACTORS
330
C
102
}
330
C
100
AcDbDictionary
281
     1
  3
STANDARD
350
1C
  0
DICTIONARY
  5
73
102
{ACAD_REACTORS
330
C
102
}
330
C
100
AcDbDictionary
281
     1
  0
ACDBDICTIONARYWDFLT
  5
70
102
{ACAD_REACTORS
330
C
102
}
330
C
100
AcDbDictionary
281
     1
  3
Normal
350
71
100
AcDbDictionaryWithDefault
340
71
  0
DICTIONARY
  5
17A
102
{ACAD_REACTORS
330
C
102
}
330
C
100
AcDbDictionary
281
     1
  3
DIMASSOC
350
17C
  3
INDEXCTL
350
17B
  0
DICTIONARY
  5
134
102
{ACAD_REACTORS
330
C
102
}
330
C
100
AcDbDictionary
281
     1
  3
AcmBOMDATA
350
135
  3
AcmStdDictionary
350
143
  0
DICTIONARY
  5
7A
102
{ACAD_REACTORS
330
C
102
}
330
C
100
AcDbDictionary
281
     1
  3
AcMgSettings
350
7B
  3
AMGLAYCFG
350
145
  0
DICTIONARY
  5
17D
102
{ACAD_REACTORS
330
C
102
}
330
C
100
AcDbDictionary
281
     1
  3
DIMENSION
350
182
  3
FEA
350
181
  3
HATCH (1)
350
17E
  3
HATCH (2)
350
17F
  3
SIMPLE WELD
350
183
  3
SYMBOLS
350
180
  0
XRECORD
  5
326
102
{ACAD_REACTORS
330
C
102
}
330
C
100
AcDbXrecord
280
     1
  1
DWGPROPS COOKIE
  2

  3

  4

  6

  7

  8

  9

300
AmdtFileType=84
301
=
302
=
303
=
304
=
305
=
306
=
307
=
308
=
309
=
 40
0.0048533101851852
 41
2311940.850465301
 42
2454697.723543113
  1

 90
        1
  0
DICTIONARY
  5
173
102
{ACAD_REACTORS
330
172
102
}
330
172
100
AcDbDictionary
281
     1
  3
*A1
350
174
  0
LAYOUT
  5
74
102
{ACAD_REACTORS
330
72
102
}
330
72
100
AcDbPlotSettings
  1

  2
EPSON PM-3700C
  4

  6

 40
0.0
 41
0.0
 42
0.0
 43
0.0
 44
0.0
 45
0.0
 46
0.0
 47
0.0
 48
0.0
 49
0.0
140
0.0
141
0.0
142
1.0
143
1.0
 70
  1712
 72
     0
 73
     0
 74
     0
  7

 75
     0
147
1.0
148
0.0
149
0.0
100
AcDbLayout
  1
Model
 70
     1
 71
     0
 10
0.0
 20
0.0
 11
12.0
 21
9.0
 12
0.0
 22
0.0
 32
0.0
 14
0.0
 24
0.0
 34
0.0
 15
0.0
 25
0.0
 35
0.0
146
0.0
 13
0.0
 23
0.0
 33
0.0
 16
1.0
 26
0.0
 36
0.0
 17
0.0
 27
1.0
 37
0.0
 76
     0
330
18
  0
LAYOUT
  5
75
102
{ACAD_REACTORS
330
72
102
}
330
72
100
AcDbPlotSettings
  1

  2
EPSON PM-3700C
  4

  6

 40
0.0
 41
0.0
 42
0.0
 43
0.0
 44
0.0
 45
0.0
 46
0.0
 47
0.0
 48
0.0
 49
0.0
140
0.0
141
0.0
142
1.0
143
1.0
 70
   688
 72
     0
 73
     0
 74
     5
  7

 75
    16
147
1.0
148
0.0
149
0.0
100
AcDbLayout
  1
ﾚｲｱｳﾄ1
 70
     1
 71
     1
 10
0.0
 20
0.0
 11
12.0
 21
9.0
 12
0.0
 22
0.0
 32
0.0
 14
1.000000000000000E+20
 24
1.000000000000000E+20
 34
1.000000000000000E+20
 15
-1.000000000000000E+20
 25
-1.000000000000000E+20
 35
-1.000000000000000E+20
146
0.0
 13
0.0
 23
0.0
 33
0.0
 16
1.0
 26
0.0
 36
0.0
 17
0.0
 27
1.0
 37
0.0
 76
     0
330
15
  0
MLINESTYLE
  5
1C
102
{ACAD_REACTORS
330
1B
102
}
330
1B
100
AcDbMlineStyle
  2
STANDARD
 70
     0
  3

 62
   256
 51
90.0
 52
90.0
 71
     2
 49
0.5
 62
   256
  6
BYLAYER
 49
-0.5
 62
   256
  6
BYLAYER
  0
ACDBPLACEHOLDER
  5
71
102
{ACAD_REACTORS
330
70
102
}
330
70
  0
DICTIONARYVAR
  5
17C
102
{ACAD_REACTORS
330
17A
102
}
330
17A
100
DictionaryVariables
280
     0
  1
1
  0
DICTIONARYVAR
  5
17B
102
{ACAD_REACTORS
330
17A
102
}
330
17A
100
DictionaryVariables
280
     0
  1
1
  0
ACMDATADICTIONARY
  5
135
102
{ACAD_REACTORS
330
134
102
}
330
134
100
AcDbDictionary
281
     1
  3
*A1
350
136
100
AcmDataDictionary
  0
DICTIONARY
  5
143
102
{ACAD_REACTORS
330
134
102
}
330
134
100
AcDbDictionary
281
     1
  3
ANSI
350
144
  0
DICTIONARY
  5
7B
102
{ACAD_REACTORS
330
7A
102
}
330
7A
100
AcDbDictionary
281
     1
  3
DWGSETTINGS
350
7C
  3
TRANSSETTINGS
350
80
  0
ACAMGFILTERDAT
  5
182
102
{ACAD_REACTORS
330
17D
102
}
330
17D
100
AcAmgFilterDat
 70
    15
  1
DIMENSION,AMDT_*_DIM
  2
*
  3
*
  4
*
  5
*
290
     1
  0
ACAMGFILTERDAT
  5
181
102
{ACAD_REACTORS
330
17D
102
}
330
17D
100
AcAmgFilterDat
 70
    15
  1
*
  2
AM_FEA-AM_*
  3
*
  4
*
  5
*
290
     1
  0
ACAMGFILTERDAT
  5
17E
102
{ACAD_REACTORS
330
17D
102
}
330
17D
100
AcAmgFilterDat
 70
    15
  1
HATCH
  2
*
  3
*
  4
*
  5
*
290
     1
  0
ACAMGFILTERDAT
  5
17F
102
{ACAD_REACTORS
330
17D
102
}
330
17D
100
AcAmgFilterDat
 70
    15
  1
LINE
  2
8,8N,*-8,*-8N,AM_8,AM_8N,*-AM_8,*-AM_8N
  3
*
  4
*
  5
INSERT,STDPART2D
290
     1
  0
ACAMGFILTERDAT
  5
183
102
{ACAD_REACTORS
330
17D
102
}
330
17D
100
AcAmgFilterDat
 70
    15
  1
ARC
  2
AM_5
  3
*
  4
2
  5
INSERT
290
     0
  0
ACAMGFILTERDAT
  5
180
102
{ACAD_REACTORS
330
17D
102
}
330
17D
100
AcAmgFilterDat
 70
    15
  1
ACMFCFRAME,ACMDATUMTARGET,ACMDATUMID,ACMWELDSYM,ACMSURFSYM,ACMFEATID,ACMPARTREF,ACMBALLOON,AMDTEDGESYM,AMGSCREWCALCTABLE
  2
*
  3
*
  4
*
  5
*
290
     1
  0
LAYER_INDEX
  5
174
102
{ACAD_REACTORS
330
173
102
}
330
173
100
AcDbIndex
 40
2454697.724588206
100
AcDbLayerIndex
  8
0
360
175
 90
       11
  8
HALDER_NORMTEILE
360
176
 90
        0
  8
HALDER_NORMTEILE_MITTELLINIE
360
177
 90
        0
  8
HALDER_INFO
360
178
 90
        0
  8
1
360
236
 90
        3
  8
3
360
237
 90
       41
  8
DEFPOINTS
360
238
 90
        0
  0
ACMDATAENTRYBLOCK
  5
136
102
{ACAD_REACTORS
330
135
102
}
330
135
100
AcmDataEntry
100
AcmDataEntryBlock
  0
IDBUFFER
  5
175
330
0
100
AcDbIdBuffer
330
37C
330
37D
330
381
330
383
330
389
330
38D
330
38E
330
391
330
392
330
395
330
3CC
  0
IDBUFFER
  5
176
330
0
100
AcDbIdBuffer
  0
IDBUFFER
  5
177
330
0
100
AcDbIdBuffer
  0
IDBUFFER
  5
178
330
0
100
AcDbIdBuffer
  0
IDBUFFER
  5
236
330
0
100
AcDbIdBuffer
330
378
330
379
330
388
  0
IDBUFFER
  5
237
330
0
100
AcDbIdBuffer
330
3A9
330
3AA
330
372
330
373
330
374
330
375
330
376
330
377
330
37A
330
37B
330
37F
330
380
330
382
330
384
330
385
330
386
330
387
330
38A
330
38B
330
38C
330
38F
330
390
330
393
330
394
330
396
330
397
330
398
330
399
330
39A
330
39B
330
39C
330
39D
330
39E
330
39F
330
3A0
330
3A1
330
3A2
330
3A3
330
3A4
330
3A7
330
3A8
  0
IDBUFFER
  5
238
330
0
100
AcDbIdBuffer
  0
ENDSEC
  0
EOF
