  0
SECTION
  2
HEADER
  9
$ACADVER
  1
AC1015
  9
$ACADMAINTVER
 70
    13
  9
$DWGCODEPAGE
  3
ANSI_932
  9
$INSBASE
 10
0.0
 20
0.0
 30
0.0
  9
$EXTMIN
 10
-101.5472225006257
 20
-32.00568149993898
 30
0.0
  9
$EXTMAX
 10
47.39689578084663
 20
121.8366339999999
 30
0.0
  9
$LIMMIN
 10
-31.5
 20
-5.0
  9
$LIMMAX
 10
31.5
 20
45.0
  9
$ORTHOMODE
 70
     0
  9
$REGENMODE
 70
     1
  9
$FILLMODE
 70
     1
  9
$QTEXTMODE
 70
     0
  9
$MIRRTEXT
 70
     1
  9
$LTSCALE
 40
1.0
  9
$ATTMODE
 70
     1
  9
$TEXTSIZE
 40
3.5
  9
$TRACEWID
 40
0.5
  9
$TEXTSTYLE
  7
STANDARD
  9
$CLAYER
  8
0
  9
$CELTYPE
  6
BYLAYER
  9
$CECOLOR
 62
   256
  9
$CELTSCALE
 40
1.0
  9
$DISPSILH
 70
     0
  9
$DIMSCALE
 40
1.0
  9
$DIMASZ
 40
0.18
  9
$DIMEXO
 40
0.0625
  9
$DIMDLI
 40
0.38
  9
$DIMRND
 40
0.0
  9
$DIMDLE
 40
0.0
  9
$DIMEXE
 40
0.18
  9
$DIMTP
 40
0.0
  9
$DIMTM
 40
0.0
  9
$DIMTXT
 40
0.18
  9
$DIMCEN
 40
0.09
  9
$DIMTSZ
 40
0.0
  9
$DIMTOL
 70
     0
  9
$DIMLIM
 70
     0
  9
$DIMTIH
 70
     1
  9
$DIMTOH
 70
     1
  9
$DIMSE1
 70
     0
  9
$DIMSE2
 70
     0
  9
$DIMTAD
 70
     0
  9
$DIMZIN
 70
     0
  9
$DIMBLK
  1

  9
$DIMASO
 70
     1
  9
$DIMSHO
 70
     1
  9
$DIMPOST
  1

  9
$DIMAPOST
  1

  9
$DIMALT
 70
     0
  9
$DIMALTD
 70
     2
  9
$DIMALTF
 40
25.4
  9
$DIMLFAC
 40
1.0
  9
$DIMTOFL
 70
     0
  9
$DIMTVP
 40
0.0
  9
$DIMTIX
 70
     0
  9
$DIMSOXD
 70
     0
  9
$DIMSAH
 70
     0
  9
$DIMBLK1
  1

  9
$DIMBLK2
  1

  9
$DIMSTYLE
  2
STANDARD
  9
$DIMCLRD
 70
     0
  9
$DIMCLRE
 70
     0
  9
$DIMCLRT
 70
     0
  9
$DIMTFAC
 40
1.0
  9
$DIMGAP
 40
0.09
  9
$DIMJUST
 70
     0
  9
$DIMSD1
 70
     0
  9
$DIMSD2
 70
     0
  9
$DIMTOLJ
 70
     1
  9
$DIMTZIN
 70
     0
  9
$DIMALTZ
 70
     0
  9
$DIMALTTZ
 70
     0
  9
$DIMUPT
 70
     0
  9
$DIMDEC
 70
     4
  9
$DIMTDEC
 70
     4
  9
$DIMALTU
 70
     2
  9
$DIMALTTD
 70
     2
  9
$DIMTXSTY
  7
STANDARD
  9
$DIMAUNIT
 70
     0
  9
$DIMADEC
 70
     0
  9
$DIMALTRND
 40
0.0
  9
$DIMAZIN
 70
     0
  9
$DIMDSEP
 70
    46
  9
$DIMATFIT
 70
     3
  9
$DIMFRAC
 70
     0
  9
$DIMLDRBLK
  1

  9
$DIMLUNIT
 70
     2
  9
$DIMLWD
 70
    -2
  9
$DIMLWE
 70
    -2
  9
$DIMTMOVE
 70
     0
  9
$LUNITS
 70
     2
  9
$LUPREC
 70
     4
  9
$SKETCHINC
 40
0.1
  9
$FILLETRAD
 40
2.0
  9
$AUNITS
 70
     0
  9
$AUPREC
 70
     0
  9
$MENU
  1
ACAD
  9
$ELEVATION
 40
0.0
  9
$PELEVATION
 40
0.0
  9
$THICKNESS
 40
0.0
  9
$LIMCHECK
 70
     0
  9
$CHAMFERA
 40
0.0
  9
$CHAMFERB
 40
0.0
  9
$CHAMFERC
 40
0.0
  9
$CHAMFERD
 40
0.0
  9
$SKPOLY
 70
     0
  9
$TDCREATE
 40
2311940.850465301
  9
$TDUCREATE
 40
2311940.475465301
  9
$TDUPDATE
 40
2454697.713634792
  9
$TDUUPDATE
 40
2454697.338634791
  9
$TDINDWG
 40
0.0037002546
  9
$TDUSRTIMER
 40
0.0037002546
  9
$USRTIMER
 70
     1
  9
$ANGBASE
 50
0.0
  9
$ANGDIR
 70
     0
  9
$PDMODE
 70
     0
  9
$PDSIZE
 40
0.0
  9
$PLINEWID
 40
0.0
  9
$SPLFRAME
 70
     0
  9
$SPLINETYPE
 70
     6
  9
$SPLINESEGS
 70
     8
  9
$HANDSEED
  5
23B
  9
$SURFTAB1
 70
     6
  9
$SURFTAB2
 70
     6
  9
$SURFTYPE
 70
     6
  9
$SURFU
 70
     6
  9
$SURFV
 70
     6
  9
$UCSBASE
  2

  9
$UCSNAME
  2

  9
$UCSORG
 10
0.0
 20
0.0
 30
0.0
  9
$UCSXDIR
 10
1.0
 20
0.0
 30
0.0
  9
$UCSYDIR
 10
0.0
 20
1.0
 30
0.0
  9
$UCSORTHOREF
  2

  9
$UCSORTHOVIEW
 70
     0
  9
$UCSORGTOP
 10
0.0
 20
0.0
 30
0.0
  9
$UCSORGBOTTOM
 10
0.0
 20
0.0
 30
0.0
  9
$UCSORGLEFT
 10
0.0
 20
0.0
 30
0.0
  9
$UCSORGRIGHT
 10
0.0
 20
0.0
 30
0.0
  9
$UCSORGFRONT
 10
0.0
 20
0.0
 30
0.0
  9
$UCSORGBACK
 10
0.0
 20
0.0
 30
0.0
  9
$PUCSBASE
  2

  9
$PUCSNAME
  2

  9
$PUCSORG
 10
0.0
 20
0.0
 30
0.0
  9
$PUCSXDIR
 10
1.0
 20
0.0
 30
0.0
  9
$PUCSYDIR
 10
0.0
 20
1.0
 30
0.0
  9
$PUCSORTHOREF
  2

  9
$PUCSORTHOVIEW
 70
     0
  9
$PUCSORGTOP
 10
0.0
 20
0.0
 30
0.0
  9
$PUCSORGBOTTOM
 10
0.0
 20
0.0
 30
0.0
  9
$PUCSORGLEFT
 10
0.0
 20
0.0
 30
0.0
  9
$PUCSORGRIGHT
 10
0.0
 20
0.0
 30
0.0
  9
$PUCSORGFRONT
 10
0.0
 20
0.0
 30
0.0
  9
$PUCSORGBACK
 10
0.0
 20
0.0
 30
0.0
  9
$USERI1
 70
     0
  9
$USERI2
 70
     0
  9
$USERI3
 70
     0
  9
$USERI4
 70
     0
  9
$USERI5
 70
     0
  9
$USERR1
 40
0.0
  9
$USERR2
 40
0.0
  9
$USERR3
 40
0.0
  9
$USERR4
 40
0.0
  9
$USERR5
 40
0.0
  9
$WORLDVIEW
 70
     1
  9
$SHADEDGE
 70
     3
  9
$SHADEDIF
 70
    70
  9
$TILEMODE
 70
     1
  9
$MAXACTVP
 70
    48
  9
$PINSBASE
 10
0.0
 20
0.0
 30
0.0
  9
$PLIMCHECK
 70
     0
  9
$PEXTMIN
 10
1.000000000000000E+20
 20
1.000000000000000E+20
 30
1.000000000000000E+20
  9
$PEXTMAX
 10
-1.000000000000000E+20
 20
-1.000000000000000E+20
 30
-1.000000000000000E+20
  9
$PLIMMIN
 10
0.0
 20
0.0
  9
$PLIMMAX
 10
12.0
 20
9.0
  9
$UNITMODE
 70
     0
  9
$VISRETAIN
 70
     1
  9
$PLINEGEN
 70
     0
  9
$PSLTSCALE
 70
     1
  9
$TREEDEPTH
 70
  3020
  9
$CMLSTYLE
  2
STANDARD
  9
$CMLJUST
 70
     0
  9
$CMLSCALE
 40
1.0
  9
$PROXYGRAPHICS
 70
     1
  9
$MEASUREMENT
 70
     0
  9
$CELWEIGHT
370
    -1
  9
$ENDCAPS
280
     0
  9
$JOINSTYLE
280
     0
  9
$LWDISPLAY
290
     0
  9
$INSUNITS
 70
     0
  9
$HYPERLINKBASE
  1

  9
$STYLESHEET
  1

  9
$XEDIT
290
     1
  9
$CEPSNTYPE
380
     0
  9
$PSTYLEMODE
290
     1
  9
$FINGERPRINTGUID
  2
{74BEC188-66F7-4CCC-A18D-03EE4744FA0B}
  9
$VERSIONGUID
  2
{0FF7F8D0-F6B7-4F3D-9DCA-BB0E05F1EFC0}
  9
$EXTNAMES
290
     1
  9
$PSVPSCALE
 40
0.0
  9
$OLESTARTUP
290
     0
  0
ENDSEC
  0
SECTION
  2
CLASSES
  0
CLASS
  1
ACDBDICTIONARYWDFLT
  2
AcDbDictionaryWithDefault
  3
AutoCAD 2000
 90
        0
280
     0
281
     0
  0
CLASS
  1
ACDBPLACEHOLDER
  2
AcDbPlaceHolder
  3
AutoCAD 2000
 90
        0
280
     0
281
     0
  0
CLASS
  1
LAYOUT
  2
AcDbLayout
  3
AutoCAD 2000
 90
        0
280
     0
281
     0
  0
CLASS
  1
AMGSETTINGSOBJ
  2
AmgSettingsObj
  3
"AcadM|Product Description: AutoCAD Mechanical 2000|Company: Autodesk"
 90
        0
280
     0
281
     0
  0
CLASS
  1
ACME_DOCUMENT
  2
AcMeDbDoc
  3
AcMeServices
 90
        0
280
     0
281
     0
  0
CLASS
  1
ACMESCOPE
  2
AcMeScope
  3
AcMeServices
 90
        0
280
     0
281
     0
  0
CLASS
  1
ACMECOMMANDHISTORY
  2
AcMeCommandHistory
  3
AcMeServices
 90
        0
280
     0
281
     0
  0
CLASS
  1
ACIMSYSVARMAN
  2
AcImSysVarManager
  3
AcMeServices
 90
        0
280
     0
281
     0
  0
CLASS
  1
ACIMREALSYSVAR
  2
AcImRealSysVar
  3
AcMeServices
 90
        0
280
     0
281
     0
  0
CLASS
  1
ACIMINTSYSVAR
  2
AcImIntSysVar
  3
AcMeServices
 90
        0
280
     0
281
     0
  0
CLASS
  1
ACMEDRAWINGMAN
  2
AcMeDrawingMan
  3
AcMeServices
 90
        0
280
     0
281
     0
  0
CLASS
  1
ACMEVIEW
  2
AcMeView
  3
AcMeServices
 90
        0
280
     0
281
     0
  0
CLASS
  1
ACDBENTITYCACHE
  2
AcMeEntityCache
  3
AcMeServices
 90
        0
280
     0
281
     0
  0
CLASS
  1
GSMANAGER
  2
AcMeGSManager
  3
AcMeServices
 90
        0
280
     0
281
     0
  0
CLASS
  1
AMDTINTERNALREACTOR
  2
AmdtInternalReactor
  3
AcMeServices
 90
        0
280
     0
281
     0
  0
CLASS
  1
ACMESTATEMGR
  2
AcMeStateMgr
  3
AcMeServices
 90
        0
280
     0
281
     0
  0
CLASS
  1
ACGREFMASTER
  2
AcGrefMaster
  3
AcAttribServices
 90
        0
280
     0
281
     0
  0
CLASS
  1
AM_DRAWING_MGR
  2
AcDmDwgMgr
  3
AcMechDwgViewMgmt
 90
        0
280
     0
281
     0
  0
CLASS
  1
AM_DWG_DOCUMENT
  2
AcDmDwgDocument
  3
AcMechDwgViewMgmt
 90
        0
280
     0
281
     0
  0
CLASS
  1
AM_DWG_SHEET
  2
AcDmSheet
  3
AcMechDwgViewMgmt
 90
        0
280
     0
281
     0
  0
CLASS
  1
AM_VIEWDIMPARMAP
  2
AcDmViewDimParMap
  3
AcMechDwgViewMgmt
 90
        0
280
     0
281
     0
  0
CLASS
  1
AM_DWGMGR_NAME
  2
AcDmDwgMgrName
  3
AcMechDwgViewMgmt
 90
        0
280
     0
281
     0
  0
CLASS
  1
ACME_DATABASE
  2
AcMeDbDatabase
  3
AcMeServices
 90
        0
280
     0
281
     0
  0
CLASS
  1
ACRFINSADJUSTERMGR
  2
AcRfInsAdjusterMgr
  3
AcMeServices
 90
        0
280
     0
281
     0
  0
CLASS
  1
ACGREFACADMASTER
  2
AcGrefacadMaster
  3
AcGrefServices
 90
        0
280
     0
281
     0
  0
CLASS
  1
AMDTMENUSTATEMGR
  2
AmdtMenuStateMgr
  3
McadcomServices
 90
        0
280
     0
281
     0
  0
CLASS
  1
AMDTMCOMMENUSTATE
  2
AmdtMcomMenuState
  3
McadcomServices
 90
        0
280
     0
281
     0
  0
CLASS
  1
AMIMASTER
  2
AmiMaster
  3
AmiServices
 90
        0
280
     0
281
     0
  0
CLASS
  1
ASAPP
  2
AcAsAppObject
  3
AutoSurfServices
 90
        0
280
     0
281
     0
  0
CLASS
  1
IM_STATIC_MAN
  2
AcImStaticVarManager
  3
AcMeServices
 90
        0
280
     0
281
     0
  0
CLASS
  1
ACIMSTRSYSVAR
  2
AcImStrSysVar
  3
AcMeServices
 90
        0
280
     0
281
     0
  0
CLASS
  1
ACIMDBLSTATICVAR
  2
AcImDblStaticVar
  3
AcMeServices
 90
        0
280
     0
281
     0
  0
CLASS
  1
ACIMSTRSTATICVAR
  2
AcImStrStaticVar
  3
AcMeServices
 90
        0
280
     0
281
     0
  0
CLASS
  1
ACIMINTSTATICVAR
  2
AcImIntStaticVar
  3
AcMeServices
 90
        0
280
     0
281
     0
  0
CLASS
  1
ACASGREFMASTER
  2
AcAsGrefMaster
  3
AutoSurfResolverServices
 90
        0
280
     0
281
     0
  0
CLASS
  1
ACADGREFMODULE
  2
AcAdGrefModule
  3
AdGrefServices
 90
        0
280
     0
281
     0
  0
CLASS
  1
AMDTMAPISURFMOUDULE
  2
AmdtMApiSurfModule
  3
MApiSurfServices
 90
        0
280
     0
281
     0
  0
CLASS
  1
MAPIAMMOUDLE
  2
MApiAmModule
  3
MApiAmServices
 90
        0
280
     0
281
     0
  0
CLASS
  1
AMDTADMENUSTATE
  2
AmdtAdMenuState
  3
DesignerServices
 90
        0
280
     0
281
     0
  0
CLASS
  1
ADAPPL
  2
AcAdAppl
  3
DesignerServices
 90
        0
280
     0
281
     0
  0
CLASS
  1
DEPMGR
  2
AcAdDepMgr
  3
DesignerServices
 90
        0
280
     0
281
     0
  0
CLASS
  1
PARAMMGR
  2
AcAdParamMgr
  3
DesignerServices
 90
        0
280
     0
281
     0
  0
CLASS
  1
PARAMSCOPE
  2
AcAdParamScope
  3
DesignerServices
 90
        0
280
     0
281
     0
  0
CLASS
  1
NAMEDAPPL
  2
AcAdNamedAppl
  3
DesignerServices
 90
        0
280
     0
281
     0
  0
CLASS
  1
AMDTDMMENUSTATE
  2
AmdtDmMenuState
  3
AcMechDwgViewMgmt
 90
        0
280
     0
281
     0
  0
CLASS
  1
MAPIADMODULE
  2
MApiAdModule
  3
MApiAdServices
 90
        0
280
     0
281
     0
  0
CLASS
  1
AMDTAMMENUSTATE
  2
AmdtAmMenuState
  3
DesignerAssemblies
 90
        0
280
     0
281
     0
  0
CLASS
  1
ACAMPROJECT
  2
AcAmProject
  3
DesignerAssemblies
 90
        0
280
     0
281
     0
  0
CLASS
  1
ACAMGRCOMPDEF
  2
AcAmGrCompDef
  3
DesignerAssemblies
 90
        0
280
     0
281
     0
  0
CLASS
  1
ACCMCONTEXT
  2
AcCmContext
  3
DesignerAssemblies
 90
        0
280
     0
281
     0
  0
CLASS
  1
ACAMCOMPDEF
  2
AcAmCompDef
  3
DesignerAssemblies
 90
        0
280
     0
281
     0
  0
CLASS
  1
ACAMCOMPDEFMGR
  2
AcAmCompDefMgr
  3
DesignerAssemblies
 90
        0
280
     0
281
     0
  0
CLASS
  1
AMCONTEXTMGR
  2
AcAmContextMgr
  3
DesignerAssemblies
 90
        0
280
     0
281
     0
  0
CLASS
  1
ACAMCONTEXTMODELER
  2
AcAmContextModeler
  3
DesignerAssemblies
 90
        0
280
     0
281
     0
  0
CLASS
  1
ACMDATADICTIONARY
  2
AcmDataDictionary
  3
"AcmSymBB|Product Description: AutoCAD Mechanical 2000|Company: Autodesk"
 90
        0
280
     0
281
     0
  0
CLASS
  1
ACMDATAENTRYBLOCK
  2
AcmDataEntryBlock
  3
"AcmSymBB|Product Description: AutoCAD Mechanical 2000|Company: Autodesk"
 90
        0
280
     0
281
     0
  0
CLASS
  1
CATALOGSTATE
  2
AcAmCatalogState
  3
DesignerAssemblies
 90
        0
280
     0
281
     0
  0
CLASS
  1
ACAMGRCOMPDEFSET
  2
AcAmGrCompDefSet
  3
DesignerAssemblies
 90
        0
280
     0
281
     0
  0
CLASS
  1
AMDTBROWSERDBTAB
  2
AmdtBrowserDbTab
  3
McadcomServices
 90
        0
280
     0
281
     0
  0
CLASS
  1
CBROWSERAPPOBJECT
  2
CBrowserAppObject
  3
McadcomServices
 90
        0
280
     0
281
     0
  0
CLASS
  1
DM_PLACEHOLDER
  2
AcDmSelsetPlaceholder
  3
AcMechDwgViewMgmt
 90
        0
280
     0
281
     0
  0
CLASS
  1
ACMSTANDARDANSI
  2
AcmStandardANSI
  3
"Amdt_StdImp|Product Description: AutoCAD Mechanical 2000|Company: Autodesk"
 90
        0
280
     0
281
     0
  0
CLASS
  1
AMGOBJPROPCFG
  2
AmgObjPropCfg
  3
"AmgLay|Product Description: AutoCAD Mechanical 2000|Company: Autodesk"
 90
        1
280
     0
281
     0
  0
CLASS
  1
ACMSURFSTANDARDANSI
  2
AcmSurfTextStdANSI
  3
"Amdt_StdImp|Product Description: AutoCAD Mechanical 2000|Company: Autodesk"
 90
        0
280
     0
281
     0
  0
CLASS
  1
ACMFCFSTANDARDANSI
  2
AcmFCFStdANSI
  3
"Amdt_StdImp|Product Description: AutoCAD Mechanical 2000|Company: Autodesk"
 90
        0
280
     0
281
     0
  0
CLASS
  1
ACMWELDSTANDARDANSI
  2
AcmWeldingStdANSI
  3
"Amdt_StdImp|Product Description: AutoCAD Mechanical 2000|Company: Autodesk"
 90
        0
280
     0
281
     0
  0
CLASS
  1
ACMIDSTANDARDANSI
  2
AcmIdStdANSI
  3
"Amdt_StdImp|Product Description: AutoCAD Mechanical 2000|Company: Autodesk"
 90
        0
280
     0
281
     0
  0
CLASS
  1
ACMDATUMSTANDARDANSI
  2
AcmDatumStdANSI
  3
"Amdt_StdImp|Product Description: AutoCAD Mechanical 2000|Company: Autodesk"
 90
        0
280
     0
281
     0
  0
CLASS
  1
ACMBOMSTANDARDANSI
  2
AcmBOMStdANSI
  3
"Amdt_StdImp|Product Description: AutoCAD Mechanical 2000|Company: Autodesk"
 90
        0
280
     0
281
     0
  0
CLASS
  1
ACMDETAILSTANDARDANSI
  2
AmdtDetailSymStdANSI
  3
"Amdt_StdImp|Product Description: AutoCAD Mechanical 2000|Company: Autodesk"
 90
        0
280
     0
281
     0
  0
CLASS
  1
ACMSECTIONSTANDARDANSI
  2
AmdtSectionSymStdANSI
  3
"Amdt_StdImp|Product Description: AutoCAD Mechanical 2000|Company: Autodesk"
 90
        0
280
     0
281
     0
  0
CLASS
  1
ACMCENTERLINESTANDARDANSI
  2
AmdtCenterLineStdANSI
  3
"Amdt_StdImp|Product Description: AutoCAD Mechanical 2000|Company: Autodesk"
 90
        0
280
     0
281
     0
  0
CLASS
  1
ACMTHREADLINESTANDARDANSI
  2
AmdtThreadLineStdANSI
  3
"Amdt_StdImp|Product Description: AutoCAD Mechanical 2000|Company: Autodesk"
 90
        0
280
     0
281
     0
  0
CLASS
  1
ACMNOTESTANDARDANSI
  2
AmdtNoteStdANSI
  3
"Amdt_StdImp|Product Description: AutoCAD Mechanical 2000|Company: Autodesk"
 90
        0
280
     0
281
     0
  0
CLASS
  1
ACAMGLAYSTD
  2
AcAmgLayStd
  3
"AcAmgLayStd|Product Description: AutoCAD Mechanical 2000|Company: Autodesk"
 90
        0
280
     0
281
     0
  0
CLASS
  1
ACAMGDIMSTD
  2
AcAmgDimStd
  3
"AcAmgDimStd|Product Description: AutoCAD Mechanical 2000|Company: Autodesk"
 90
        0
280
     0
281
     0
  0
CLASS
  1
ACAMGHOLECHARTSTDANSI
  2
AcAmgHoleChartStdANSI
  3
ACMSYMBB_MODULE_NAME
 90
        0
280
     0
281
     0
  0
CLASS
  1
ACAMGTITLESTD
  2
AcAmgTitleStd
  3
"TITLEAPP"
 90
        0
280
     0
281
     0
  0
CLASS
  1
LAYER_INDEX
  2
AcDbLayerIndex
  3
AutoCAD 2000
 90
        0
280
     0
281
     0
  0
CLASS
  1
IDBUFFER
  2
AcDbIdBuffer
  3
AutoCAD 2000
 90
        0
280
     0
281
     0
  0
CLASS
  1
DICTIONARYVAR
  2
AcDbDictionaryVar
  3
AutoCAD 2000
 90
        0
280
     0
281
     0
  0
CLASS
  1
ACAMGFILTERDAT
  2
AcAmgFilterDat
  3
"AcadM|Product Description: AutoCAD Mechanical 2000|Company: Autodesk"
 90
        0
280
     0
281
     0
  0
CLASS
  1
AMDTFORMULAUPDATEDISPATCHER
  2
AmdtFormulaUpdateDispatcher
  3
AcMeServices
 90
        0
280
     0
281
     0
  0
ENDSEC
  0
SECTION
  2
TABLES
  0
TABLE
  2
VPORT
  5
8
330
0
100
AcDbSymbolTable
 70
     5
  0
VPORT
  5
23A
330
8
100
AcDbSymbolTableRecord
100
AcDbViewportTableRecord
  2
*Active
 70
     0
 10
0.0
 20
0.0
 11
1.0
 21
1.0
 12
0.0
 22
0.0
 13
0.0
 23
0.0
 14
1.0
 24
1.0
 15
0.0
 25
0.0
 16
0.0
 26
0.0
 36
1.0
 17
12.57731920754716
 27
20.0
 37
0.0
 40
200.0093430086094
 41
1.516981132075471
 42
50.0
 43
0.0
 44
0.0
 50
0.0
 51
0.0
 71
     0
 72
   100
 73
     1
 74
     1
 75
     0
 76
     0
 77
     0
 78
     0
281
     0
 65
     0
110
0.0
120
0.0
130
0.0
111
1.0
121
0.0
131
0.0
112
0.0
122
1.0
132
0.0
 79
     0
146
0.0
  0
ENDTAB
  0
TABLE
  2
LTYPE
  5
5
330
0
100
AcDbSymbolTable
 70
    25
  0
LTYPE
  5
12
330
5
100
AcDbSymbolTableRecord
100
AcDbLinetypeTableRecord
  2
BYBLOCK
 70
     0
  3

 72
    65
 73
     0
 40
0.0
  0
LTYPE
  5
13
330
5
100
AcDbSymbolTableRecord
100
AcDbLinetypeTableRecord
  2
BYLAYER
 70
     0
  3

 72
    65
 73
     0
 40
0.0
  0
LTYPE
  5
14
330
5
100
AcDbSymbolTableRecord
100
AcDbLinetypeTableRecord
  2
CONTINUOUS
 70
     0
  3
Solid line
 72
    65
 73
     0
 40
0.0
  0
LTYPE
  5
1F
330
5
100
AcDbSymbolTableRecord
100
AcDbLinetypeTableRecord
  2
BORDER
 70
     0
  3
__ __ . __ __ .
 72
    65
 73
     6
 40
2.901315999999999
 49
0.8289469999999999
 74
     0
 49
-0.414474
 74
     0
 49
0.8289469999999999
 74
     0
 49
-0.414474
 74
     0
 49
0.0
 74
     0
 49
-0.414474
 74
     0
  0
LTYPE
  5
20
330
5
100
AcDbSymbolTableRecord
100
AcDbLinetypeTableRecord
  2
CENTER
 70
     0
  3
____ _ ____ _
 72
    65
 73
     4
 40
3.315789
 49
2.072367999999999
 74
     0
 49
-0.414474
 74
     0
 49
0.414474
 74
     0
 49
-0.414474
 74
     0
  0
LTYPE
  5
21
330
5
100
AcDbSymbolTableRecord
100
AcDbLinetypeTableRecord
  2
DASHDOT
 70
     0
  3
__ . __ . __ .
 72
    65
 73
     4
 40
1.657895
 49
0.8289469999999999
 74
     0
 49
-0.414474
 74
     0
 49
0.0
 74
     0
 49
-0.414474
 74
     0
  0
LTYPE
  5
22
330
5
100
AcDbSymbolTableRecord
100
AcDbLinetypeTableRecord
  2
DASHED
 70
     0
  3
__ __ __ __ __
 72
    65
 73
     2
 40
1.243420999999999
 49
0.8289469999999999
 74
     0
 49
-0.414474
 74
     0
  0
LTYPE
  5
23
330
5
100
AcDbSymbolTableRecord
100
AcDbLinetypeTableRecord
  2
DIVIDE
 70
     0
  3
__ . . __ . . 
 72
    65
 73
     6
 40
2.072367999999999
 49
0.8289469999999999
 74
     0
 49
-0.414474
 74
     0
 49
0.0
 74
     0
 49
-0.414474
 74
     0
 49
0.0
 74
     0
 49
-0.414474
 74
     0
  0
LTYPE
  5
24
330
5
100
AcDbSymbolTableRecord
100
AcDbLinetypeTableRecord
  2
DOT
 70
     0
  3
..............
 72
    65
 73
     4
 40
0.8289469999999999
 49
0.0
 74
     0
 49
-0.414474
 74
     0
 49
0.0
 74
     0
 49
-0.414474
 74
     0
  0
LTYPE
  5
25
330
5
100
AcDbSymbolTableRecord
100
AcDbLinetypeTableRecord
  2
HIDDEN
 70
     0
  3
_ _ _ _ _ _ _
 72
    65
 73
     2
 40
0.621711
 49
0.414474
 74
     0
 49
-0.207237
 74
     0
  0
LTYPE
  5
26
330
5
100
AcDbSymbolTableRecord
100
AcDbLinetypeTableRecord
  2
PHANTOM
 70
     0
  3
_____ _ _ _____ _ _ 
 72
    65
 73
     6
 40
4.144737
 49
2.072367999999999
 74
     0
 49
-0.414474
 74
     0
 49
0.414474
 74
     0
 49
-0.414474
 74
     0
 49
0.414474
 74
     0
 49
-0.414474
 74
     0
  0
LTYPE
  5
9F
330
5
100
AcDbSymbolTableRecord
100
AcDbLinetypeTableRecord
  2
PHANTOM2
 70
     0
  3
Phantom (.5x) ___ _ _ ___ _ _ ___ _ _ ___ _ _
 72
    65
 73
     6
 40
1.25
 49
0.625
 74
     0
 49
-0.125
 74
     0
 49
0.125
 74
     0
 49
-0.125
 74
     0
 49
0.125
 74
     0
 49
-0.125
 74
     0
  0
LTYPE
  5
101
330
5
100
AcDbSymbolTableRecord
100
AcDbLinetypeTableRecord
  2
ASULTYPE
 70
     0
  3
実線
 72
    65
 73
     2
 40
3.0
 49
2.5
 74
     0
 49
0.5
 74
     0
  0
LTYPE
  5
102
330
5
100
AcDbSymbolTableRecord
100
AcDbLinetypeTableRecord
  2
ASVLTYPE
 70
     0
  3
__ __ __ __ __ __ __ __ __ __ __ __ __ __ __ __ __ __ __ __ __
 72
    65
 73
     2
 40
0.75
 49
0.5
 74
     0
 49
-0.25
 74
     0
  0
LTYPE
  5
146
330
5
100
AcDbSymbolTableRecord
100
AcDbLinetypeTableRecord
  2
AM_ISO02W050
 70
     0
  3
__ __ __ __ __ __ __ __ __ __ __ __ __ __ __
 72
    65
 73
     2
 40
7.5
 49
6.0
 74
     0
 49
-1.5
 74
     0
  0
LTYPE
  5
147
330
5
100
AcDbSymbolTableRecord
100
AcDbLinetypeTableRecord
  2
AM_ISO08W050
 70
     0
  3
____ . ____ . ____ . ____ . ____ . ____ . ____
 72
    65
 73
     4
 40
18.0
 49
12.0
 74
     0
 49
-1.5
 74
     0
 49
3.0
 74
     0
 49
-1.5
 74
     0
  0
LTYPE
  5
148
330
5
100
AcDbSymbolTableRecord
100
AcDbLinetypeTableRecord
  2
AM_ISO09W050
 70
     0
  3
_____ . . _____ . . _____ . . ____ .. ____
 72
    65
 73
     6
 40
22.5
 49
12.0
 74
     0
 49
-1.5
 74
     0
 49
3.0
 74
     0
 49
-1.5
 74
     0
 49
3.0
 74
     0
 49
-1.5
 74
     0
  0
LTYPE
  5
149
330
5
100
AcDbSymbolTableRecord
100
AcDbLinetypeTableRecord
  2
Amconstr
 70
     0
  3
_______________________
 72
    65
 73
     2
 40
9999.0
 49
9999.0
 74
     0
 49
0.0
 74
     0
  0
LTYPE
  5
14A
330
5
100
AcDbSymbolTableRecord
100
AcDbLinetypeTableRecord
  2
AM_ISO08W050x2
 70
     0
  3
__ . __ . __ . __ . __ . __
 72
    65
 73
     4
 40
9.0
 49
6.0
 74
     0
 49
-0.75
 74
     0
 49
1.5
 74
     0
 49
-0.75
 74
     0
  0
LTYPE
  5
14B
330
5
100
AcDbSymbolTableRecord
100
AcDbLinetypeTableRecord
  2
AM_ISO02W050x2
 70
     0
  3
 _ _ _ _ _ _ _ _ _ _ _ _
 72
    65
 73
     2
 40
3.75
 49
3.0
 74
     0
 49
-0.75
 74
     0
  0
LTYPE
  5
14E
330
5
100
AcDbSymbolTableRecord
100
AcDbLinetypeTableRecord
  2
Amzigzag
 70
     0
  3
/\/-/\/-/\/-/\/-/\/-/\/
 72
    65
 73
     2
 40
11.00009999999999
 49
0.0001
 74
     4
 75
   135
340
14D
 46
0.04
 50
0.0
 44
0.0
 45
0.0
 49
-11.0
 74
     0
  0
LTYPE
  5
14F
330
5
100
AcDbSymbolTableRecord
100
AcDbLinetypeTableRecord
  2
CENTER2
 70
     0
  3
Center (.5x) ___ _ ___ _ ___ _ ___ _ ___ _ ___
 72
    65
 73
     4
 40
1.125
 49
0.75
 74
     0
 49
-0.125
 74
     0
 49
0.125
 74
     0
 49
-0.125
 74
     0
  0
LTYPE
  5
150
330
5
100
AcDbSymbolTableRecord
100
AcDbLinetypeTableRecord
  2
HIDDEN2
 70
     0
  3
Hidden (.5x) _ _ _ _ _ _ _ _ _ _ _ _ _ _ _ _ _
 72
    65
 73
     2
 40
0.1875
 49
0.125
 74
     0
 49
-0.0625
 74
     0
  0
LTYPE
  5
151
330
5
100
AcDbSymbolTableRecord
100
AcDbLinetypeTableRecord
  2
Amzigzag2
 70
     0
  3
/\/-/\/-/\/-/\/-/\/-/\/
 72
    65
 73
     2
 40
0.4401
 49
0.0001
 74
     4
 75
   135
340
14D
 46
0.0016
 50
0.0
 44
0.0
 45
0.0
 49
-0.4400000000000001
 74
     0
  0
LTYPE
  5
15F
330
5
100
AcDbSymbolTableRecord
100
AcDbLinetypeTableRecord
  2
ACANSTGB
 70
     0
  3
__ . . __ . .
 72
    65
 73
     6
 40
0.35433070866
 49
0.15748031496
 74
     0
 49
-0.03937007874
 74
     0
 49
0.03937007874
 74
     0
 49
-0.03937007874
 74
     0
 49
0.03937007874
 74
     0
 49
-0.03937007874
 74
     0
  0
LTYPE
  5
160
330
5
100
AcDbSymbolTableRecord
100
AcDbLinetypeTableRecord
  2
ACANSTGL
 70
     0
  3
_ _ _ _ _
 72
    65
 73
     2
 40
0.11811023622
 49
0.07874015748
 74
     0
 49
-0.03937007874
 74
     0
  0
LTYPE
  5
195
330
5
100
AcDbSymbolTableRecord
100
AcDbLinetypeTableRecord
  2
ITTEN1
 70
     0
  3

 72
    65
 73
     4
 40
8.199999999999999
 49
5.0
 74
     0
 49
-1.0
 74
     0
 49
1.199999999999999
 74
     0
 49
-1.0
 74
     0
  0
ENDTAB
  0
TABLE
  2
LAYER
  5
2
330
0
100
AcDbSymbolTable
 70
     7
  0
LAYER
  5
E
330
2
100
AcDbSymbolTableRecord
100
AcDbLayerTableRecord
  2
0
 70
     0
 62
     7
  6
CONTINUOUS
370
    -3
390
71
  0
LAYER
  5
27
330
2
100
AcDbSymbolTableRecord
100
AcDbLayerTableRecord
  2
HALDER_NORMTEILE
 70
     0
 62
     7
  6
CONTINUOUS
370
    -3
390
71
  0
LAYER
  5
28
330
2
100
AcDbSymbolTableRecord
100
AcDbLayerTableRecord
  2
HALDER_NORMTEILE_MITTELLINIE
 70
     0
 62
     7
  6
CONTINUOUS
370
    -3
390
71
  0
LAYER
  5
29
330
2
100
AcDbSymbolTableRecord
100
AcDbLayerTableRecord
  2
HALDER_INFO
 70
     0
 62
     7
  6
CONTINUOUS
370
    -3
390
71
  0
LAYER
  5
196
330
2
100
AcDbSymbolTableRecord
100
AcDbLayerTableRecord
  2
1
 70
     0
 62
     1
  6
ITTEN1
370
    -3
390
71
  0
LAYER
  5
197
330
2
100
AcDbSymbolTableRecord
100
AcDbLayerTableRecord
  2
3
 70
     0
 62
     5
  6
CONTINUOUS
370
    50
390
71
  0
LAYER
  5
198
330
2
100
AcDbSymbolTableRecord
100
AcDbLayerTableRecord
  2
DEFPOINTS
 70
     0
 62
     7
  6
CONTINUOUS
290
     0
370
    -3
390
71
  0
ENDTAB
  0
TABLE
  2
STYLE
  5
3
330
0
100
AcDbSymbolTable
 70
     8
  0
STYLE
  5
F
330
3
100
AcDbSymbolTableRecord
100
AcDbTextStyleTableRecord
  2
STANDARD
 70
     0
 40
0.0
 41
1.0
 50
0.0
 71
     0
 42
3.5
  3
txt
  4

  0
STYLE
  5
2A
330
3
100
AcDbSymbolTableRecord
100
AcDbTextStyleTableRecord
  2
SIMPLEX
 70
     0
 40
0.0
 41
1.0
 50
0.0
 71
     0
 42
3.5
  3
simplex
  4

  0
STYLE
  5
2B
330
3
100
AcDbSymbolTableRecord
100
AcDbTextStyleTableRecord
  2
COMPLEX
 70
     0
 40
0.0
 41
1.0
 50
0.0
 71
     0
 42
3.5
  3
complex
  4

  0
STYLE
  5
2C
330
3
100
AcDbSymbolTableRecord
100
AcDbTextStyleTableRecord
  2
ITALIC
 70
     0
 40
0.0
 41
1.0
 50
0.0
 71
     0
 42
3.5
  3
italic
  4

  0
STYLE
  5
14D
330
3
100
AcDbSymbolTableRecord
100
AcDbTextStyleTableRecord
  2

 70
     1
 40
0.0
 41
1.0
 50
0.0
 71
     0
 42
3.5
  3
ltypeshp.shx
  4

  0
STYLE
  5
152
330
3
100
AcDbSymbolTableRecord
100
AcDbTextStyleTableRecord
  2
ACANSTS
 70
     0
 40
1.0
 41
1.0
 50
0.0
 71
     0
 42
3.5
  3
romans.shx
  4
extfont.shx
  0
STYLE
  5
15E
330
3
100
AcDbSymbolTableRecord
100
AcDbTextStyleTableRecord
  2
ACANSGDT
 70
     0
 40
0.0
 41
1.0
 50
0.0
 71
     0
 42
3.5
  3
amgdtans.shx
  4

  0
STYLE
  5
199
330
3
100
AcDbSymbolTableRecord
100
AcDbTextStyleTableRecord
  2
BIGFONT
 70
     0
 40
5.0
 41
0.6
 50
0.0
 71
     0
 42
5.0
  3
txt.shx
  4
bigfont.shx
  0
ENDTAB
  0
TABLE
  2
VIEW
  5
6
330
0
100
AcDbSymbolTable
 70
     0
  0
ENDTAB
  0
TABLE
  2
UCS
  5
7
330
0
100
AcDbSymbolTable
 70
     0
  0
ENDTAB
  0
TABLE
  2
APPID
  5
9
330
0
100
AcDbSymbolTable
 70
    13
  0
APPID
  5
10
330
9
100
AcDbSymbolTableRecord
100
AcDbRegAppTableRecord
  2
ACAD
 70
     0
  0
APPID
  5
7D
330
9
100
AcDbSymbolTableRecord
100
AcDbRegAppTableRecord
  2
GENIUS_GENDIM_13
 70
     0
  0
APPID
  5
7E
330
9
100
AcDbSymbolTableRecord
100
AcDbRegAppTableRecord
  2
GENIUS_GENDTOL_13
 70
     0
  0
APPID
  5
7F
330
9
100
AcDbSymbolTableRecord
100
AcDbRegAppTableRecord
  2
GENIUS_GE3DTOL_13
 70
     0
  0
APPID
  5
82
330
9
100
AcDbSymbolTableRecord
100
AcDbRegAppTableRecord
  2
MCAD_NO_VIS
 70
     0
  0
APPID
  5
83
330
9
100
AcDbSymbolTableRecord
100
AcDbRegAppTableRecord
  2
ACAD_TEMP_GRAPHIC
 70
     0
  0
APPID
  5
B4
330
9
100
AcDbSymbolTableRecord
100
AcDbRegAppTableRecord
  2
AD_DRAW
 70
     0
  0
APPID
  5
B7
330
9
100
AcDbSymbolTableRecord
100
AcDbRegAppTableRecord
  2
ACATTRIBSERVICES
 70
     0
  0
APPID
  5
103
330
9
100
AcDbSymbolTableRecord
100
AcDbRegAppTableRecord
  2
ASURF_PCURVE_APPNAME
 70
     0
  0
APPID
  5
108
330
9
100
AcDbSymbolTableRecord
100
AcDbRegAppTableRecord
  2
AMG_3D2D_5.0
 70
     0
  0
APPID
  5
133
330
9
100
AcDbSymbolTableRecord
100
AcDbRegAppTableRecord
  2
DESIGNERASSEMBLIES
 70
     0
  0
APPID
  5
13B
330
9
100
AcDbSymbolTableRecord
100
AcDbRegAppTableRecord
  2
ACADM_DIM_EDIT
 70
     0
  0
APPID
  5
13C
330
9
100
AcDbSymbolTableRecord
100
AcDbRegAppTableRecord
  2
AMDT_DM_ADJ
 70
     0
  0
ENDTAB
  0
TABLE
  2
DIMSTYLE
  5
A
330
0
100
AcDbSymbolTable
 70
     7
100
AcDbDimStyleTable
 71
     0
  0
DIMSTYLE
105
52
330
A
100
AcDbSymbolTableRecord
100
AcDbDimStyleTableRecord
  2
STANDARD
 70
     0
340
F
  0
DIMSTYLE
105
165
330
A
100
AcDbSymbolTableRecord
100
AcDbDimStyleTableRecord
  2
AM_ANSI
 70
     0
  4
mm
 41
0.1
 42
0.05
 43
0.5
 44
0.1
 47
0.1
 48
0.1
 78
     7
 79
     2
140
0.12
141
0.0
146
0.71
147
0.06
176
   256
177
   256
178
     2
274
     4
284
     7
340
F
371
    -1
372
    -1
  0
DIMSTYLE
105
166
330
A
100
AcDbSymbolTableRecord
100
AcDbDimStyleTableRecord
  2
AM_ANSI$3
 70
     0
  4
mm
 41
0.1
 42
0.05
 43
0.5
 44
0.1
 47
0.1
 48
0.1
 78
     7
 79
     2
140
0.12
141
0.0
146
0.71
147
0.06
176
   256
177
   256
178
     2
274
     4
284
     7
288
     1
289
     0
340
F
371
    -1
372
    -1
  0
DIMSTYLE
105
167
330
A
100
AcDbSymbolTableRecord
100
AcDbDimStyleTableRecord
  2
AM_ANSI$4
 70
     0
  4
mm
 41
0.1
 42
0.05
 43
0.5
 44
0.1
 47
0.1
 48
0.1
 78
     7
 79
     2
140
0.12
141
0.0
146
0.71
147
0.06
176
   256
177
   256
178
     2
274
     4
284
     7
288
     1
289
     0
340
F
371
    -1
372
    -1
  0
DIMSTYLE
105
168
330
A
100
AcDbSymbolTableRecord
100
AcDbDimStyleTableRecord
  2
AM_ANSI$7
 70
     0
  4
mm
 41
0.1
 42
0.05
 43
0.5
 44
0.1
 47
0.1
 48
0.1
 78
     7
 79
     2
140
0.24
141
0.0
146
0.71
147
0.06
176
   256
177
   256
178
     2
274
     4
284
     7
340
F
371
    -1
372
    -1
  0
DIMSTYLE
105
169
330
A
100
AcDbSymbolTableRecord
100
AcDbDimStyleTableRecord
  2
AM_ANSI$SF
 70
     0
  4
mm
 41
0.1
 42
0.05
 43
0.5
 44
0.1
 47
0.1
 48
0.1
 75
     1
 76
     1
 78
     7
 79
     2
140
0.12
141
0.0
146
0.71
147
0.06
176
   256
177
   256
178
     2
274
     4
284
     7
340
F
371
    -1
372
    -1
  0
DIMSTYLE
105
16E
330
A
100
AcDbSymbolTableRecord
100
AcDbDimStyleTableRecord
  2
AM_ANSI$SH
 70
     0
  4
mm
 41
0.1
 42
0.05
 43
0.5
 44
0.1
 47
0.1
 48
0.1
 75
     1
 76
     1
 78
     7
 79
     2
140
0.12
141
0.0
146
0.71
147
0.06
173
     1
176
   256
177
   256
178
     2
274
     4
284
     7
340
F
343
16A
371
    -1
372
    -1
  0
ENDTAB
  0
TABLE
  2
BLOCK_RECORD
  5
1
330
0
100
AcDbSymbolTable
 70
     7
  0
BLOCK_RECORD
  5
18
102
{ACAD_XDICTIONARY
360
172
102
}
330
1
100
AcDbSymbolTableRecord
100
AcDbBlockTableRecord
  2
*MODEL_SPACE
340
74
  0
BLOCK_RECORD
  5
15
330
1
100
AcDbSymbolTableRecord
100
AcDbBlockTableRecord
  2
*PAPER_SPACE
340
75
  0
BLOCK_RECORD
  5
53
330
1
100
AcDbSymbolTableRecord
100
AcDbBlockTableRecord
  2
A$C65FD32EE
340
0
102
{BLKREFS
331
6C
102
}
  0
BLOCK_RECORD
  5
12A
330
1
100
AcDbSymbolTableRecord
100
AcDbBlockTableRecord
  2
*U1
340
0
  0
BLOCK_RECORD
  5
16A
330
1
100
AcDbSymbolTableRecord
100
AcDbBlockTableRecord
  2
GENAXEH
340
0
  0
BLOCK_RECORD
  5
186
330
1
100
AcDbSymbolTableRecord
100
AcDbBlockTableRecord
  2
_None
340
0
  0
BLOCK_RECORD
  5
189
330
1
100
AcDbSymbolTableRecord
100
AcDbBlockTableRecord
  2
*D4
340
0
  0
BLOCK_RECORD
  5
20D
330
1
100
AcDbSymbolTableRecord
100
AcDbBlockTableRecord
  2
*D6
340
0
  0
ENDTAB
  0
ENDSEC
  0
SECTION
  2
BLOCKS
  0
BLOCK
  5
19
330
18
100
AcDbEntity
  8
0
100
AcDbBlockBegin
  2
*MODEL_SPACE
 70
     0
 10
0.0
 20
0.0
 30
0.0
  3
*MODEL_SPACE
  1

  0
ENDBLK
  5
1A
330
18
100
AcDbEntity
  8
0
100
AcDbBlockEnd
  0
BLOCK
  5
16
330
15
100
AcDbEntity
 67
     1
  8
0
100
AcDbBlockBegin
  2
*PAPER_SPACE
 70
     0
 10
0.0
 20
0.0
 30
0.0
  3
*PAPER_SPACE
  1

  0
ENDBLK
  5
17
330
15
100
AcDbEntity
 67
     1
  8
0
100
AcDbBlockEnd
  0
BLOCK
  5
6A
330
53
100
AcDbEntity
  8
0
100
AcDbBlockBegin
  2
A$C65FD32EE
 70
     0
 10
0.0
 20
0.0
 30
0.0
  3
A$C65FD32EE
  1

  0
CIRCLE
  5
54
330
53
100
AcDbEntity
  8
HALDER_NORMTEILE
  6
DASHED
 62
     3
100
AcDbCircle
 10
36.5
 20
36.5
 30
0.0
 40
15.0
  0
CIRCLE
  5
55
330
53
100
AcDbEntity
  8
HALDER_NORMTEILE
  6
DASHED
 62
     3
100
AcDbCircle
 10
36.5
 20
36.5
 30
0.0
 40
4.25
  0
CIRCLE
  5
56
330
53
100
AcDbEntity
  8
HALDER_NORMTEILE
  6
DASHED
 62
     3
100
AcDbCircle
 10
36.5
 20
36.5
 30
0.0
 40
12.5
  0
ARC
  5
57
330
53
100
AcDbEntity
  8
HALDER_NORMTEILE
 62
     7
100
AcDbCircle
 10
36.5
 20
63.0
 30
0.0
 40
5.0
100
AcDbArc
 50
358.8872839999999
 51
90.0
  0
ARC
  5
58
330
53
100
AcDbEntity
  8
HALDER_NORMTEILE
 62
     7
100
AcDbCircle
 10
36.5
 20
10.0
 30
0.0
 40
5.0
100
AcDbArc
 50
270.0
 51
1.112716
  0
ARC
  5
59
330
53
100
AcDbEntity
  8
HALDER_NORMTEILE
  6
DASHED
 62
     3
100
AcDbCircle
 10
36.5
 20
36.5
 30
0.0
 40
5.0
100
AcDbArc
 50
170.0
 51
100.0
  0
LINE
  5
5A
330
53
100
AcDbEntity
  8
HALDER_NORMTEILE_MITTELLINIE
  6
DASHDOT
 62
     2
100
AcDbLine
 10
0.0
 20
36.5
 30
0.0
 11
73.0
 21
36.5
 31
0.0
  0
ARC
  5
5B
330
53
100
AcDbEntity
  8
HALDER_NORMTEILE
 62
     7
100
AcDbCircle
 10
10.0
 20
36.5
 30
0.0
 40
5.0
100
AcDbArc
 50
88.88728399999999
 51
180.0
  0
LINE
  5
5C
330
53
100
AcDbEntity
  8
HALDER_NORMTEILE_MITTELLINIE
  6
DASHDOT
 62
     2
100
AcDbLine
 10
36.5
 20
0.0
 30
0.0
 11
36.5
 21
73.0
 31
0.0
  0
ARC
  5
5D
330
53
100
AcDbEntity
  8
HALDER_NORMTEILE
 62
     7
100
AcDbCircle
 10
10.504903
 20
10.504903
 30
0.0
 40
21.0
100
AcDbArc
 50
45.0
 51
91.112716
  0
ARC
  5
5E
330
53
100
AcDbEntity
  8
HALDER_NORMTEILE
 62
     7
100
AcDbCircle
 10
10.0
 20
36.5
 30
0.0
 40
5.0
100
AcDbArc
 50
180.0
 51
271.112716
  0
ARC
  5
5F
330
53
100
AcDbEntity
  8
HALDER_NORMTEILE
 62
     7
100
AcDbCircle
 10
10.504903
 20
10.504903
 30
0.0
 40
21.0
100
AcDbArc
 50
358.8872839999999
 51
45.0
  0
ARC
  5
60
330
53
100
AcDbEntity
  8
HALDER_NORMTEILE
 62
     7
100
AcDbCircle
 10
36.5
 20
10.0
 30
0.0
 40
5.0
100
AcDbArc
 50
178.887284
 51
270.0
  0
ARC
  5
61
330
53
100
AcDbEntity
  8
HALDER_NORMTEILE
 62
     7
100
AcDbCircle
 10
10.504903
 20
62.49509699999999
 30
0.0
 40
21.0
100
AcDbArc
 50
268.8872839999999
 51
315.0
  0
ARC
  5
62
330
53
100
AcDbEntity
  8
HALDER_NORMTEILE
 62
     7
100
AcDbCircle
 10
10.504903
 20
62.49509699999999
 30
0.0
 40
21.0
100
AcDbArc
 50
315.0
 51
1.112716
  0
ARC
  5
63
330
53
100
AcDbEntity
  8
HALDER_NORMTEILE
 62
     7
100
AcDbCircle
 10
36.5
 20
63.0
 30
0.0
 40
5.0
100
AcDbArc
 50
90.0
 51
181.1127159999999
  0
ARC
  5
64
330
53
100
AcDbEntity
  8
HALDER_NORMTEILE
 62
     7
100
AcDbCircle
 10
63.0
 20
36.5
 30
0.0
 40
5.0
100
AcDbArc
 50
0.0
 51
91.112716
  0
ARC
  5
65
330
53
100
AcDbEntity
  8
HALDER_NORMTEILE
 62
     7
100
AcDbCircle
 10
62.49509699999999
 20
10.504903
 30
0.0
 40
21.0
100
AcDbArc
 50
88.88728399999999
 51
135.0
  0
ARC
  5
66
330
53
100
AcDbEntity
  8
HALDER_NORMTEILE
 62
     7
100
AcDbCircle
 10
62.49509699999999
 20
10.504903
 30
0.0
 40
21.0
100
AcDbArc
 50
135.0
 51
181.1127159999999
  0
ARC
  5
67
330
53
100
AcDbEntity
  8
HALDER_NORMTEILE
 62
     7
100
AcDbCircle
 10
63.0
 20
36.5
 30
0.0
 40
5.0
100
AcDbArc
 50
268.8872839999999
 51
0.0
  0
ARC
  5
68
330
53
100
AcDbEntity
  8
HALDER_NORMTEILE
 62
     7
100
AcDbCircle
 10
62.49509699999999
 20
62.49509699999999
 30
0.0
 40
21.0
100
AcDbArc
 50
225.0
 51
271.112716
  0
ARC
  5
69
330
53
100
AcDbEntity
  8
HALDER_NORMTEILE
 62
     7
100
AcDbCircle
 10
62.49509699999999
 20
62.49509699999999
 30
0.0
 40
21.0
100
AcDbArc
 50
178.887284
 51
225.0
  0
ENDBLK
  5
6B
330
53
100
AcDbEntity
  8
0
100
AcDbBlockEnd
  0
BLOCK
  5
12B
330
12A
100
AcDbEntity
  8
0
100
AcDbBlockBegin
  2
*U1
 70
     1
 10
0.0
 20
0.0
 30
0.0
  3
*U1
  1

  0
ENDBLK
  5
12C
330
12A
100
AcDbEntity
  8
0
100
AcDbBlockEnd
  0
BLOCK
  5
16C
330
16A
100
AcDbEntity
  8
0
100
AcDbBlockBegin
  2
GENAXEH
 70
     0
 10
0.0
 20
0.0
 30
0.0
  3
GENAXEH
  1

  0
LINE
  5
16B
330
16A
100
AcDbEntity
  8
0
100
AcDbLine
 10
-1.0
 20
0.0
 30
0.0
 11
1.0
 21
0.0
 31
0.0
  0
ENDBLK
  5
16D
330
16A
100
AcDbEntity
  8
0
100
AcDbBlockEnd
  0
BLOCK
  5
187
330
186
100
AcDbEntity
  8
0
100
AcDbBlockBegin
  2
_None
 70
     0
 10
0.0
 20
0.0
 30
0.0
  3
_None
  1

  0
ENDBLK
  5
188
330
186
100
AcDbEntity
  8
0
100
AcDbBlockEnd
  0
BLOCK
  5
193
330
189
100
AcDbEntity
  8
0
100
AcDbBlockBegin
  2
*D4
 70
     1
 10
0.0
 20
0.0
 30
0.0
  3
*D4
  1

  0
LINE
  5
18A
330
189
100
AcDbEntity
  8
0
 62
     0
370
    -2
100
AcDbLine
 10
155.0428872260373
 20
152.0843874256446
 30
0.0
 11
125.4431370717142
 21
152.0843874256446
 31
0.0
  0
LINE
  5
18B
330
189
100
AcDbEntity
  8
0
 62
     0
370
    -2
100
AcDbLine
 10
155.0428872260373
 20
120.0843874256446
 30
0.0
 11
125.4431370717142
 21
120.0843874256446
 31
0.0
  0
LINE
  5
18C
330
189
100
AcDbEntity
  8
0
 62
     0
370
    -2
100
AcDbLine
 10
125.9431370717142
 20
150.0843874256446
 30
0.0
 11
125.9431370717142
 21
122.0843874256446
 31
0.0
  0
SOLID
  5
18D
330
189
100
AcDbEntity
  8
0
 62
     0
100
AcDbTrace
 10
125.6098037383809
 20
150.0843874256446
 30
0.0
 11
126.2764704050476
 21
150.0843874256446
 31
0.0
 12
125.9431370717142
 22
152.0843874256446
 32
0.0
 13
125.9431370717142
 23
152.0843874256446
 33
0.0
  0
SOLID
  5
18E
330
189
100
AcDbEntity
  8
0
 62
     0
100
AcDbTrace
 10
125.6098037383809
 20
122.0843874256446
 30
0.0
 11
126.2764704050476
 21
122.0843874256446
 31
0.0
 12
125.9431370717142
 22
120.0843874256446
 32
0.0
 13
125.9431370717142
 23
120.0843874256446
 33
0.0
  0
MTEXT
  5
18F
330
189
100
AcDbEntity
  8
0
 62
     0
100
AcDbMText
 10
123.8531370717142
 20
137.0955800040118
 30
0.0
 40
4.0
 41
0.0
 71
     5
 72
     1
  1
\A1;32
 11
0.0000000000000001
 21
1.0
 31
0.0
 73
     1
 44
1.0
  0
POINT
  5
190
330
189
100
AcDbEntity
  8
DEFPOINTS
 62
     0
100
AcDbPoint
 10
155.5428872260373
 20
152.0843874256446
 30
0.0
  0
POINT
  5
191
330
189
100
AcDbEntity
  8
DEFPOINTS
 62
     0
100
AcDbPoint
 10
155.5428872260373
 20
120.0843874256446
 30
0.0
  0
POINT
  5
192
330
189
100
AcDbEntity
  8
DEFPOINTS
 62
     0
100
AcDbPoint
 10
125.9431370717142
 20
120.0843874256446
 30
0.0
  0
ENDBLK
  5
194
330
189
100
AcDbEntity
  8
0
100
AcDbBlockEnd
  0
BLOCK
  5
217
330
20D
100
AcDbEntity
  8
0
100
AcDbBlockBegin
  2
*D6
 70
     1
 10
0.0
 20
0.0
 30
0.0
  3
*D6
  1

  0
LINE
  5
22C
330
20D
100
AcDbEntity
  8
0
 62
     0
370
    -2
100
AcDbLine
 10
2.388364773442191
 20
1.969698441007036
 30
0.0
 11
2.388364773442193
 21
31.56944859533016
 31
0.0
  0
LINE
  5
22D
330
20D
100
AcDbEntity
  8
0
 62
     0
370
    -2
100
AcDbLine
 10
-29.6116352265578
 20
1.969698441007042
 30
0.0
 11
-29.6116352265578
 21
31.56944859533016
 31
0.0
  0
LINE
  5
22E
330
20D
100
AcDbEntity
  8
0
 62
     0
370
    -2
100
AcDbLine
 10
0.3883647734421931
 20
31.06944859533015
 30
0.0
 11
-27.6116352265578
 21
31.06944859533015
 31
0.0
  0
SOLID
  5
22F
330
20D
100
AcDbEntity
  8
0
 62
     0
100
AcDbTrace
 10
0.3883647734421931
 20
31.40278192866349
 30
0.0
 11
0.3883647734421931
 21
30.73611526199682
 31
0.0
 12
2.388364773442193
 22
31.06944859533015
 32
0.0
 13
2.388364773442193
 23
31.06944859533015
 33
0.0
  0
SOLID
  5
230
330
20D
100
AcDbEntity
  8
0
 62
     0
100
AcDbTrace
 10
-27.6116352265578
 20
31.40278192866349
 30
0.0
 11
-27.6116352265578
 21
30.73611526199682
 31
0.0
 12
-29.6116352265578
 22
31.06944859533015
 32
0.0
 13
-29.6116352265578
 23
31.06944859533015
 33
0.0
  0
MTEXT
  5
231
330
20D
100
AcDbEntity
  8
0
 62
     0
100
AcDbMText
 10
-12.60044264819063
 20
33.15944859533016
 30
0.0
 40
4.0
 41
0.0
 71
     5
 72
     1
  1
\A1;32
 73
     1
 44
1.0
  0
POINT
  5
232
330
20D
100
AcDbEntity
  8
DEFPOINTS
 62
     0
100
AcDbPoint
 10
2.388364773442191
 20
1.469698441007036
 30
0.0
  0
POINT
  5
233
330
20D
100
AcDbEntity
  8
DEFPOINTS
 62
     0
100
AcDbPoint
 10
-29.6116352265578
 20
1.469698441007042
 30
0.0
  0
POINT
  5
234
330
20D
100
AcDbEntity
  8
DEFPOINTS
 62
     0
100
AcDbPoint
 10
-29.6116352265578
 20
31.06944859533015
 30
0.0
  0
ENDBLK
  5
218
330
20D
100
AcDbEntity
  8
0
100
AcDbBlockEnd
  0
ENDSEC
  0
SECTION
  2
ENTITIES
  0
LINE
  5
1DB
330
18
100
AcDbEntity
  8
1
100
AcDbLine
 10
-13.6116352265578
 20
11.8000718606811
 30
0.0
 11
-13.61163522655781
 21
-24.64213240917661
 31
0.0
  0
ARC
  5
1DC
330
18
100
AcDbEntity
  8
3
100
AcDbCircle
 10
-29.66391841957083
 20
59.83847670214148
 30
0.0
 40
14.20135659861267
100
AcDbArc
 50
8.309089505845241
 51
81.69091049415472
  0
ARC
  5
1DD
330
18
100
AcDbEntity
  8
3
100
AcDbCircle
 10
-29.66391841957076
 20
91.94304308816747
 30
0.0
 40
14.20135659861267
100
AcDbArc
 50
278.3090895058453
 51
351.6909104941547
  0
ARC
  5
1DF
330
18
100
AcDbEntity
  8
3
100
AcDbCircle
 10
-18.0334466618703
 20
-22.70173725940782
 30
0.0
 40
28.0
100
AcDbArc
 50
91.18321854578889
 51
111.6164737486178
  0
LINE
  5
1E0
330
18
100
AcDbEntity
  8
3
100
AcDbLine
 10
-27.91574959506567
 20
-4.96861305655085
 30
0.0
 11
-23.1116352265578
 21
-5.70770757478283
 31
0.0
  0
ARC
  5
1E1
330
18
100
AcDbEntity
  8
0
100
AcDbCircle
 10
-29.86192752283077
 20
92.14105397950513
 30
0.0
 40
15.25999999999999
100
AcDbArc
 50
278.9739225992203
 51
351.0261036147275
  0
ARC
  5
1E2
330
18
100
AcDbEntity
  8
0
100
AcDbCircle
 10
-29.86192931090847
 20
59.64046759888152
 30
0.0
 40
15.25999999999999
100
AcDbArc
 50
8.973922599220383
 51
81.02610361473002
  0
LINE
  5
1E3
330
18
100
AcDbEntity
  8
1
100
AcDbLine
 10
8.424225611378505
 20
75.89075989515444
 30
0.0
 11
-36.09720768478924
 21
75.89075989515444
 31
0.0
  0
ARC
  5
1E4
330
18
100
AcDbEntity
  8
3
100
AcDbCircle
 10
-27.61163522655778
 20
75.89075989515446
 30
0.0
 40
2.0
100
AcDbArc
 50
89.99999999999918
 51
180.0
  0
ARC
  5
1E5
330
18
100
AcDbEntity
  8
3
100
AcDbCircle
 10
-27.61163522655779
 20
75.89075989515449
 30
0.0
 40
2.0
100
AcDbArc
 50
180.0000000000007
 51
270.0
  0
ARC
  5
1E6
330
18
100
AcDbEntity
  8
0
100
AcDbCircle
 10
-27.09163522655785
 20
75.89075989515444
 30
0.0
 40
1.239999999999999
100
AcDbArc
 50
108.3297791224626
 51
251.6702208775372
  0
ARC
  5
1E7
330
18
100
AcDbEntity
  8
3
100
AcDbCircle
 10
-27.61163522655781
 20
-2.991869661249607
 30
0.0
 40
2.0
100
AcDbArc
 50
180.0
 51
261.2538377374444
  0
ARC
  5
1E8
330
18
100
AcDbEntity
  8
3
100
AcDbCircle
 10
-27.61163522655781
 20
1.469698441007041
 30
0.0
 40
2.0
100
AcDbArc
 50
111.6164737486178
 51
180.0
  0
LINE
  5
1E9
330
18
100
AcDbEntity
  8
3
100
AcDbLine
 10
-29.6116352265578
 20
1.469698441007043
 30
0.0
 11
-29.6116352265578
 21
-2.991869661249605
 31
0.0
  0
ARC
  5
1EA
330
18
100
AcDbEntity
  8
3
100
AcDbCircle
 10
-13.61163522655773
 20
89.89075989515447
 30
0.0
 40
2.0
100
AcDbArc
 50
90.00000000000079
 51
180.0
  0
ARC
  5
1EB
330
18
100
AcDbEntity
  8
3
100
AcDbCircle
 10
-13.61163522655779
 20
89.89075989515447
 30
0.0
 40
2.0
100
AcDbArc
 50
359.9999999999992
 51
89.99999999999998
  0
LINE
  5
1EC
330
18
100
AcDbEntity
  8
1
100
AcDbLine
 10
-13.61163522655779
 20
99.73565913474907
 30
0.0
 11
-13.6116352265578
 21
51.14605315339824
 31
0.0
  0
ARC
  5
1ED
330
18
100
AcDbEntity
  8
3
100
AcDbCircle
 10
2.440647966455186
 20
59.83847670214143
 30
0.0
 40
14.20135659861267
100
AcDbArc
 50
98.30908950584525
 51
171.6909104941547
  0
ARC
  5
1EE
330
18
100
AcDbEntity
  8
0
100
AcDbCircle
 10
2.638657069715135
 20
59.64046581080381
 30
0.0
 40
15.25999999999999
100
AcDbArc
 50
98.97392259922035
 51
171.02610361473
  0
ARC
  5
1EF
330
18
100
AcDbEntity
  8
3
100
AcDbCircle
 10
2.440647966455218
 20
91.94304308816745
 30
0.0
 40
14.20135659861267
100
AcDbArc
 50
188.3090895058452
 51
261.6909104941547
  0
ARC
  5
1F0
330
18
100
AcDbEntity
  8
0
100
AcDbCircle
 10
2.638658857792863
 20
92.14105219142737
 30
0.0
 40
15.25999999999999
100
AcDbArc
 50
188.9739225992204
 51
261.0261036147299
  0
ARC
  5
1F1
330
18
100
AcDbEntity
  8
0
100
AcDbCircle
 10
-13.61163522655779
 20
89.37075989515443
 30
0.0
 40
1.239999999999999
100
AcDbArc
 50
18.32977912246261
 51
161.6702208775373
  0
ARC
  5
1F2
330
18
100
AcDbEntity
  8
3
100
AcDbCircle
 10
0.3883647734422055
 20
75.89075989515443
 30
0.0
 40
2.0
100
AcDbArc
 50
0.0000000000008015
 51
89.99999999999998
  0
ARC
  5
1F3
330
18
100
AcDbEntity
  8
3
100
AcDbCircle
 10
0.3883647734422055
 20
75.89075989515444
 30
0.0
 40
2.0
100
AcDbArc
 50
269.9999999999992
 51
0.0
  0
ARC
  5
1F4
330
18
100
AcDbEntity
  8
0
100
AcDbCircle
 10
-0.1316352265578047
 20
75.89075989515447
 30
0.0
 40
1.239999999999999
100
AcDbArc
 50
288.3297791224626
 51
71.6702208775372
  0
ARC
  5
1F5
330
18
100
AcDbEntity
  8
3
100
AcDbCircle
 10
-13.61163522655782
 20
61.89075989515444
 30
0.0
 40
2.0
100
AcDbArc
 50
270.0000000000008
 51
0.0
  0
ARC
  5
1F6
330
18
100
AcDbEntity
  8
0
100
AcDbCircle
 10
-13.61163522655779
 20
62.41075989515445
 30
0.0
 40
1.239999999999999
100
AcDbArc
 50
198.3297791224626
 51
341.6702208775373
  0
ARC
  5
1F7
330
18
100
AcDbEntity
  8
3
100
AcDbCircle
 10
-13.61163522655782
 20
61.89075989515444
 30
0.0
 40
2.0
100
AcDbArc
 50
179.9999999999991
 51
270.0
  0
LINE
  5
1F8
330
18
100
AcDbEntity
  8
3
100
AcDbLine
 10
-19.67413522655781
 20
-15.70770757478283
 30
0.0
 11
-7.549135226557812
 21
-15.70770757478283
 31
0.0
  0
ARC
  5
1F9
330
18
100
AcDbEntity
  8
3
100
AcDbCircle
 10
-9.18982379124532
 20
-22.70173725940782
 30
0.0
 40
28.0
100
AcDbArc
 50
68.38352625138217
 51
88.8167814542111
  0
LINE
  5
1FA
330
18
100
AcDbEntity
  8
3
100
AcDbLine
 10
-16.61163522655781
 20
-3.70770757478283
 30
0.0
 11
-16.61163522655781
 21
-15.70770757478283
 31
0.0
  0
LINE
  5
1FB
330
18
100
AcDbEntity
  8
3
100
AcDbLine
 10
-10.61163522655781
 20
-15.70770757478283
 30
0.0
 11
-10.6116352265578
 21
-3.70770757478283
 31
0.0
  0
LINE
  5
1FC
330
18
100
AcDbEntity
  8
3
100
AcDbLine
 10
-13.6116352265578
 20
5.292292425217169
 30
0.0
 11
-18.61163522655712
 21
5.29229242521717
 31
0.0
  0
LINE
  5
1FD
330
18
100
AcDbEntity
  8
3
100
AcDbLine
 10
-13.6116352265578
 20
5.292292425217169
 30
0.0
 11
-8.61163522655849
 21
5.292292425217168
 31
0.0
  0
LINE
  5
1FE
330
18
100
AcDbEntity
  8
3
100
AcDbLine
 10
-11.1116352265578
 20
-1.70770757478283
 30
0.0
 11
-13.6116352265578
 21
-1.707707574782801
 31
0.0
  0
LINE
  5
1FF
330
18
100
AcDbEntity
  8
3
100
AcDbLine
 10
-11.1116352265578
 20
-1.70770757478283
 30
0.0
 11
-13.6116352265578
 21
-0.9834440693285841
 31
0.0
  0
LINE
  5
200
330
18
100
AcDbEntity
  8
3
100
AcDbLine
 10
-10.6116352265578
 20
-3.70770757478283
 30
0.0
 11
-16.61163522655781
 21
-3.70770757478283
 31
0.0
  0
LINE
  5
201
330
18
100
AcDbEntity
  8
3
100
AcDbLine
 10
-16.11163522655781
 20
-3.70770757478283
 30
0.0
 11
-16.11163522655781
 21
-1.70770757478283
 31
0.0
  0
LINE
  5
202
330
18
100
AcDbEntity
  8
3
100
AcDbLine
 10
-16.11163522655781
 20
-1.70770757478283
 30
0.0
 11
-13.6116352265578
 21
-0.9834440693285841
 31
0.0
  0
LINE
  5
203
330
18
100
AcDbEntity
  8
3
100
AcDbLine
 10
-16.11163522655781
 20
-1.70770757478283
 30
0.0
 11
-13.6116352265578
 21
-1.707707574782801
 31
0.0
  0
LINE
  5
204
330
18
100
AcDbEntity
  8
3
100
AcDbLine
 10
-11.1116352265578
 20
-3.70770757478283
 30
0.0
 11
-11.1116352265578
 21
-1.70770757478283
 31
0.0
  0
LINE
  5
205
330
18
100
AcDbEntity
  8
3
100
AcDbLine
 10
-19.67413522655781
 20
-15.70770757478283
 30
0.0
 11
-20.11163522655781
 21
-8.70770757478283
 31
0.0
  0
ARC
  5
206
330
18
100
AcDbEntity
  8
3
100
AcDbCircle
 10
-23.1116352265578
 20
-8.70770757478283
 30
0.0
 40
3.0
100
AcDbArc
 50
0.0
 51
89.99999999999918
  0
ARC
  5
207
330
18
100
AcDbEntity
  8
3
100
AcDbCircle
 10
0.3883647734421913
 20
-2.991869661249612
 30
0.0
 40
2.0
100
AcDbArc
 50
278.7461622625547
 51
0.0
  0
ARC
  5
208
330
18
100
AcDbEntity
  8
3
100
AcDbCircle
 10
0.3883647734421913
 20
1.469698441007036
 30
0.0
 40
2.0
100
AcDbArc
 50
0.0
 51
68.38352625138217
  0
LINE
  5
209
330
18
100
AcDbEntity
  8
3
100
AcDbLine
 10
2.388364773442191
 20
1.469698441007036
 30
0.0
 11
2.388364773442191
 21
-2.991869661249612
 31
0.0
  0
LINE
  5
20A
330
18
100
AcDbEntity
  8
3
100
AcDbLine
 10
-7.549135226557812
 20
-15.70770757478283
 30
0.0
 11
-7.111635226557808
 21
-8.70770757478283
 31
0.0
  0
LINE
  5
20B
330
18
100
AcDbEntity
  8
3
100
AcDbLine
 10
0.6924791419500594
 20
-4.968613056550854
 30
0.0
 11
-4.111635226557808
 21
-5.70770757478283
 31
0.0
  0
ARC
  5
20C
330
18
100
AcDbEntity
  8
3
100
AcDbCircle
 10
-4.11163522655781
 20
-8.707707574782833
 30
0.0
 40
3.0
100
AcDbArc
 50
90.00000000000079
 51
180.0
  0
TEXT
  5
235
330
18
100
AcDbEntity
  8
0
100
AcDbText
 10
10.0635624475133
 20
-23.34373350197466
 30
0.0
 40
3.5
  1
CK-32-R-SUS
100
AcDbText
  0
ENDSEC
  0
SECTION
  2
OBJECTS
  0
DICTIONARY
  5
C
330
0
100
AcDbDictionary
281
     1
  3
ACAD_GROUP
350
D
  3
ACAD_LAYOUT
350
72
  3
ACAD_MLINESTYLE
350
1B
  3
ACAD_PLOTSETTINGS
350
73
  3
ACAD_PLOTSTYLENAME
350
70
  3
AcDbVariableDictionary
350
17A
  3
AcmDictionary
350
134
  3
AMG
350
7A
  3
AMGSNAPSETTINGS
350
17D
  3
DWGPROPS
350
185
  3
MAPISURF_MODULE
350
106
  0
DICTIONARY
  5
172
330
18
100
AcDbDictionary
280
     1
281
     1
  3
ACAD_INDEX
360
173
  0
DICTIONARY
  5
D
102
{ACAD_REACTORS
330
C
102
}
330
C
100
AcDbDictionary
281
     1
  0
DICTIONARY
  5
72
102
{ACAD_REACTORS
330
C
102
}
330
C
100
AcDbDictionary
281
     1
  3
Model
350
74
  3
ﾚｲｱｳﾄ1
350
75
  0
DICTIONARY
  5
1B
102
{ACAD_REACTORS
330
C
102
}
330
C
100
AcDbDictionary
281
     1
  3
STANDARD
350
1C
  0
DICTIONARY
  5
73
102
{ACAD_REACTORS
330
C
102
}
330
C
100
AcDbDictionary
281
     1
  0
ACDBDICTIONARYWDFLT
  5
70
102
{ACAD_REACTORS
330
C
102
}
330
C
100
AcDbDictionary
281
     1
  3
Normal
350
71
100
AcDbDictionaryWithDefault
340
71
  0
DICTIONARY
  5
17A
102
{ACAD_REACTORS
330
C
102
}
330
C
100
AcDbDictionary
281
     1
  3
DIMASSOC
350
17C
  3
INDEXCTL
350
17B
  0
DICTIONARY
  5
134
102
{ACAD_REACTORS
330
C
102
}
330
C
100
AcDbDictionary
281
     1
  3
AcmBOMDATA
350
135
  3
AcmStdDictionary
350
143
  0
DICTIONARY
  5
7A
102
{ACAD_REACTORS
330
C
102
}
330
C
100
AcDbDictionary
281
     1
  3
AcMgSettings
350
7B
  3
AMGLAYCFG
350
145
  0
DICTIONARY
  5
17D
102
{ACAD_REACTORS
330
C
102
}
330
C
100
AcDbDictionary
281
     1
  3
DIMENSION
350
182
  3
FEA
350
181
  3
HATCH (1)
350
17E
  3
HATCH (2)
350
17F
  3
SIMPLE WELD
350
183
  3
SYMBOLS
350
180
  0
XRECORD
  5
185
102
{ACAD_REACTORS
330
C
102
}
330
C
100
AcDbXrecord
280
     1
  1
DWGPROPS COOKIE
  2

  3

  4

  6

  7

  8

  9

300
AmdtFileType=84
301
=
302
=
303
=
304
=
305
=
306
=
307
=
308
=
309
=
 40
0.0029077893518519
 41
2311940.850465301
 42
2454697.712712847
  1

 90
        1
  0
DICTIONARY
  5
173
102
{ACAD_REACTORS
330
172
102
}
330
172
100
AcDbDictionary
281
     1
  3
*A1
350
174
  0
LAYOUT
  5
74
102
{ACAD_REACTORS
330
72
102
}
330
72
100
AcDbPlotSettings
  1

  2
EPSON PM-3700C
  4

  6

 40
0.0
 41
0.0
 42
0.0
 43
0.0
 44
0.0
 45
0.0
 46
0.0
 47
0.0
 48
0.0
 49
0.0
140
0.0
141
0.0
142
1.0
143
1.0
 70
  1712
 72
     0
 73
     0
 74
     0
  7

 75
     0
147
1.0
148
0.0
149
0.0
100
AcDbLayout
  1
Model
 70
     1
 71
     0
 10
0.0
 20
0.0
 11
12.0
 21
9.0
 12
0.0
 22
0.0
 32
0.0
 14
0.0
 24
0.0
 34
0.0
 15
0.0
 25
0.0
 35
0.0
146
0.0
 13
0.0
 23
0.0
 33
0.0
 16
1.0
 26
0.0
 36
0.0
 17
0.0
 27
1.0
 37
0.0
 76
     0
330
18
  0
LAYOUT
  5
75
102
{ACAD_REACTORS
330
72
102
}
330
72
100
AcDbPlotSettings
  1

  2
EPSON PM-3700C
  4

  6

 40
0.0
 41
0.0
 42
0.0
 43
0.0
 44
0.0
 45
0.0
 46
0.0
 47
0.0
 48
0.0
 49
0.0
140
0.0
141
0.0
142
1.0
143
1.0
 70
   688
 72
     0
 73
     0
 74
     5
  7

 75
    16
147
1.0
148
0.0
149
0.0
100
AcDbLayout
  1
ﾚｲｱｳﾄ1
 70
     1
 71
     1
 10
0.0
 20
0.0
 11
12.0
 21
9.0
 12
0.0
 22
0.0
 32
0.0
 14
1.000000000000000E+20
 24
1.000000000000000E+20
 34
1.000000000000000E+20
 15
-1.000000000000000E+20
 25
-1.000000000000000E+20
 35
-1.000000000000000E+20
146
0.0
 13
0.0
 23
0.0
 33
0.0
 16
1.0
 26
0.0
 36
0.0
 17
0.0
 27
1.0
 37
0.0
 76
     0
330
15
  0
MLINESTYLE
  5
1C
102
{ACAD_REACTORS
330
1B
102
}
330
1B
100
AcDbMlineStyle
  2
STANDARD
 70
     0
  3

 62
   256
 51
90.0
 52
90.0
 71
     2
 49
0.5
 62
   256
  6
BYLAYER
 49
-0.5
 62
   256
  6
BYLAYER
  0
ACDBPLACEHOLDER
  5
71
102
{ACAD_REACTORS
330
70
102
}
330
70
  0
DICTIONARYVAR
  5
17C
102
{ACAD_REACTORS
330
17A
102
}
330
17A
100
DictionaryVariables
280
     0
  1
1
  0
DICTIONARYVAR
  5
17B
102
{ACAD_REACTORS
330
17A
102
}
330
17A
100
DictionaryVariables
280
     0
  1
1
  0
ACMDATADICTIONARY
  5
135
102
{ACAD_REACTORS
330
134
102
}
330
134
100
AcDbDictionary
281
     1
  3
*A1
350
136
100
AcmDataDictionary
  0
DICTIONARY
  5
143
102
{ACAD_REACTORS
330
134
102
}
330
134
100
AcDbDictionary
281
     1
  3
ANSI
350
144
  0
DICTIONARY
  5
7B
102
{ACAD_REACTORS
330
7A
102
}
330
7A
100
AcDbDictionary
281
     1
  3
DWGSETTINGS
350
7C
  3
TRANSSETTINGS
350
80
  0
ACAMGFILTERDAT
  5
182
102
{ACAD_REACTORS
330
17D
102
}
330
17D
100
AcAmgFilterDat
 70
    15
  1
DIMENSION,AMDT_*_DIM
  2
*
  3
*
  4
*
  5
*
290
     1
  0
ACAMGFILTERDAT
  5
181
102
{ACAD_REACTORS
330
17D
102
}
330
17D
100
AcAmgFilterDat
 70
    15
  1
*
  2
AM_FEA-AM_*
  3
*
  4
*
  5
*
290
     1
  0
ACAMGFILTERDAT
  5
17E
102
{ACAD_REACTORS
330
17D
102
}
330
17D
100
AcAmgFilterDat
 70
    15
  1
HATCH
  2
*
  3
*
  4
*
  5
*
290
     1
  0
ACAMGFILTERDAT
  5
17F
102
{ACAD_REACTORS
330
17D
102
}
330
17D
100
AcAmgFilterDat
 70
    15
  1
LINE
  2
8,8N,*-8,*-8N,AM_8,AM_8N,*-AM_8,*-AM_8N
  3
*
  4
*
  5
INSERT,STDPART2D
290
     1
  0
ACAMGFILTERDAT
  5
183
102
{ACAD_REACTORS
330
17D
102
}
330
17D
100
AcAmgFilterDat
 70
    15
  1
ARC
  2
AM_5
  3
*
  4
2
  5
INSERT
290
     0
  0
ACAMGFILTERDAT
  5
180
102
{ACAD_REACTORS
330
17D
102
}
330
17D
100
AcAmgFilterDat
 70
    15
  1
ACMFCFRAME,ACMDATUMTARGET,ACMDATUMID,ACMWELDSYM,ACMSURFSYM,ACMFEATID,ACMPARTREF,ACMBALLOON,AMDTEDGESYM,AMGSCREWCALCTABLE
  2
*
  3
*
  4
*
  5
*
290
     1
  0
LAYER_INDEX
  5
174
102
{ACAD_REACTORS
330
173
102
}
330
173
100
AcDbIndex
 40
2454697.713634792
100
AcDbLayerIndex
  8
0
360
175
 90
        9
  8
HALDER_NORMTEILE
360
176
 90
        0
  8
HALDER_NORMTEILE_MITTELLINIE
360
177
 90
        0
  8
HALDER_INFO
360
178
 90
        0
  8
1
360
236
 90
        3
  8
3
360
237
 90
       38
  8
DEFPOINTS
360
238
 90
        0
  0
ACMDATAENTRYBLOCK
  5
136
102
{ACAD_REACTORS
330
135
102
}
330
135
100
AcmDataEntry
100
AcmDataEntryBlock
  0
IDBUFFER
  5
175
330
0
100
AcDbIdBuffer
330
1F6
330
235
330
1E1
330
1E2
330
1E6
330
1EE
330
1F0
330
1F1
330
1F4
  0
IDBUFFER
  5
176
330
0
100
AcDbIdBuffer
  0
IDBUFFER
  5
177
330
0
100
AcDbIdBuffer
  0
IDBUFFER
  5
178
330
0
100
AcDbIdBuffer
  0
IDBUFFER
  5
236
330
0
100
AcDbIdBuffer
330
1DB
330
1E3
330
1EC
  0
IDBUFFER
  5
237
330
0
100
AcDbIdBuffer
330
1F7
330
1F8
330
1F9
330
1FA
330
1FB
330
1FC
330
1FD
330
1FE
330
1FF
330
200
330
201
330
202
330
203
330
204
330
205
330
206
330
207
330
208
330
209
330
20A
330
20B
330
20C
330
1DC
330
1DD
330
1DF
330
1E0
330
1E4
330
1E5
330
1E7
330
1E8
330
1E9
330
1EA
330
1EB
330
1ED
330
1EF
330
1F2
330
1F3
330
1F5
  0
IDBUFFER
  5
238
330
0
100
AcDbIdBuffer
  0
ENDSEC
  0
EOF
