  0
SECTION
  2
HEADER
  9
$ACADVER
  1
AC1015
  9
$ACADMAINTVER
 70
    13
  9
$DWGCODEPAGE
  3
ANSI_932
  9
$INSBASE
 10
0.0
 20
0.0
 30
0.0
  9
$EXTMIN
 10
19.74999999999999
 20
31.56666666666664
 30
0.0
  9
$EXTMAX
 10
166.0866666666666
 20
146.75
 30
0.0
  9
$LIMMIN
 10
0.0
 20
0.0
  9
$LIMMAX
 10
220.0
 20
170.0
  9
$ORTHOMODE
 70
     1
  9
$REGENMODE
 70
     1
  9
$FILLMODE
 70
     1
  9
$QTEXTMODE
 70
     0
  9
$MIRRTEXT
 70
     1
  9
$LTSCALE
 40
1.0
  9
$ATTMODE
 70
     1
  9
$TEXTSIZE
 40
7.0
  9
$TRACEWID
 40
1.0
  9
$TEXTSTYLE
  7
STANDARD
  9
$CLAYER
  8
2
  9
$CELTYPE
  6
ByLayer
  9
$CECOLOR
 62
   256
  9
$CELTSCALE
 40
1.0
  9
$DISPSILH
 70
     0
  9
$DIMSCALE
 40
1.0
  9
$DIMASZ
 40
2.5
  9
$DIMEXO
 40
0.625
  9
$DIMDLI
 40
3.75
  9
$DIMRND
 40
0.0
  9
$DIMDLE
 40
0.0
  9
$DIMEXE
 40
1.25
  9
$DIMTP
 40
0.0
  9
$DIMTM
 40
0.0
  9
$DIMTXT
 40
6.0
  9
$DIMCEN
 40
2.5
  9
$DIMTSZ
 40
0.0
  9
$DIMTOL
 70
     0
  9
$DIMLIM
 70
     0
  9
$DIMTIH
 70
     1
  9
$DIMTOH
 70
     0
  9
$DIMSE1
 70
     0
  9
$DIMSE2
 70
     0
  9
$DIMTAD
 70
     1
  9
$DIMZIN
 70
     8
  9
$DIMBLK
  1

  9
$DIMASO
 70
     1
  9
$DIMSHO
 70
     1
  9
$DIMPOST
  1

  9
$DIMAPOST
  1

  9
$DIMALT
 70
     0
  9
$DIMALTD
 70
     2
  9
$DIMALTF
 40
0.0394
  9
$DIMLFAC
 40
1.0
  9
$DIMTOFL
 70
     1
  9
$DIMTVP
 40
1.0
  9
$DIMTIX
 70
     0
  9
$DIMSOXD
 70
     0
  9
$DIMSAH
 70
     0
  9
$DIMBLK1
  1

  9
$DIMBLK2
  1

  9
$DIMSTYLE
  2
ISO-25
  9
$DIMCLRD
 70
     0
  9
$DIMCLRE
 70
     0
  9
$DIMCLRT
 70
     0
  9
$DIMTFAC
 40
1.0
  9
$DIMGAP
 40
0.625
  9
$DIMJUST
 70
     0
  9
$DIMSD1
 70
     0
  9
$DIMSD2
 70
     0
  9
$DIMTOLJ
 70
     1
  9
$DIMTZIN
 70
     0
  9
$DIMALTZ
 70
     0
  9
$DIMALTTZ
 70
     0
  9
$DIMUPT
 70
     0
  9
$DIMDEC
 70
     2
  9
$DIMTDEC
 70
     2
  9
$DIMALTU
 70
     2
  9
$DIMALTTD
 70
     2
  9
$DIMTXSTY
  7
STANDARD
  9
$DIMAUNIT
 70
     0
  9
$DIMADEC
 70
     2
  9
$DIMALTRND
 40
0.0
  9
$DIMAZIN
 70
     2
  9
$DIMDSEP
 70
    46
  9
$DIMATFIT
 70
     3
  9
$DIMFRAC
 70
     0
  9
$DIMLDRBLK
  1

  9
$DIMLUNIT
 70
     2
  9
$DIMLWD
 70
    -2
  9
$DIMLWE
 70
    -2
  9
$DIMTMOVE
 70
     0
  9
$LUNITS
 70
     2
  9
$LUPREC
 70
     4
  9
$SKETCHINC
 40
1.0
  9
$FILLETRAD
 40
2.0
  9
$AUNITS
 70
     0
  9
$AUPREC
 70
     0
  9
$MENU
  1
.
  9
$ELEVATION
 40
0.0
  9
$PELEVATION
 40
0.0
  9
$THICKNESS
 40
0.0
  9
$LIMCHECK
 70
     0
  9
$CHAMFERA
 40
0.5
  9
$CHAMFERB
 40
0.5
  9
$CHAMFERC
 40
0.0
  9
$CHAMFERD
 40
0.0
  9
$SKPOLY
 70
     0
  9
$TDCREATE
 40
2450687.576724537
  9
$TDUCREATE
 40
2450687.201724537
  9
$TDUPDATE
 40
2456524.703061516
  9
$TDUUPDATE
 40
2456524.328061516
  9
$TDINDWG
 40
0.0117831366
  9
$TDUSRTIMER
 40
0.0117831366
  9
$USRTIMER
 70
     1
  9
$ANGBASE
 50
0.0
  9
$ANGDIR
 70
     0
  9
$PDMODE
 70
     0
  9
$PDSIZE
 40
0.0
  9
$PLINEWID
 40
0.0
  9
$SPLFRAME
 70
     0
  9
$SPLINETYPE
 70
     6
  9
$SPLINESEGS
 70
     8
  9
$HANDSEED
  5
34B
  9
$SURFTAB1
 70
     6
  9
$SURFTAB2
 70
     6
  9
$SURFTYPE
 70
     6
  9
$SURFU
 70
     6
  9
$SURFV
 70
     6
  9
$UCSBASE
  2

  9
$UCSNAME
  2

  9
$UCSORG
 10
0.0
 20
0.0
 30
0.0
  9
$UCSXDIR
 10
1.0
 20
0.0
 30
0.0
  9
$UCSYDIR
 10
0.0
 20
1.0
 30
0.0
  9
$UCSORTHOREF
  2

  9
$UCSORTHOVIEW
 70
     0
  9
$UCSORGTOP
 10
0.0
 20
0.0
 30
0.0
  9
$UCSORGBOTTOM
 10
0.0
 20
0.0
 30
0.0
  9
$UCSORGLEFT
 10
0.0
 20
0.0
 30
0.0
  9
$UCSORGRIGHT
 10
0.0
 20
0.0
 30
0.0
  9
$UCSORGFRONT
 10
0.0
 20
0.0
 30
0.0
  9
$UCSORGBACK
 10
0.0
 20
0.0
 30
0.0
  9
$PUCSBASE
  2

  9
$PUCSNAME
  2

  9
$PUCSORG
 10
0.0
 20
0.0
 30
0.0
  9
$PUCSXDIR
 10
1.0
 20
0.0
 30
0.0
  9
$PUCSYDIR
 10
0.0
 20
1.0
 30
0.0
  9
$PUCSORTHOREF
  2

  9
$PUCSORTHOVIEW
 70
     0
  9
$PUCSORGTOP
 10
0.0
 20
0.0
 30
0.0
  9
$PUCSORGBOTTOM
 10
0.0
 20
0.0
 30
0.0
  9
$PUCSORGLEFT
 10
0.0
 20
0.0
 30
0.0
  9
$PUCSORGRIGHT
 10
0.0
 20
0.0
 30
0.0
  9
$PUCSORGFRONT
 10
0.0
 20
0.0
 30
0.0
  9
$PUCSORGBACK
 10
0.0
 20
0.0
 30
0.0
  9
$USERI1
 70
     0
  9
$USERI2
 70
     0
  9
$USERI3
 70
     0
  9
$USERI4
 70
     0
  9
$USERI5
 70
     0
  9
$USERR1
 40
0.0
  9
$USERR2
 40
0.0
  9
$USERR3
 40
0.0
  9
$USERR4
 40
0.0
  9
$USERR5
 40
0.0
  9
$WORLDVIEW
 70
     1
  9
$SHADEDGE
 70
     3
  9
$SHADEDIF
 70
    70
  9
$TILEMODE
 70
     1
  9
$MAXACTVP
 70
    16
  9
$PINSBASE
 10
0.0
 20
0.0
 30
0.0
  9
$PLIMCHECK
 70
     0
  9
$PEXTMIN
 10
1.000000000000000E+20
 20
1.000000000000000E+20
 30
1.000000000000000E+20
  9
$PEXTMAX
 10
-1.000000000000000E+20
 20
-1.000000000000000E+20
 30
-1.000000000000000E+20
  9
$PLIMMIN
 10
0.0
 20
0.0
  9
$PLIMMAX
 10
420.0
 20
297.0
  9
$UNITMODE
 70
     0
  9
$VISRETAIN
 70
     0
  9
$PLINEGEN
 70
     0
  9
$PSLTSCALE
 70
     1
  9
$TREEDEPTH
 70
  3020
  9
$CMLSTYLE
  2
Standard
  9
$CMLJUST
 70
     0
  9
$CMLSCALE
 40
1.0
  9
$PROXYGRAPHICS
 70
     1
  9
$MEASUREMENT
 70
     0
  9
$CELWEIGHT
370
    -1
  9
$ENDCAPS
280
     0
  9
$JOINSTYLE
280
     0
  9
$LWDISPLAY
290
     0
  9
$INSUNITS
 70
     0
  9
$HYPERLINKBASE
  1

  9
$STYLESHEET
  1

  9
$XEDIT
290
     1
  9
$CEPSNTYPE
380
     0
  9
$PSTYLEMODE
290
     1
  9
$FINGERPRINTGUID
  2
{9EA2C526-C873-4BE3-9181-E51F9A40749F}
  9
$VERSIONGUID
  2
{3255B4FC-A985-451C-99F5-3AC72E51D4C0}
  9
$EXTNAMES
290
     1
  9
$PSVPSCALE
 40
0.0
  9
$OLESTARTUP
290
     0
  0
ENDSEC
  0
SECTION
  2
CLASSES
  0
CLASS
  1
ACDBDICTIONARYWDFLT
  2
AcDbDictionaryWithDefault
  3
AutoCAD 2000
 90
        0
280
     0
281
     0
  0
CLASS
  1
ACDBPLACEHOLDER
  2
AcDbPlaceHolder
  3
AutoCAD 2000
 90
        0
280
     0
281
     0
  0
CLASS
  1
LAYOUT
  2
AcDbLayout
  3
AutoCAD 2000
 90
        0
280
     0
281
     0
  0
CLASS
  1
AMGSETTINGSOBJ
  2
AmgSettingsObj
  3
"AcadM|Product Description: AutoCAD Mechanical 2000|Company: Autodesk"
 90
        0
280
     0
281
     0
  0
CLASS
  1
ACME_DOCUMENT
  2
AcMeDbDoc
  3
AcMeServices
 90
        0
280
     0
281
     0
  0
CLASS
  1
ACMESCOPE
  2
AcMeScope
  3
AcMeServices
 90
        0
280
     0
281
     0
  0
CLASS
  1
ACMECOMMANDHISTORY
  2
AcMeCommandHistory
  3
AcMeServices
 90
        0
280
     0
281
     0
  0
CLASS
  1
ACIMSYSVARMAN
  2
AcImSysVarManager
  3
AcMeServices
 90
        0
280
     0
281
     0
  0
CLASS
  1
ACIMREALSYSVAR
  2
AcImRealSysVar
  3
AcMeServices
 90
        0
280
     0
281
     0
  0
CLASS
  1
ACIMINTSYSVAR
  2
AcImIntSysVar
  3
AcMeServices
 90
        0
280
     0
281
     0
  0
CLASS
  1
ACMEDRAWINGMAN
  2
AcMeDrawingMan
  3
AcMeServices
 90
        0
280
     0
281
     0
  0
CLASS
  1
ACMEVIEW
  2
AcMeView
  3
AcMeServices
 90
        0
280
     0
281
     0
  0
CLASS
  1
ACDBENTITYCACHE
  2
AcMeEntityCache
  3
AcMeServices
 90
        0
280
     0
281
     0
  0
CLASS
  1
GSMANAGER
  2
AcMeGSManager
  3
AcMeServices
 90
        0
280
     0
281
     0
  0
CLASS
  1
AMDTINTERNALREACTOR
  2
AmdtInternalReactor
  3
AcMeServices
 90
        0
280
     0
281
     0
  0
CLASS
  1
ACMESTATEMGR
  2
AcMeStateMgr
  3
AcMeServices
 90
        0
280
     0
281
     0
  0
CLASS
  1
ACGREFMASTER
  2
AcGrefMaster
  3
AcAttribServices
 90
        0
280
     0
281
     0
  0
CLASS
  1
AM_DRAWING_MGR
  2
AcDmDwgMgr
  3
AcMechDwgViewMgmt
 90
        0
280
     0
281
     0
  0
CLASS
  1
AM_DWG_DOCUMENT
  2
AcDmDwgDocument
  3
AcMechDwgViewMgmt
 90
        0
280
     0
281
     0
  0
CLASS
  1
AM_DWG_SHEET
  2
AcDmSheet
  3
AcMechDwgViewMgmt
 90
        0
280
     0
281
     0
  0
CLASS
  1
AM_VIEWDIMPARMAP
  2
AcDmViewDimParMap
  3
AcMechDwgViewMgmt
 90
        0
280
     0
281
     0
  0
CLASS
  1
AM_DWGMGR_NAME
  2
AcDmDwgMgrName
  3
AcMechDwgViewMgmt
 90
        0
280
     0
281
     0
  0
CLASS
  1
ACME_DATABASE
  2
AcMeDbDatabase
  3
AcMeServices
 90
        0
280
     0
281
     0
  0
CLASS
  1
ACRFINSADJUSTERMGR
  2
AcRfInsAdjusterMgr
  3
AcMeServices
 90
        0
280
     0
281
     0
  0
CLASS
  1
ACGREFACADMASTER
  2
AcGrefacadMaster
  3
AcGrefServices
 90
        0
280
     0
281
     0
  0
CLASS
  1
AMDTMENUSTATEMGR
  2
AmdtMenuStateMgr
  3
McadcomServices
 90
        0
280
     0
281
     0
  0
CLASS
  1
AMDTMCOMMENUSTATE
  2
AmdtMcomMenuState
  3
McadcomServices
 90
        0
280
     0
281
     0
  0
CLASS
  1
AMIMASTER
  2
AmiMaster
  3
AmiServices
 90
        0
280
     0
281
     0
  0
CLASS
  1
ASAPP
  2
AcAsAppObject
  3
AutoSurfServices
 90
        0
280
     0
281
     0
  0
CLASS
  1
IM_STATIC_MAN
  2
AcImStaticVarManager
  3
AcMeServices
 90
        0
280
     0
281
     0
  0
CLASS
  1
ACIMSTRSYSVAR
  2
AcImStrSysVar
  3
AcMeServices
 90
        0
280
     0
281
     0
  0
CLASS
  1
ACIMDBLSTATICVAR
  2
AcImDblStaticVar
  3
AcMeServices
 90
        0
280
     0
281
     0
  0
CLASS
  1
ACIMSTRSTATICVAR
  2
AcImStrStaticVar
  3
AcMeServices
 90
        0
280
     0
281
     0
  0
CLASS
  1
ACIMINTSTATICVAR
  2
AcImIntStaticVar
  3
AcMeServices
 90
        0
280
     0
281
     0
  0
CLASS
  1
ACASGREFMASTER
  2
AcAsGrefMaster
  3
AutoSurfResolverServices
 90
        0
280
     0
281
     0
  0
CLASS
  1
ACADGREFMODULE
  2
AcAdGrefModule
  3
AdGrefServices
 90
        0
280
     0
281
     0
  0
CLASS
  1
AMDTMAPISURFMOUDULE
  2
AmdtMApiSurfModule
  3
MApiSurfServices
 90
    32768
280
     0
281
     0
  0
CLASS
  1
MAPIAMMOUDLE
  2
MApiAmModule
  3
MApiAmServices
 90
        0
280
     0
281
     0
  0
CLASS
  1
AMDTADMENUSTATE
  2
AmdtAdMenuState
  3
DesignerServices
 90
        0
280
     0
281
     0
  0
CLASS
  1
ADAPPL
  2
AcAdAppl
  3
DesignerServices
 90
        0
280
     0
281
     0
  0
CLASS
  1
DEPMGR
  2
AcAdDepMgr
  3
DesignerServices
 90
        0
280
     0
281
     0
  0
CLASS
  1
PARAMMGR
  2
AcAdParamMgr
  3
DesignerServices
 90
        0
280
     0
281
     0
  0
CLASS
  1
PARAMSCOPE
  2
AcAdParamScope
  3
DesignerServices
 90
        0
280
     0
281
     0
  0
CLASS
  1
NAMEDAPPL
  2
AcAdNamedAppl
  3
DesignerServices
 90
        0
280
     0
281
     0
  0
CLASS
  1
AMDTDMMENUSTATE
  2
AmdtDmMenuState
  3
AcMechDwgViewMgmt
 90
        0
280
     0
281
     0
  0
CLASS
  1
MAPIADMODULE
  2
MApiAdModule
  3
MApiAdServices
 90
        0
280
     0
281
     0
  0
CLASS
  1
AMDTAMMENUSTATE
  2
AmdtAmMenuState
  3
DesignerAssemblies
 90
        0
280
     0
281
     0
  0
CLASS
  1
ACAMPROJECT
  2
AcAmProject
  3
DesignerAssemblies
 90
        0
280
     0
281
     0
  0
CLASS
  1
ACAMGRCOMPDEF
  2
AcAmGrCompDef
  3
DesignerAssemblies
 90
        0
280
     0
281
     0
  0
CLASS
  1
ACCMCONTEXT
  2
AcCmContext
  3
DesignerAssemblies
 90
        0
280
     0
281
     0
  0
CLASS
  1
ACAMCOMPDEF
  2
AcAmCompDef
  3
DesignerAssemblies
 90
        0
280
     0
281
     0
  0
CLASS
  1
ACAMCOMPDEFMGR
  2
AcAmCompDefMgr
  3
DesignerAssemblies
 90
        0
280
     0
281
     0
  0
CLASS
  1
AMCONTEXTMGR
  2
AcAmContextMgr
  3
DesignerAssemblies
 90
        0
280
     0
281
     0
  0
CLASS
  1
ACAMCONTEXTMODELER
  2
AcAmContextModeler
  3
DesignerAssemblies
 90
        0
280
     0
281
     0
  0
CLASS
  1
ACMDATADICTIONARY
  2
AcmDataDictionary
  3
"AcmSymBB|Product Description: AutoCAD Mechanical 2000|Company: Autodesk"
 90
        0
280
     0
281
     0
  0
CLASS
  1
ACMDATAENTRYBLOCK
  2
AcmDataEntryBlock
  3
"AcmSymBB|Product Description: AutoCAD Mechanical 2000|Company: Autodesk"
 90
        0
280
     0
281
     0
  0
CLASS
  1
CATALOGSTATE
  2
AcAmCatalogState
  3
DesignerAssemblies
 90
        0
280
     0
281
     0
  0
CLASS
  1
ACAMGRCOMPDEFSET
  2
AcAmGrCompDefSet
  3
DesignerAssemblies
 90
        0
280
     0
281
     0
  0
CLASS
  1
AMDTBROWSERDBTAB
  2
AmdtBrowserDbTab
  3
McadcomServices
 90
        0
280
     0
281
     0
  0
CLASS
  1
CBROWSERAPPOBJECT
  2
CBrowserAppObject
  3
McadcomServices
 90
        0
280
     0
281
     0
  0
CLASS
  1
DM_PLACEHOLDER
  2
AcDmSelsetPlaceholder
  3
AcMechDwgViewMgmt
 90
        0
280
     0
281
     0
  0
CLASS
  1
AMGOBJPROPCFG
  2
AmgObjPropCfg
  3
"AmgLay|Product Description: AutoCAD Mechanical 2000|Company: Autodesk"
 90
        1
280
     0
281
     0
  0
CLASS
  1
ACAMGFILTERDAT
  2
AcAmgFilterDat
  3
"AcadM|Product Description: AutoCAD Mechanical 2000|Company: Autodesk"
 90
        0
280
     0
281
     0
  0
CLASS
  1
LAYER_INDEX
  2
AcDbLayerIndex
  3
AutoCAD 2000
 90
        0
280
     0
281
     0
  0
CLASS
  1
IDBUFFER
  2
AcDbIdBuffer
  3
AutoCAD 2000
 90
        0
280
     0
281
     0
  0
CLASS
  1
DICTIONARYVAR
  2
AcDbDictionaryVar
  3
AutoCAD 2000
 90
        0
280
     0
281
     0
  0
CLASS
  1
AMDTFORMULAUPDATEDISPATCHER
  2
AmdtFormulaUpdateDispatcher
  3
AcMeServices
 90
        0
280
     0
281
     0
  0
ENDSEC
  0
SECTION
  2
TABLES
  0
TABLE
  2
VPORT
  5
8
330
0
100
AcDbSymbolTable
 70
     3
  0
VPORT
  5
34A
330
8
100
AcDbSymbolTableRecord
100
AcDbViewportTableRecord
  2
*Active
 70
     0
 10
0.0
 20
0.0
 11
1.0
 21
1.0
 12
0.0
 22
0.0
 13
0.0
 23
0.0
 14
0.25
 24
0.25
 15
0.5
 25
0.5
 16
0.0
 26
0.0
 36
1.0
 17
134.8647018545767
 27
90.53012048192773
 37
0.0
 40
181.0602409638553
 41
1.489721886336154
 42
50.0
 43
0.0
 44
0.0
 50
0.0
 51
0.0
 71
     0
 72
 20000
 73
     1
 74
     1
 75
     0
 76
     0
 77
     0
 78
     0
281
     0
 65
     0
110
0.0
120
0.0
130
0.0
111
1.0
121
0.0
131
0.0
112
0.0
122
1.0
132
0.0
 79
     0
146
0.0
  0
ENDTAB
  0
TABLE
  2
LTYPE
  5
5
330
0
100
AcDbSymbolTable
 70
    18
  0
LTYPE
  5
13
330
5
100
AcDbSymbolTableRecord
100
AcDbLinetypeTableRecord
  2
ByBlock
 70
     0
  3

 72
    65
 73
     0
 40
0.0
  0
LTYPE
  5
14
330
5
100
AcDbSymbolTableRecord
100
AcDbLinetypeTableRecord
  2
ByLayer
 70
     0
  3

 72
    65
 73
     0
 40
0.0
  0
LTYPE
  5
15
330
5
100
AcDbSymbolTableRecord
100
AcDbLinetypeTableRecord
  2
CONTINUOUS
 70
     0
  3
Solid line
 72
    65
 73
     0
 40
0.0
  0
LTYPE
  5
23
330
5
100
AcDbSymbolTableRecord
100
AcDbLinetypeTableRecord
  2
TENSEN
 70
     0
  3

 72
    65
 73
     2
 40
2.5
 49
1.5
 74
     0
 49
-1.0
 74
     0
  0
LTYPE
  5
24
330
5
100
AcDbSymbolTableRecord
100
AcDbLinetypeTableRecord
  2
ITTEN
 70
     0
  3

 72
    65
 73
     4
 40
3.6
 49
2.0
 74
     0
 49
-0.5
 74
     0
 49
0.6
 74
     0
 49
-0.5
 74
     0
  0
LTYPE
  5
C1
330
5
100
AcDbSymbolTableRecord
100
AcDbLinetypeTableRecord
  2
HIDDEN
 70
     0
  3
Hidden __ __ __ __ __ __ __ __ __ __ __ __ __ _
 72
    65
 73
     2
 40
0.375
 49
0.25
 74
     0
 49
-0.125
 74
     0
  0
LTYPE
  5
C2
330
5
100
AcDbSymbolTableRecord
100
AcDbLinetypeTableRecord
  2
PHANTOM2
 70
     0
  3
Phantom (.5x) ___ _ _ ___ _ _ ___ _ _ ___ _ _
 72
    65
 73
     6
 40
1.25
 49
0.625
 74
     0
 49
-0.125
 74
     0
 49
0.125
 74
     0
 49
-0.125
 74
     0
 49
0.125
 74
     0
 49
-0.125
 74
     0
  0
LTYPE
  5
C3
330
5
100
AcDbSymbolTableRecord
100
AcDbLinetypeTableRecord
  2
CENTER
 70
     0
  3
Center ____ _ ____ _ ____ _ ____ _ ____ _ ____
 72
    65
 73
     4
 40
2.0
 49
1.25
 74
     0
 49
-0.25
 74
     0
 49
0.25
 74
     0
 49
-0.25
 74
     0
  0
LTYPE
  5
125
330
5
100
AcDbSymbolTableRecord
100
AcDbLinetypeTableRecord
  2
ASULTYPE
 70
     0
  3
実線
 72
    65
 73
     2
 40
3.0
 49
2.5
 74
     0
 49
0.5
 74
     0
  0
LTYPE
  5
126
330
5
100
AcDbSymbolTableRecord
100
AcDbLinetypeTableRecord
  2
ASVLTYPE
 70
     0
  3
__ __ __ __ __ __ __ __ __ __ __ __ __ __ __ __ __ __ __ __ __
 72
    65
 73
     2
 40
0.75
 49
0.5
 74
     0
 49
-0.25
 74
     0
  0
LTYPE
  5
167
330
5
100
AcDbSymbolTableRecord
100
AcDbLinetypeTableRecord
  2
AM_ISO02W050
 70
     0
  3
__ __ __ __ __ __ __ __ __ __ __ __ __ __ __
 72
    65
 73
     2
 40
7.5
 49
6.0
 74
     0
 49
-1.5
 74
     0
  0
LTYPE
  5
168
330
5
100
AcDbSymbolTableRecord
100
AcDbLinetypeTableRecord
  2
AM_ISO08W050
 70
     0
  3
____ . ____ . ____ . ____ . ____ . ____ . ____
 72
    65
 73
     4
 40
18.0
 49
12.0
 74
     0
 49
-1.5
 74
     0
 49
3.0
 74
     0
 49
-1.5
 74
     0
  0
LTYPE
  5
169
330
5
100
AcDbSymbolTableRecord
100
AcDbLinetypeTableRecord
  2
AM_ISO09W050
 70
     0
  3
_____ . . _____ . . _____ . . ____ .. ____
 72
    65
 73
     6
 40
22.5
 49
12.0
 74
     0
 49
-1.5
 74
     0
 49
3.0
 74
     0
 49
-1.5
 74
     0
 49
3.0
 74
     0
 49
-1.5
 74
     0
  0
LTYPE
  5
16A
330
5
100
AcDbSymbolTableRecord
100
AcDbLinetypeTableRecord
  2
Amconstr
 70
     0
  3
_______________________
 72
    65
 73
     2
 40
9999.0
 49
9999.0
 74
     0
 49
0.0
 74
     0
  0
LTYPE
  5
16B
330
5
100
AcDbSymbolTableRecord
100
AcDbLinetypeTableRecord
  2
AM_ISO08W050x2
 70
     0
  3
__ . __ . __ . __ . __ . __
 72
    65
 73
     4
 40
9.0
 49
6.0
 74
     0
 49
-0.75
 74
     0
 49
1.5
 74
     0
 49
-0.75
 74
     0
  0
LTYPE
  5
16C
330
5
100
AcDbSymbolTableRecord
100
AcDbLinetypeTableRecord
  2
AM_ISO02W050x2
 70
     0
  3
 _ _ _ _ _ _ _ _ _ _ _ _
 72
    65
 73
     2
 40
3.75
 49
3.0
 74
     0
 49
-0.75
 74
     0
  0
LTYPE
  5
16F
330
5
100
AcDbSymbolTableRecord
100
AcDbLinetypeTableRecord
  2
Amzigzag
 70
     0
  3
/\/-/\/-/\/-/\/-/\/-/\/
 72
    65
 73
     2
 40
11.00009999999999
 49
0.0001
 74
     4
 75
   135
340
16E
 46
0.04
 50
0.0
 44
0.0
 45
0.0
 49
-11.0
 74
     0
  0
LTYPE
  5
170
330
5
100
AcDbSymbolTableRecord
100
AcDbLinetypeTableRecord
  2
CENTER2
 70
     0
  3
Center (.5x) ___ _ ___ _ ___ _ ___ _ ___ _ ___
 72
    65
 73
     4
 40
1.125
 49
0.75
 74
     0
 49
-0.125
 74
     0
 49
0.125
 74
     0
 49
-0.125
 74
     0
  0
LTYPE
  5
171
330
5
100
AcDbSymbolTableRecord
100
AcDbLinetypeTableRecord
  2
HIDDEN2
 70
     0
  3
Hidden (.5x) _ _ _ _ _ _ _ _ _ _ _ _ _ _ _ _ _
 72
    65
 73
     2
 40
0.1875
 49
0.125
 74
     0
 49
-0.0625
 74
     0
  0
LTYPE
  5
172
330
5
100
AcDbSymbolTableRecord
100
AcDbLinetypeTableRecord
  2
Amzigzag2
 70
     0
  3
/\/-/\/-/\/-/\/-/\/-/\/
 72
    65
 73
     2
 40
0.4401
 49
0.0001
 74
     4
 75
   135
340
16E
 46
0.0016
 50
0.0
 44
0.0
 45
0.0
 49
-0.4400000000000002
 74
     0
  0
ENDTAB
  0
TABLE
  2
LAYER
  5
2
330
0
100
AcDbSymbolTable
 70
     4
  0
LAYER
  5
10
330
2
100
AcDbSymbolTableRecord
100
AcDbLayerTableRecord
  2
0
 70
     0
 62
     7
  6
CONTINUOUS
370
    -3
390
F
  0
LAYER
  5
25
330
2
100
AcDbSymbolTableRecord
100
AcDbLayerTableRecord
  2
2
 70
     0
 62
     7
  6
TENSEN
370
    -3
390
F
  0
LAYER
  5
26
330
2
100
AcDbSymbolTableRecord
100
AcDbLayerTableRecord
  2
1
 70
     0
 62
     1
  6
ITTEN
370
    -3
390
F
  0
LAYER
  5
17D
330
2
100
AcDbSymbolTableRecord
100
AcDbLayerTableRecord
  2
Defpoints
 70
     0
 62
     7
  6
CONTINUOUS
290
     0
370
    -3
390
F
  0
ENDTAB
  0
TABLE
  2
STYLE
  5
3
330
0
100
AcDbSymbolTable
 70
     2
  0
STYLE
  5
11
330
3
100
AcDbSymbolTableRecord
100
AcDbTextStyleTableRecord
  2
STANDARD
 70
     0
 40
7.0
 41
0.8
 50
0.0
 71
     0
 42
7.0
  3
ISOCP
  4
B:\r13\com\fonts\bigfont.shx
  0
STYLE
  5
16E
330
3
100
AcDbSymbolTableRecord
100
AcDbTextStyleTableRecord
  2

 70
     1
 40
0.0
 41
1.0
 50
0.0
 71
     0
 42
7.0
  3
ltypeshp.shx
  4

  0
ENDTAB
  0
TABLE
  2
VIEW
  5
6
330
0
100
AcDbSymbolTable
 70
     0
  0
ENDTAB
  0
TABLE
  2
UCS
  5
7
330
0
100
AcDbSymbolTable
 70
     0
  0
ENDTAB
  0
TABLE
  2
APPID
  5
9
330
0
100
AcDbSymbolTable
 70
    12
  0
APPID
  5
12
330
9
100
AcDbSymbolTableRecord
100
AcDbRegAppTableRecord
  2
ACAD
 70
     0
  0
APPID
  5
A0
330
9
100
AcDbSymbolTableRecord
100
AcDbRegAppTableRecord
  2
GENIUS_GENDIM_13
 70
     0
  0
APPID
  5
A1
330
9
100
AcDbSymbolTableRecord
100
AcDbRegAppTableRecord
  2
GENIUS_GENDTOL_13
 70
     0
  0
APPID
  5
A2
330
9
100
AcDbSymbolTableRecord
100
AcDbRegAppTableRecord
  2
GENIUS_GE3DTOL_13
 70
     0
  0
APPID
  5
A4
330
9
100
AcDbSymbolTableRecord
100
AcDbRegAppTableRecord
  2
MCAD_NO_VIS
 70
     0
  0
APPID
  5
A5
330
9
100
AcDbSymbolTableRecord
100
AcDbRegAppTableRecord
  2
ACAD_TEMP_GRAPHIC
 70
     0
  0
APPID
  5
D8
330
9
100
AcDbSymbolTableRecord
100
AcDbRegAppTableRecord
  2
AD_DRAW
 70
     0
  0
APPID
  5
DB
330
9
100
AcDbSymbolTableRecord
100
AcDbRegAppTableRecord
  2
ACATTRIBSERVICES
 70
     0
  0
APPID
  5
127
330
9
100
AcDbSymbolTableRecord
100
AcDbRegAppTableRecord
  2
ASURF_PCURVE_APPNAME
 70
     0
  0
APPID
  5
156
330
9
100
AcDbSymbolTableRecord
100
AcDbRegAppTableRecord
  2
DESIGNERASSEMBLIES
 70
     0
  0
APPID
  5
15E
330
9
100
AcDbSymbolTableRecord
100
AcDbRegAppTableRecord
  2
ACADM_DIM_EDIT
 70
     0
  0
APPID
  5
15F
330
9
100
AcDbSymbolTableRecord
100
AcDbRegAppTableRecord
  2
AMDT_DM_ADJ
 70
     0
  0
ENDTAB
  0
TABLE
  2
DIMSTYLE
  5
A
330
0
100
AcDbSymbolTable
 70
     1
100
AcDbDimStyleTable
 71
     1
340
27
  0
DIMSTYLE
105
27
330
A
100
AcDbSymbolTableRecord
100
AcDbDimStyleTableRecord
  2
ISO-25
 70
     0
 41
2.5
 42
0.625
 43
3.75
 44
1.25
 74
     0
 77
     1
 78
     8
140
2.5
141
2.5
143
0.0394
145
1.0
147
0.625
172
     1
279
     2
284
     8
285
     8
286
     8
340
11
  0
ENDTAB
  0
TABLE
  2
BLOCK_RECORD
  5
1
330
0
100
AcDbSymbolTable
 70
    11
  0
BLOCK_RECORD
  5
1E
102
{ACAD_XDICTIONARY
360
27D
102
}
330
1
100
AcDbSymbolTableRecord
100
AcDbBlockTableRecord
  2
*Model_Space
340
21
  0
BLOCK_RECORD
  5
1A
330
1
100
AcDbSymbolTableRecord
100
AcDbBlockTableRecord
  2
*Paper_Space
340
1D
  0
BLOCK_RECORD
  5
14D
330
1
100
AcDbSymbolTableRecord
100
AcDbBlockTableRecord
  2
*U0
340
0
  0
BLOCK_RECORD
  5
17E
330
1
100
AcDbSymbolTableRecord
100
AcDbBlockTableRecord
  2
*D1
340
0
  0
BLOCK_RECORD
  5
18D
330
1
100
AcDbSymbolTableRecord
100
AcDbBlockTableRecord
  2
*D2
340
0
  0
BLOCK_RECORD
  5
19C
330
1
100
AcDbSymbolTableRecord
100
AcDbBlockTableRecord
  2
*D3
340
0
  0
BLOCK_RECORD
  5
1AB
330
1
100
AcDbSymbolTableRecord
100
AcDbBlockTableRecord
  2
*D4
340
0
  0
BLOCK_RECORD
  5
1B9
330
1
100
AcDbSymbolTableRecord
100
AcDbBlockTableRecord
  2
*D5
340
0
  0
BLOCK_RECORD
  5
1E1
330
1
100
AcDbSymbolTableRecord
100
AcDbBlockTableRecord
  2
*D6
340
0
  0
BLOCK_RECORD
  5
20B
330
1
100
AcDbSymbolTableRecord
100
AcDbBlockTableRecord
  2
*D7
340
0
  0
BLOCK_RECORD
  5
21A
330
1
100
AcDbSymbolTableRecord
100
AcDbBlockTableRecord
  2
*D8
340
0
  0
BLOCK_RECORD
  5
229
330
1
100
AcDbSymbolTableRecord
100
AcDbBlockTableRecord
  2
*D9
340
0
  0
BLOCK_RECORD
  5
332
330
1
100
AcDbSymbolTableRecord
100
AcDbBlockTableRecord
  2
*U10
340
0
  0
ENDTAB
  0
ENDSEC
  0
SECTION
  2
BLOCKS
  0
BLOCK
  5
1F
330
1E
100
AcDbEntity
  8
0
100
AcDbBlockBegin
  2
*Model_Space
 70
     0
 10
0.0
 20
0.0
 30
0.0
  3
*Model_Space
  1

  0
ENDBLK
  5
20
330
1E
100
AcDbEntity
  8
0
100
AcDbBlockEnd
  0
BLOCK
  5
1B
330
1A
100
AcDbEntity
 67
     1
  8
0
100
AcDbBlockBegin
  2
*Paper_Space
 70
     0
 10
0.0
 20
0.0
 30
0.0
  3
*Paper_Space
  1

  0
ENDBLK
  5
1C
330
1A
100
AcDbEntity
 67
     1
  8
0
100
AcDbBlockEnd
  0
BLOCK
  5
14E
330
14D
100
AcDbEntity
  8
0
100
AcDbBlockBegin
  2
*U0
 70
     1
 10
0.0
 20
0.0
 30
0.0
  3
*U0
  1

  0
ENDBLK
  5
14F
330
14D
100
AcDbEntity
  8
0
100
AcDbBlockEnd
  0
BLOCK
  5
18A
330
17E
100
AcDbEntity
  8
0
100
AcDbBlockBegin
  2
*D1
 70
     1
 10
0.0
 20
0.0
 30
0.0
  3
*D1
  1

  0
LINE
  5
1CB
330
17E
100
AcDbEntity
  8
0
 62
     0
370
    -2
100
AcDbLine
 10
69.15
 20
131.6249999999999
 30
0.0
 11
69.15
 21
120.4673911440304
 31
0.0
  0
LINE
  5
1CC
330
17E
100
AcDbEntity
  8
0
 62
     0
370
    -2
100
AcDbLine
 10
67.15
 20
133.5018943743822
 30
0.0
 11
67.15
 21
120.4673911440304
 31
0.0
  0
LINE
  5
1CD
330
17E
100
AcDbEntity
  8
0
 62
     0
370
    -2
100
AcDbLine
 10
71.65
 20
121.7173911440303
 30
0.0
 11
74.15
 21
121.7173911440303
 31
0.0
  0
LINE
  5
1CE
330
17E
100
AcDbEntity
  8
0
 62
     0
370
    -2
100
AcDbLine
 10
64.65
 20
121.7173911440303
 30
0.0
 11
58.18146456692915
 21
121.7173911440303
 31
0.0
  0
LINE
  5
1CF
330
17E
100
AcDbEntity
  8
0
 62
     0
370
    -2
100
AcDbLine
 10
69.15
 20
121.7173911440303
 30
0.0
 11
67.15
 21
121.7173911440303
 31
0.0
  0
SOLID
  5
1D0
330
17E
100
AcDbEntity
  8
0
 62
     0
100
AcDbTrace
 10
71.65
 20
122.1340578106971
 30
0.0
 11
71.65
 21
121.3007244773637
 31
0.0
 12
69.15
 22
121.7173911440303
 32
0.0
 13
69.15
 23
121.7173911440303
 33
0.0
  0
SOLID
  5
1D1
330
17E
100
AcDbEntity
  8
0
 62
     0
100
AcDbTrace
 10
64.65
 20
122.1340578106971
 30
0.0
 11
64.65
 21
121.3007244773637
 31
0.0
 12
67.15
 22
121.7173911440303
 32
0.0
 13
67.15
 23
121.7173911440303
 33
0.0
  0
MTEXT
  5
1D2
330
17E
100
AcDbEntity
  8
0
 62
     0
100
AcDbMText
 10
60.16573228346458
 20
125.8430801204084
 30
0.0
 40
7.0
 41
0.0
 71
     5
 72
     1
  1
\A1;2
 73
     1
 44
1.0
  0
POINT
  5
1D3
330
17E
100
AcDbEntity
  8
Defpoints
 62
     0
100
AcDbPoint
 10
69.15
 20
132.25
 30
0.0
  0
POINT
  5
1D4
330
17E
100
AcDbEntity
  8
Defpoints
 62
     0
100
AcDbPoint
 10
67.15
 20
134.1268943743822
 30
0.0
  0
POINT
  5
1D5
330
17E
100
AcDbEntity
  8
Defpoints
 62
     0
100
AcDbPoint
 10
67.15
 20
121.7173911440303
 30
0.0
  0
ENDBLK
  5
18B
330
17E
100
AcDbEntity
  8
0
100
AcDbBlockEnd
  0
BLOCK
  5
199
330
18D
100
AcDbEntity
  8
0
100
AcDbBlockBegin
  2
*D2
 70
     1
 10
0.0
 20
0.0
 30
0.0
  3
*D2
  1

  0
LINE
  5
18E
330
18D
100
AcDbEntity
  8
0
 62
     0
370
    -2
100
AcDbLine
 10
67.75
 20
147.375
 30
0.0
 11
67.75
 21
151.7789855960814
 31
0.0
  0
LINE
  5
18F
330
18D
100
AcDbEntity
  8
0
 62
     0
370
    -2
100
AcDbLine
 10
63.75
 20
147.375
 30
0.0
 11
63.75
 21
151.7789855960814
 31
0.0
  0
LINE
  5
190
330
18D
100
AcDbEntity
  8
0
 62
     0
370
    -2
100
AcDbLine
 10
70.25
 20
150.5289855960814
 30
0.0
 11
72.75
 21
150.5289855960814
 31
0.0
  0
LINE
  5
191
330
18D
100
AcDbEntity
  8
0
 62
     0
370
    -2
100
AcDbLine
 10
61.25
 20
150.5289855960814
 30
0.0
 11
54.7
 21
150.5289855960814
 31
0.0
  0
LINE
  5
192
330
18D
100
AcDbEntity
  8
0
 62
     0
370
    -2
100
AcDbLine
 10
67.75
 20
150.5289855960814
 30
0.0
 11
63.75
 21
150.5289855960814
 31
0.0
  0
SOLID
  5
193
330
18D
100
AcDbEntity
  8
0
 62
     0
100
AcDbTrace
 10
70.25
 20
150.945652262748
 30
0.0
 11
70.25
 21
150.1123189294148
 31
0.0
 12
67.75
 22
150.5289855960814
 32
0.0
 13
67.75
 23
150.5289855960814
 33
0.0
  0
SOLID
  5
194
330
18D
100
AcDbEntity
  8
0
 62
     0
100
AcDbTrace
 10
61.25
 20
150.945652262748
 30
0.0
 11
61.25
 21
150.1123189294148
 31
0.0
 12
63.75
 22
150.5289855960814
 32
0.0
 13
63.75
 23
150.5289855960814
 33
0.0
  0
MTEXT
  5
195
330
18D
100
AcDbEntity
  8
0
 62
     0
100
AcDbMText
 10
56.725
 20
154.6539855960815
 30
0.0
 40
7.0
 41
0.0
 71
     5
 72
     1
  1
\A1;4
 73
     1
 44
1.0
  0
POINT
  5
196
330
18D
100
AcDbEntity
  8
Defpoints
 62
     0
100
AcDbPoint
 10
67.75
 20
146.75
 30
0.0
  0
POINT
  5
197
330
18D
100
AcDbEntity
  8
Defpoints
 62
     0
100
AcDbPoint
 10
63.75
 20
146.75
 30
0.0
  0
POINT
  5
198
330
18D
100
AcDbEntity
  8
Defpoints
 62
     0
100
AcDbPoint
 10
63.75
 20
150.5289855960814
 30
0.0
  0
ENDBLK
  5
19A
330
18D
100
AcDbEntity
  8
0
100
AcDbBlockEnd
  0
BLOCK
  5
1A8
330
19C
100
AcDbEntity
  8
0
100
AcDbBlockBegin
  2
*D3
 70
     1
 10
0.0
 20
0.0
 30
0.0
  3
*D3
  1

  0
LINE
  5
19D
330
19C
100
AcDbEntity
  8
0
 62
     0
370
    -2
100
AcDbLine
 10
68.5
 20
144.8749999999999
 30
0.0
 11
68.5
 21
154.0978263739696
 31
0.0
  0
LINE
  5
19E
330
19C
100
AcDbEntity
  8
0
 62
     0
370
    -2
100
AcDbLine
 10
63.75
 20
147.375
 30
0.0
 11
63.75
 21
154.0978263739696
 31
0.0
  0
LINE
  5
19F
330
19C
100
AcDbEntity
  8
0
 62
     0
370
    -2
100
AcDbLine
 10
71.0
 20
152.8478263739696
 30
0.0
 11
73.5
 21
152.8478263739696
 31
0.0
  0
LINE
  5
1A0
330
19C
100
AcDbEntity
  8
0
 62
     0
370
    -2
100
AcDbLine
 10
61.25
 20
152.8478263739696
 30
0.0
 11
44.94804040507106
 21
152.8478263739696
 31
0.0
  0
LINE
  5
1A1
330
19C
100
AcDbEntity
  8
0
 62
     0
370
    -2
100
AcDbLine
 10
68.5
 20
152.8478263739696
 30
0.0
 11
63.75
 21
152.8478263739696
 31
0.0
  0
SOLID
  5
1A2
330
19C
100
AcDbEntity
  8
0
 62
     0
100
AcDbTrace
 10
71.0
 20
153.2644930406363
 30
0.0
 11
71.0
 21
152.431159707303
 31
0.0
 12
68.5
 22
152.8478263739696
 32
0.0
 13
68.5
 23
152.8478263739696
 33
0.0
  0
SOLID
  5
1A3
330
19C
100
AcDbEntity
  8
0
 62
     0
100
AcDbTrace
 10
61.25
 20
153.2644930406363
 30
0.0
 11
61.25
 21
152.431159707303
 31
0.0
 12
63.75
 22
152.8478263739696
 32
0.0
 13
63.75
 23
152.8478263739696
 33
0.0
  0
MTEXT
  5
1A4
330
19C
100
AcDbEntity
  8
0
 62
     0
100
AcDbMText
 10
51.84902020253552
 20
156.9728263739697
 30
0.0
 40
7.0
 41
0.0
 71
     5
 72
     1
  1
\A1;4.75
 73
     1
 44
1.0
  0
POINT
  5
1A5
330
19C
100
AcDbEntity
  8
Defpoints
 62
     0
100
AcDbPoint
 10
68.5
 20
144.25
 30
0.0
  0
POINT
  5
1A6
330
19C
100
AcDbEntity
  8
Defpoints
 62
     0
100
AcDbPoint
 10
63.75
 20
146.75
 30
0.0
  0
POINT
  5
1A7
330
19C
100
AcDbEntity
  8
Defpoints
 62
     0
100
AcDbPoint
 10
63.75
 20
152.8478263739696
 30
0.0
  0
ENDBLK
  5
1A9
330
19C
100
AcDbEntity
  8
0
100
AcDbBlockEnd
  0
BLOCK
  5
1B6
330
1AB
100
AcDbEntity
  8
0
100
AcDbBlockBegin
  2
*D4
 70
     1
 10
0.0
 20
0.0
 30
0.0
  3
*D4
  1

  0
LINE
  5
1AC
330
1AB
100
AcDbEntity
  8
0
 62
     0
370
    -2
100
AcDbLine
 10
63.125
 20
146.75
 30
0.0
 11
45.207175404792
 21
146.75
 31
0.0
  0
LINE
  5
1AD
330
1AB
100
AcDbEntity
  8
0
 62
     0
370
    -2
100
AcDbLine
 10
63.125
 20
129.75
 30
0.0
 11
45.20717540479199
 21
129.75
 31
0.0
  0
LINE
  5
1AE
330
1AB
100
AcDbEntity
  8
0
 62
     0
370
    -2
100
AcDbLine
 10
46.457175404792
 20
144.25
 30
0.0
 11
46.45717540479199
 21
142.375
 31
0.0
  0
LINE
  5
1AF
330
1AB
100
AcDbEntity
  8
0
 62
     0
370
    -2
100
AcDbLine
 10
46.45717540479199
 20
132.25
 30
0.0
 11
46.45717540479199
 21
134.125
 31
0.0
  0
SOLID
  5
1B0
330
1AB
100
AcDbEntity
  8
0
 62
     0
100
AcDbTrace
 10
46.04050873812535
 20
144.25
 30
0.0
 11
46.87384207145867
 21
144.25
 31
0.0
 12
46.457175404792
 22
146.75
 32
0.0
 13
46.457175404792
 23
146.75
 33
0.0
  0
SOLID
  5
1B1
330
1AB
100
AcDbEntity
  8
0
 62
     0
100
AcDbTrace
 10
46.04050873812532
 20
132.25
 30
0.0
 11
46.87384207145865
 21
132.25
 31
0.0
 12
46.45717540479199
 22
129.75
 32
0.0
 13
46.45717540479199
 23
129.75
 33
0.0
  0
MTEXT
  5
1B2
330
1AB
100
AcDbEntity
  8
0
 62
     0
100
AcDbMText
 10
46.45717540479196
 20
138.25
 30
0.0
 40
7.0
 41
0.0
 71
     5
 72
     1
  1
\A1;17
 73
     1
 44
1.0
  0
POINT
  5
1B3
330
1AB
100
AcDbEntity
  8
Defpoints
 62
     0
100
AcDbPoint
 10
63.75
 20
146.75
 30
0.0
  0
POINT
  5
1B4
330
1AB
100
AcDbEntity
  8
Defpoints
 62
     0
100
AcDbPoint
 10
63.75
 20
129.75
 30
0.0
  0
POINT
  5
1B5
330
1AB
100
AcDbEntity
  8
Defpoints
 62
     0
100
AcDbPoint
 10
46.45717540479199
 20
129.75
 30
0.0
  0
ENDBLK
  5
1B7
330
1AB
100
AcDbEntity
  8
0
100
AcDbBlockEnd
  0
BLOCK
  5
1C6
330
1B9
100
AcDbEntity
  8
0
100
AcDbBlockBegin
  2
*D5
 70
     1
 10
0.0
 20
0.0
 30
0.0
  3
*D5
  1

  0
LINE
  5
1BA
330
1B9
100
AcDbEntity
  8
0
 62
     0
370
    -2
100
AcDbLine
 10
68.375
 20
144.745190528383
 30
0.0
 11
94.10240734140506
 21
144.745190528383
 31
0.0
  0
LINE
  5
1BB
330
1B9
100
AcDbEntity
  8
0
 62
     0
370
    -2
100
AcDbLine
 10
68.375
 20
131.7548094716167
 30
0.0
 11
94.10240734140506
 21
131.7548094716167
 31
0.0
  0
LINE
  5
1BC
330
1B9
100
AcDbEntity
  8
0
 62
     0
370
    -2
100
AcDbLine
 10
92.85240734140506
 20
147.245190528383
 30
0.0
 11
92.85240734140506
 21
149.745190528383
 31
0.0
  0
LINE
  5
1BD
330
1B9
100
AcDbEntity
  8
0
 62
     0
370
    -2
100
AcDbLine
 10
92.85240734140506
 20
129.2548094716167
 30
0.0
 11
92.85240734140506
 21
126.7548094716167
 31
0.0
  0
LINE
  5
1BE
330
1B9
100
AcDbEntity
  8
0
 62
     0
370
    -2
100
AcDbLine
 10
92.85240734140506
 20
144.745190528383
 30
0.0
 11
92.85240734140506
 21
142.3756889763779
 31
0.0
  0
LINE
  5
1BF
330
1B9
100
AcDbEntity
  8
0
 62
     0
370
    -2
100
AcDbLine
 10
92.85240734140506
 20
131.7548094716167
 30
0.0
 11
92.85240734140506
 21
134.124311023622
 31
0.0
  0
SOLID
  5
1C0
330
1B9
100
AcDbEntity
  8
0
 62
     0
100
AcDbTrace
 10
92.43574067473842
 20
147.245190528383
 30
0.0
 11
93.26907400807172
 21
147.245190528383
 31
0.0
 12
92.85240734140506
 22
144.745190528383
 32
0.0
 13
92.85240734140506
 23
144.745190528383
 33
0.0
  0
SOLID
  5
1C1
330
1B9
100
AcDbEntity
  8
0
 62
     0
100
AcDbTrace
 10
92.43574067473842
 20
129.2548094716167
 30
0.0
 11
93.26907400807172
 21
129.2548094716167
 31
0.0
 12
92.85240734140506
 22
131.7548094716167
 32
0.0
 13
92.85240734140506
 23
131.7548094716167
 33
0.0
  0
MTEXT
  5
1C2
330
1B9
100
AcDbEntity
  8
0
 62
     0
100
AcDbMText
 10
92.85240734140506
 20
138.25
 30
0.0
 40
7.0
 41
0.0
 71
     5
 72
     1
  1
\A1;12.99
 73
     1
 44
1.0
  0
POINT
  5
1C3
330
1B9
100
AcDbEntity
  8
Defpoints
 62
     0
100
AcDbPoint
 10
67.75
 20
144.745190528383
 30
0.0
  0
POINT
  5
1C4
330
1B9
100
AcDbEntity
  8
Defpoints
 62
     0
100
AcDbPoint
 10
67.75
 20
131.7548094716167
 30
0.0
  0
POINT
  5
1C5
330
1B9
100
AcDbEntity
  8
Defpoints
 62
     0
100
AcDbPoint
 10
92.85240734140506
 20
131.7548094716167
 30
0.0
  0
ENDBLK
  5
1C7
330
1B9
100
AcDbEntity
  8
0
100
AcDbBlockEnd
  0
BLOCK
  5
1ED
330
1E1
100
AcDbEntity
  8
0
100
AcDbBlockBegin
  2
*D6
 70
     1
 10
0.0
 20
0.0
 30
0.0
  3
*D6
  1

  0
LINE
  5
1E2
330
1E1
100
AcDbEntity
  8
2
 62
     0
370
    -2
100
AcDbLine
 10
69.15
 20
156.8931162051819
 30
0.0
 11
69.15
 21
159.6630438193376
 31
0.0
  0
LINE
  5
1E3
330
1E1
100
AcDbEntity
  8
2
 62
     0
370
    -2
100
AcDbLine
 10
63.75
 20
156.8931162051819
 30
0.0
 11
63.75
 21
159.6630438193376
 31
0.0
  0
LINE
  5
1E4
330
1E1
100
AcDbEntity
  8
2
 62
     0
370
    -2
100
AcDbLine
 10
71.65
 20
158.4130438193375
 30
0.0
 11
74.15
 21
158.4130438193375
 31
0.0
  0
LINE
  5
1E5
330
1E1
100
AcDbEntity
  8
2
 62
     0
370
    -2
100
AcDbLine
 10
61.25
 20
158.4130438193375
 30
0.0
 11
49.1
 21
158.4130438193375
 31
0.0
  0
LINE
  5
1E6
330
1E1
100
AcDbEntity
  8
2
 62
     0
370
    -2
100
AcDbLine
 10
69.15
 20
158.4130438193375
 30
0.0
 11
63.75
 21
158.4130438193375
 31
0.0
  0
SOLID
  5
1E7
330
1E1
100
AcDbEntity
  8
2
 62
     0
100
AcDbTrace
 10
71.65
 20
158.8297104860043
 30
0.0
 11
71.65
 21
157.9963771526708
 31
0.0
 12
69.15
 22
158.4130438193375
 32
0.0
 13
69.15
 23
158.4130438193375
 33
0.0
  0
SOLID
  5
1E8
330
1E1
100
AcDbEntity
  8
2
 62
     0
100
AcDbTrace
 10
61.25
 20
158.8297104860043
 30
0.0
 11
61.25
 21
157.9963771526708
 31
0.0
 12
63.75
 22
158.4130438193375
 32
0.0
 13
63.75
 23
158.4130438193375
 33
0.0
  0
MTEXT
  5
1E9
330
1E1
100
AcDbEntity
  8
2
 62
     0
100
AcDbMText
 10
53.925
 20
162.5380438193375
 30
0.0
 40
7.0
 41
0.0
 71
     5
 72
     1
  1
\A1;5.4
 73
     1
 44
1.0
  0
POINT
  5
1EA
330
1E1
100
AcDbEntity
  8
Defpoints
 62
     0
100
AcDbPoint
 10
69.15
 20
156.2681162051819
 30
0.0
  0
POINT
  5
1EB
330
1E1
100
AcDbEntity
  8
Defpoints
 62
     0
100
AcDbPoint
 10
63.75
 20
156.2681162051819
 30
0.0
  0
POINT
  5
1EC
330
1E1
100
AcDbEntity
  8
Defpoints
 62
     0
100
AcDbPoint
 10
63.75
 20
158.4130438193375
 30
0.0
  0
ENDBLK
  5
1EE
330
1E1
100
AcDbEntity
  8
0
100
AcDbBlockEnd
  0
BLOCK
  5
217
330
20B
100
AcDbEntity
  8
0
100
AcDbBlockBegin
  2
*D7
 70
     1
 10
0.0
 20
0.0
 30
0.0
  3
*D7
  1

  0
LINE
  5
20C
330
20B
100
AcDbEntity
  8
2
 62
     0
370
    -2
100
AcDbLine
 10
68.525
 20
144.25
 30
0.0
 11
56.21106459621114
 21
144.25
 31
0.0
  0
LINE
  5
20D
330
20B
100
AcDbEntity
  8
2
 62
     0
370
    -2
100
AcDbLine
 10
63.125
 20
146.75
 30
0.0
 11
56.21106459621114
 21
146.75
 31
0.0
  0
LINE
  5
20E
330
20B
100
AcDbEntity
  8
2
 62
     0
370
    -2
100
AcDbLine
 10
57.46106459621113
 20
141.7499999999999
 30
0.0
 11
57.46106459621113
 21
139.25
 31
0.0
  0
LINE
  5
20F
330
20B
100
AcDbEntity
  8
2
 62
     0
370
    -2
100
AcDbLine
 10
57.46106459621114
 20
149.2499999999999
 30
0.0
 11
57.46106459621114
 21
161.2141643193383
 31
0.0
  0
LINE
  5
210
330
20B
100
AcDbEntity
  8
2
 62
     0
370
    -2
100
AcDbLine
 10
57.46106459621114
 20
144.25
 30
0.0
 11
57.46106459621114
 21
146.75
 31
0.0
  0
SOLID
  5
211
330
20B
100
AcDbEntity
  8
2
 62
     0
100
AcDbTrace
 10
57.04439792954448
 20
141.7499999999999
 30
0.0
 11
57.87773126287781
 21
141.7499999999999
 31
0.0
 12
57.46106459621114
 22
144.25
 32
0.0
 13
57.46106459621114
 23
144.25
 33
0.0
  0
SOLID
  5
212
330
20B
100
AcDbEntity
  8
2
 62
     0
100
AcDbTrace
 10
57.04439792954449
 20
149.2499999999999
 30
0.0
 11
57.87773126287781
 21
149.2499999999999
 31
0.0
 12
57.46106459621114
 22
146.75
 32
0.0
 13
57.46106459621114
 23
146.75
 33
0.0
  0
MTEXT
  5
213
330
20B
100
AcDbEntity
  8
2
 62
     0
100
AcDbMText
 10
53.33537561983317
 20
156.4820821596691
 30
0.0
 40
7.0
 41
0.0
 71
     5
 72
     1
  1
\A1;2.5
 11
0.0000000000000001
 21
1.0
 31
0.0
 73
     1
 44
1.0
  0
POINT
  5
214
330
20B
100
AcDbEntity
  8
Defpoints
 62
     0
100
AcDbPoint
 10
69.15
 20
144.25
 30
0.0
  0
POINT
  5
215
330
20B
100
AcDbEntity
  8
Defpoints
 62
     0
100
AcDbPoint
 10
63.75
 20
146.75
 30
0.0
  0
POINT
  5
216
330
20B
100
AcDbEntity
  8
Defpoints
 62
     0
100
AcDbPoint
 10
57.46106459621114
 20
146.75
 30
0.0
  0
ENDBLK
  5
218
330
20B
100
AcDbEntity
  8
0
100
AcDbBlockEnd
  0
BLOCK
  5
226
330
21A
100
AcDbEntity
  8
0
100
AcDbBlockBegin
  2
*D8
 70
     1
 10
0.0
 20
0.0
 30
0.0
  3
*D8
  1

  0
LINE
  5
21B
330
21A
100
AcDbEntity
  8
2
 62
     0
370
    -2
100
AcDbLine
 10
63.75
 20
147.375
 30
0.0
 11
63.75
 21
154.94140658307
 31
0.0
  0
LINE
  5
21C
330
21A
100
AcDbEntity
  8
2
 62
     0
370
    -2
100
AcDbLine
 10
69.15
 20
144.8749999999999
 30
0.0
 11
69.15
 21
154.94140658307
 31
0.0
  0
LINE
  5
21D
330
21A
100
AcDbEntity
  8
2
 62
     0
370
    -2
100
AcDbLine
 10
61.25
 20
153.6914065830701
 30
0.0
 11
58.75
 21
153.6914065830701
 31
0.0
  0
LINE
  5
21E
330
21A
100
AcDbEntity
  8
2
 62
     0
370
    -2
100
AcDbLine
 10
71.65
 20
153.6914065830701
 30
0.0
 11
83.8
 21
153.6914065830701
 31
0.0
  0
LINE
  5
21F
330
21A
100
AcDbEntity
  8
2
 62
     0
370
    -2
100
AcDbLine
 10
63.75
 20
153.6914065830701
 30
0.0
 11
69.15
 21
153.6914065830701
 31
0.0
  0
SOLID
  5
220
330
21A
100
AcDbEntity
  8
2
 62
     0
100
AcDbTrace
 10
61.25
 20
154.1080732497368
 30
0.0
 11
61.25
 21
153.2747399164034
 31
0.0
 12
63.75
 22
153.6914065830701
 32
0.0
 13
63.75
 23
153.6914065830701
 33
0.0
  0
SOLID
  5
221
330
21A
100
AcDbEntity
  8
2
 62
     0
100
AcDbTrace
 10
71.65
 20
154.1080732497368
 30
0.0
 11
71.65
 21
153.2747399164034
 31
0.0
 12
69.15
 22
153.6914065830701
 32
0.0
 13
69.15
 23
153.6914065830701
 33
0.0
  0
MTEXT
  5
222
330
21A
100
AcDbEntity
  8
2
 62
     0
100
AcDbMText
 10
78.97499999999999
 20
157.8164065830701
 30
0.0
 40
7.0
 41
0.0
 71
     5
 72
     1
  1
\A1;5.4
 73
     1
 44
1.0
  0
POINT
  5
223
330
21A
100
AcDbEntity
  8
Defpoints
 62
     0
100
AcDbPoint
 10
63.75
 20
146.75
 30
0.0
  0
POINT
  5
224
330
21A
100
AcDbEntity
  8
Defpoints
 62
     0
100
AcDbPoint
 10
69.15
 20
144.25
 30
0.0
  0
POINT
  5
225
330
21A
100
AcDbEntity
  8
Defpoints
 62
     0
100
AcDbPoint
 10
69.15
 20
153.6914065830701
 30
0.0
  0
ENDBLK
  5
227
330
21A
100
AcDbEntity
  8
0
100
AcDbBlockEnd
  0
BLOCK
  5
235
330
229
100
AcDbEntity
  8
0
100
AcDbBlockBegin
  2
*D9
 70
     1
 10
0.0
 20
0.0
 30
0.0
  3
*D9
  1

  0
LINE
  5
22A
330
229
100
AcDbEntity
  8
2
 62
     0
370
    -2
100
AcDbLine
 10
69.15
 20
144.8749999999999
 30
0.0
 11
69.15
 21
161.916720119769
 31
0.0
  0
LINE
  5
22B
330
229
100
AcDbEntity
  8
2
 62
     0
370
    -2
100
AcDbLine
 10
68.44179606750063
 20
144.8749999999999
 30
0.0
 11
68.44179606750063
 21
161.916720119769
 31
0.0
  0
LINE
  5
22C
330
229
100
AcDbEntity
  8
2
 62
     0
370
    -2
100
AcDbLine
 10
71.65
 20
160.6667201197689
 30
0.0
 11
74.15
 21
160.6667201197689
 31
0.0
  0
LINE
  5
22D
330
229
100
AcDbEntity
  8
2
 62
     0
370
    -2
100
AcDbLine
 10
65.94179606750063
 20
160.6667201197689
 30
0.0
 11
51.54738661868172
 21
160.6667201197689
 31
0.0
  0
LINE
  5
22E
330
229
100
AcDbEntity
  8
2
 62
     0
370
    -2
100
AcDbLine
 10
69.15
 20
160.6667201197689
 30
0.0
 11
68.44179606750063
 21
160.6667201197689
 31
0.0
  0
SOLID
  5
22F
330
229
100
AcDbEntity
  8
2
 62
     0
100
AcDbTrace
 10
71.65
 20
161.0833867864355
 30
0.0
 11
71.65
 21
160.2500534531023
 31
0.0
 12
69.15
 22
160.6667201197689
 32
0.0
 13
69.15
 23
160.6667201197689
 33
0.0
  0
SOLID
  5
230
330
229
100
AcDbEntity
  8
2
 62
     0
100
AcDbTrace
 10
65.94179606750063
 20
161.0833867864355
 30
0.0
 11
65.94179606750063
 21
160.2500534531023
 31
0.0
 12
68.44179606750063
 22
160.6667201197689
 32
0.0
 13
68.44179606750063
 23
160.6667201197689
 33
0.0
  0
MTEXT
  5
231
330
229
100
AcDbEntity
  8
2
 62
     0
100
AcDbMText
 10
57.49459134309118
 20
164.7917201197689
 30
0.0
 40
7.0
 41
0.0
 71
     5
 72
     1
  1
\A1;0.71
 73
     1
 44
1.0
  0
POINT
  5
232
330
229
100
AcDbEntity
  8
Defpoints
 62
     0
100
AcDbPoint
 10
69.15
 20
144.25
 30
0.0
  0
POINT
  5
233
330
229
100
AcDbEntity
  8
Defpoints
 62
     0
100
AcDbPoint
 10
68.44179606750063
 20
144.25
 30
0.0
  0
POINT
  5
234
330
229
100
AcDbEntity
  8
Defpoints
 62
     0
100
AcDbPoint
 10
68.44179606750063
 20
160.6667201197689
 30
0.0
  0
ENDBLK
  5
236
330
229
100
AcDbEntity
  8
0
100
AcDbBlockEnd
  0
BLOCK
  5
333
330
332
100
AcDbEntity
  8
0
100
AcDbBlockBegin
  2
*U10
 70
     1
 10
0.0
 20
0.0
 30
0.0
  3
*U10
  1

  0
ENDBLK
  5
334
330
332
100
AcDbEntity
  8
0
100
AcDbBlockEnd
  0
ENDSEC
  0
SECTION
  2
ENTITIES
  0
TEXT
  5
30
330
1E
100
AcDbEntity
  8
0
100
AcDbText
 10
140.6999999999999
 20
46.60000000000001
 30
0.0
 40
7.0
  1
球面座金
 41
0.8
100
AcDbText
  0
TEXT
  5
31
330
1E
100
AcDbEntity
  8
0
100
AcDbText
 10
140.6999999999999
 20
30.8
 30
0.0
 40
7.0
  1
ＲＷ－
 41
0.8
100
AcDbText
  0
TEXT
  5
32
330
1E
100
AcDbEntity
  8
0
100
AcDbText
 10
160.5999999999999
 20
31.09999999999998
 30
0.0
 40
7.0
  1
６
 41
0.8
100
AcDbText
  0
LINE
  5
4D
330
1E
100
AcDbEntity
  8
1
100
AcDbLine
 10
103.0
 20
86.5
 30
0.0
 11
103.0
 21
111.25
 31
0.0
  0
CIRCLE
  5
4E
330
1E
100
AcDbEntity
  8
0
100
AcDbCircle
 10
103.0
 20
99.50000000000001
 30
0.0
 40
8.5
  0
CIRCLE
  5
50
330
1E
100
AcDbEntity
  8
0
100
AcDbCircle
 10
103.0
 20
99.50000000000001
 30
0.0
 40
6.0
  0
CIRCLE
  5
51
330
1E
100
AcDbEntity
  8
0
100
AcDbCircle
 10
103.0
 20
99.50000000000001
 30
0.0
 40
3.25
  0
LINE
  5
52
330
1E
100
AcDbEntity
  8
1
100
AcDbLine
 10
90.0
 20
99.50000000000001
 30
0.0
 11
116.25
 21
99.50000000000001
 31
0.0
  0
LINE
  5
53
330
1E
100
AcDbEntity
  8
1
100
AcDbLine
 10
40.0
 20
99.50000000000001
 30
0.0
 11
19.75
 21
99.50000000000001
 31
0.0
  0
LINE
  5
54
330
1E
100
AcDbEntity
  8
1
100
AcDbLine
 10
29.5
 20
87.75
 30
0.0
 11
29.5
 21
111.4999999999999
 31
0.0
  0
CIRCLE
  5
55
330
1E
100
AcDbEntity
  8
0
100
AcDbCircle
 10
29.5
 20
99.50000000000001
 30
0.0
 40
8.5
  0
CIRCLE
  5
56
330
1E
100
AcDbEntity
  8
0
100
AcDbCircle
 10
29.5
 20
99.50000000000001
 30
0.0
 40
3.25
  0
CIRCLE
  5
57
330
1E
100
AcDbEntity
  8
0
100
AcDbCircle
 10
29.5
 20
99.50000000000001
 30
0.0
 40
3.5
  0
LINE
  5
5D
330
1E
100
AcDbEntity
  8
2
100
AcDbLine
 10
68.9
 20
141.5
 30
0.0
 11
68.9
 21
135.0
 31
0.0
  0
LINE
  5
5F
330
1E
100
AcDbEntity
  8
0
100
AcDbLine
 10
67.75
 20
146.75
 30
0.0
 11
67.75
 21
129.75
 31
0.0
  0
LINE
  5
60
330
1E
100
AcDbEntity
  8
2
100
AcDbLine
 10
66.85000000000001
 20
141.729942528261
 30
0.0
 11
66.85000000000001
 21
134.7700574717389
 31
0.0
  0
LINE
  5
61
330
1E
100
AcDbEntity
  8
0
100
AcDbLine
 10
69.15
 20
132.25
 30
0.0
 11
69.15
 21
138.25
 31
0.0
  0
LINE
  5
62
330
1E
100
AcDbEntity
  8
0
100
AcDbLine
 10
63.75
 20
138.25
 30
0.0
 11
63.75
 21
129.75
 31
0.0
  0
LINE
  5
67
330
1E
100
AcDbEntity
  8
2
100
AcDbLine
 10
66.85000000000001
 20
135.0
 30
0.0
 11
68.4
 21
135.0
 31
0.0
  0
LINE
  5
69
330
1E
100
AcDbEntity
  8
0
100
AcDbLine
 10
63.75
 20
129.75
 30
0.0
 11
67.75
 21
129.75
 31
0.0
  0
LINE
  5
6C
330
1E
100
AcDbEntity
  8
2
100
AcDbLine
 10
68.9
 20
135.0
 30
0.0
 11
68.4
 21
135.0
 31
0.0
  0
LINE
  5
6D
330
1E
100
AcDbEntity
  8
2
100
AcDbLine
 10
68.9
 20
135.0
 30
0.0
 11
69.15
 21
134.7499999999998
 31
0.0
  0
LINE
  5
72
330
1E
100
AcDbEntity
  8
2
100
AcDbLine
 10
66.85000000000001
 20
141.5
 30
0.0
 11
68.4
 21
141.5
 31
0.0
  0
LINE
  5
74
330
1E
100
AcDbEntity
  8
0
100
AcDbLine
 10
63.75
 20
146.75
 30
0.0
 11
67.75
 21
146.75
 31
0.0
  0
LINE
  5
75
330
1E
100
AcDbEntity
  8
1
100
AcDbLine
 10
59.25
 20
138.25
 30
0.0
 11
73.0
 21
138.25
 31
0.0
  0
LINE
  5
76
330
1E
100
AcDbEntity
  8
0
100
AcDbLine
 10
63.75
 20
138.25
 30
0.0
 11
63.75
 21
146.75
 31
0.0
  0
LINE
  5
78
330
1E
100
AcDbEntity
  8
0
100
AcDbLine
 10
69.15
 20
144.25
 30
0.0
 11
69.15
 21
138.25
 31
0.0
  0
LINE
  5
79
330
1E
100
AcDbEntity
  8
2
100
AcDbLine
 10
68.9
 20
141.5
 30
0.0
 11
69.15
 21
141.7499999999997
 31
0.0
  0
LINE
  5
7A
330
1E
100
AcDbEntity
  8
2
100
AcDbLine
 10
68.4
 20
141.5
 30
0.0
 11
68.9
 21
141.5
 31
0.0
  0
LINE
  5
7B
330
1E
100
AcDbEntity
  8
0
100
AcDbLine
 10
68.44179606750063
 20
144.25
 30
0.0
 11
69.15
 21
144.25
 31
0.0
  0
LINE
  5
1D6
330
1E
100
AcDbEntity
  8
0
100
AcDbLine
 10
69.15
 20
138.25
 30
0.0
 11
68.45
 21
138.25
 31
0.0
  0
LINE
  5
1D7
330
1E
100
AcDbEntity
  8
0
100
AcDbLine
 10
68.45
 20
138.25
 30
0.0
 11
68.44179606750063
 21
144.25
 31
0.0
  0
LINE
  5
1D8
330
1E
100
AcDbEntity
  8
0
100
AcDbLine
 10
68.45
 20
138.25
 30
0.0
 11
68.44179606750063
 21
132.25
 31
0.0
  0
LINE
  5
1D9
330
1E
100
AcDbEntity
  8
0
100
AcDbLine
 10
68.44179606750063
 20
132.25
 30
0.0
 11
69.15
 21
132.25
 31
0.0
  0
ARC
  5
1DC
330
1E
100
AcDbEntity
  8
2
100
AcDbCircle
 10
75.15
 20
138.25
 30
0.0
 40
9.0
100
AcDbArc
 50
138.1896851042214
 51
157.253148725635
  0
ARC
  5
1DD
330
1E
100
AcDbEntity
  8
2
100
AcDbCircle
 10
75.15
 20
138.25
 30
0.0
 40
9.0
100
AcDbArc
 50
202.7468512743648
 51
221.8103148957784
  0
LINE
  5
1EF
330
1E
100
AcDbEntity
  8
2
100
AcDbLine
 10
66.59529946162068
 20
141.7499999999997
 30
0.0
 11
63.75
 21
141.7499999999997
 31
0.0
  0
POLYLINE
  5
1F0
330
1E
100
AcDbEntity
  8
2
100
AcDb2dPolyline
 66
     1
 10
0.0
 20
0.0
 30
0.0
  0
VERTEX
  5
1F1
330
1F0
100
AcDbEntity
  8
2
100
AcDbVertex
100
AcDb2dVertex
 10
67.75
 20
143.75
 30
0.0
  0
VERTEX
  5
1F2
330
1F0
100
AcDbEntity
  8
2
100
AcDbVertex
100
AcDb2dVertex
 10
66.59529946162068
 20
141.7499999999997
 30
0.0
  0
SEQEND
  5
1F3
330
1F0
100
AcDbEntity
  8
2
  0
POLYLINE
  5
1F4
330
1E
100
AcDbEntity
  8
2
100
AcDb2dPolyline
 66
     1
 10
0.0
 20
0.0
 30
0.0
  0
VERTEX
  5
1F5
330
1F4
100
AcDbEntity
  8
2
100
AcDbVertex
100
AcDb2dVertex
 10
67.75
 20
132.75
 30
0.0
  0
VERTEX
  5
1F6
330
1F4
100
AcDbEntity
  8
2
100
AcDbVertex
100
AcDb2dVertex
 10
66.59529946162068
 20
134.75
 30
0.0
  0
SEQEND
  5
1F7
330
1F4
100
AcDbEntity
  8
2
  0
LINE
  5
1F8
330
1E
100
AcDbEntity
  8
2
100
AcDbLine
 10
66.59529946162068
 20
134.75
 30
0.0
 11
63.75
 21
134.75
 31
0.0
  0
LINE
  5
1F9
330
1E
100
AcDbEntity
  8
2
100
AcDbLine
 10
66.59529946162068
 20
141.7499999999997
 30
0.0
 11
66.59529946162068
 21
134.75
 31
0.0
  0
LINE
  5
239
330
1E
100
AcDbEntity
  8
2
100
AcDbLine
 10
66.59529946162068
 20
102.9999999999997
 30
0.0
 11
66.59529946162068
 21
96.00000000000015
 31
0.0
  0
LINE
  5
23A
330
1E
100
AcDbEntity
  8
2
100
AcDbLine
 10
66.85000000000001
 20
102.9799425282609
 30
0.0
 11
66.85000000000001
 21
96.02005747173892
 31
0.0
  0
LINE
  5
23B
330
1E
100
AcDbEntity
  8
0
100
AcDbLine
 10
68.45
 20
99.50000000000001
 30
0.0
 11
68.44179606750063
 21
93.49999999999999
 31
0.0
  0
LINE
  5
23C
330
1E
100
AcDbEntity
  8
0
100
AcDbLine
 10
69.15
 20
93.49999999999999
 30
0.0
 11
69.15
 21
99.50000000000001
 31
0.0
  0
LINE
  5
23D
330
1E
100
AcDbEntity
  8
2
100
AcDbLine
 10
68.9
 20
102.75
 30
0.0
 11
68.9
 21
96.25
 31
0.0
  0
LINE
  5
23E
330
1E
100
AcDbEntity
  8
0
100
AcDbLine
 10
63.75
 20
99.50000000000001
 30
0.0
 11
63.75
 21
91.0
 31
0.0
  0
LINE
  5
23F
330
1E
100
AcDbEntity
  8
0
100
AcDbLine
 10
67.75
 20
108.0
 30
0.0
 11
67.75
 21
91.0
 31
0.0
  0
POLYLINE
  5
240
330
1E
100
AcDbEntity
  8
2
100
AcDb2dPolyline
 66
     1
 10
0.0
 20
0.0
 30
0.0
  0
VERTEX
  5
241
330
240
100
AcDbEntity
  8
2
100
AcDbVertex
100
AcDb2dVertex
 10
67.75
 20
94.0
 30
0.0
  0
VERTEX
  5
242
330
240
100
AcDbEntity
  8
2
100
AcDbVertex
100
AcDb2dVertex
 10
66.59529946162068
 20
96.00000000000015
 30
0.0
  0
SEQEND
  5
243
330
240
100
AcDbEntity
  8
2
  0
ARC
  5
244
330
1E
100
AcDbEntity
  8
2
100
AcDbCircle
 10
75.15
 20
99.50000000000001
 30
0.0
 40
9.0
100
AcDbArc
 50
202.7468512743648
 51
221.8103148957784
  0
LINE
  5
245
330
1E
100
AcDbEntity
  8
2
100
AcDbLine
 10
66.85000000000001
 20
96.25
 30
0.0
 11
68.4
 21
96.25
 31
0.0
  0
LINE
  5
246
330
1E
100
AcDbEntity
  8
0
100
AcDbLine
 10
63.75
 20
91.0
 30
0.0
 11
67.75
 21
91.0
 31
0.0
  0
LINE
  5
247
330
1E
100
AcDbEntity
  8
2
100
AcDbLine
 10
66.59529946162068
 20
96.00000000000015
 30
0.0
 11
63.75
 21
96.00000000000015
 31
0.0
  0
LINE
  5
248
330
1E
100
AcDbEntity
  8
2
100
AcDbLine
 10
68.9
 20
96.25
 30
0.0
 11
69.15
 21
95.99999999999985
 31
0.0
  0
LINE
  5
249
330
1E
100
AcDbEntity
  8
0
100
AcDbLine
 10
68.44179606750063
 20
93.49999999999999
 30
0.0
 11
69.15
 21
93.49999999999999
 31
0.0
  0
LINE
  5
24A
330
1E
100
AcDbEntity
  8
2
100
AcDbLine
 10
68.9
 20
96.25
 30
0.0
 11
68.4
 21
96.25
 31
0.0
  0
POLYLINE
  5
24B
330
1E
100
AcDbEntity
  8
2
100
AcDb2dPolyline
 66
     1
 10
0.0
 20
0.0
 30
0.0
  0
VERTEX
  5
24C
330
24B
100
AcDbEntity
  8
2
100
AcDbVertex
100
AcDb2dVertex
 10
67.75
 20
105.0
 30
0.0
  0
VERTEX
  5
24D
330
24B
100
AcDbEntity
  8
2
100
AcDbVertex
100
AcDb2dVertex
 10
66.59529946162068
 20
102.9999999999997
 30
0.0
  0
SEQEND
  5
24E
330
24B
100
AcDbEntity
  8
2
  0
ARC
  5
24F
330
1E
100
AcDbEntity
  8
2
100
AcDbCircle
 10
75.15
 20
99.50000000000001
 30
0.0
 40
9.0
100
AcDbArc
 50
138.1896851042214
 51
157.253148725635
  0
LINE
  5
250
330
1E
100
AcDbEntity
  8
2
100
AcDbLine
 10
66.85000000000001
 20
102.75
 30
0.0
 11
68.4
 21
102.75
 31
0.0
  0
LINE
  5
251
330
1E
100
AcDbEntity
  8
1
100
AcDbLine
 10
59.25
 20
99.50000000000001
 30
0.0
 11
73.0
 21
99.50000000000001
 31
0.0
  0
LINE
  5
252
330
1E
100
AcDbEntity
  8
0
100
AcDbLine
 10
63.75
 20
108.0
 30
0.0
 11
67.75
 21
108.0
 31
0.0
  0
LINE
  5
253
330
1E
100
AcDbEntity
  8
0
100
AcDbLine
 10
63.75
 20
99.50000000000001
 30
0.0
 11
63.75
 21
108.0
 31
0.0
  0
LINE
  5
254
330
1E
100
AcDbEntity
  8
2
100
AcDbLine
 10
66.59529946162068
 20
102.9999999999997
 30
0.0
 11
63.75
 21
102.9999999999997
 31
0.0
  0
LINE
  5
255
330
1E
100
AcDbEntity
  8
0
100
AcDbLine
 10
68.45
 20
99.50000000000001
 30
0.0
 11
68.44179606750063
 21
105.4999999999999
 31
0.0
  0
LINE
  5
256
330
1E
100
AcDbEntity
  8
0
100
AcDbLine
 10
69.15
 20
105.4999999999999
 30
0.0
 11
69.15
 21
99.50000000000001
 31
0.0
  0
LINE
  5
257
330
1E
100
AcDbEntity
  8
0
100
AcDbLine
 10
69.15
 20
99.50000000000001
 30
0.0
 11
68.45
 21
99.50000000000001
 31
0.0
  0
LINE
  5
258
330
1E
100
AcDbEntity
  8
2
100
AcDbLine
 10
68.9
 20
102.75
 30
0.0
 11
69.15
 21
102.9999999999997
 31
0.0
  0
LINE
  5
259
330
1E
100
AcDbEntity
  8
2
100
AcDbLine
 10
68.4
 20
102.75
 30
0.0
 11
68.9
 21
102.75
 31
0.0
  0
LINE
  5
25A
330
1E
100
AcDbEntity
  8
0
100
AcDbLine
 10
68.44179606750063
 20
105.4999999999999
 30
0.0
 11
69.15
 21
105.4999999999999
 31
0.0
  0
LINE
  5
25B
330
1E
100
AcDbEntity
  8
0
100
AcDbLine
 10
67.75
 20
70.0
 30
0.0
 11
67.75
 21
53.0
 31
0.0
  0
LINE
  5
25C
330
1E
100
AcDbEntity
  8
0
100
AcDbLine
 10
63.75
 20
61.5
 30
0.0
 11
63.75
 21
53.0
 31
0.0
  0
LINE
  5
25D
330
1E
100
AcDbEntity
  8
2
100
AcDbLine
 10
68.9
 20
64.75
 30
0.0
 11
68.9
 21
58.25
 31
0.0
  0
LINE
  5
25E
330
1E
100
AcDbEntity
  8
0
100
AcDbLine
 10
69.15
 20
55.5
 30
0.0
 11
69.15
 21
61.5
 31
0.0
  0
LINE
  5
25F
330
1E
100
AcDbEntity
  8
0
100
AcDbLine
 10
68.45
 20
61.5
 30
0.0
 11
68.44179606750063
 21
55.5
 31
0.0
  0
LINE
  5
260
330
1E
100
AcDbEntity
  8
2
100
AcDbLine
 10
66.85000000000001
 20
64.97994252826106
 30
0.0
 11
66.85000000000001
 21
58.02005747173893
 31
0.0
  0
LINE
  5
261
330
1E
100
AcDbEntity
  8
2
100
AcDbLine
 10
66.59529946162068
 20
64.99999999999984
 30
0.0
 11
66.59529946162068
 21
58.00000000000014
 31
0.0
  0
LINE
  5
262
330
1E
100
AcDbEntity
  8
0
100
AcDbLine
 10
63.75
 20
53.0
 30
0.0
 11
67.75
 21
53.0
 31
0.0
  0
LINE
  5
263
330
1E
100
AcDbEntity
  8
2
100
AcDbLine
 10
66.85000000000001
 20
58.25
 30
0.0
 11
68.4
 21
58.25
 31
0.0
  0
ARC
  5
264
330
1E
100
AcDbEntity
  8
2
100
AcDbCircle
 10
75.15
 20
61.5
 30
0.0
 40
9.0
100
AcDbArc
 50
202.7468512743648
 51
221.8103148957784
  0
POLYLINE
  5
265
330
1E
100
AcDbEntity
  8
2
100
AcDb2dPolyline
 66
     1
 10
0.0
 20
0.0
 30
0.0
  0
VERTEX
  5
266
330
265
100
AcDbEntity
  8
2
100
AcDbVertex
100
AcDb2dVertex
 10
67.75
 20
56.0
 30
0.0
  0
VERTEX
  5
267
330
265
100
AcDbEntity
  8
2
100
AcDbVertex
100
AcDb2dVertex
 10
66.59529946162068
 20
58.00000000000014
 30
0.0
  0
SEQEND
  5
268
330
265
100
AcDbEntity
  8
2
  0
LINE
  5
269
330
1E
100
AcDbEntity
  8
2
100
AcDbLine
 10
66.59529946162068
 20
58.00000000000014
 30
0.0
 11
63.75
 21
58.00000000000014
 31
0.0
  0
LINE
  5
26A
330
1E
100
AcDbEntity
  8
0
100
AcDbLine
 10
68.44179606750063
 20
55.5
 30
0.0
 11
69.15
 21
55.5
 31
0.0
  0
LINE
  5
26B
330
1E
100
AcDbEntity
  8
2
100
AcDbLine
 10
68.9
 20
58.25
 30
0.0
 11
68.4
 21
58.25
 31
0.0
  0
LINE
  5
26C
330
1E
100
AcDbEntity
  8
2
100
AcDbLine
 10
68.9
 20
58.25
 30
0.0
 11
69.15
 21
57.99999999999986
 31
0.0
  0
LINE
  5
26D
330
1E
100
AcDbEntity
  8
0
100
AcDbLine
 10
63.75
 20
70.0
 30
0.0
 11
67.75
 21
70.0
 31
0.0
  0
LINE
  5
26E
330
1E
100
AcDbEntity
  8
1
100
AcDbLine
 10
59.25
 20
61.5
 30
0.0
 11
73.0
 21
61.5
 31
0.0
  0
LINE
  5
26F
330
1E
100
AcDbEntity
  8
2
100
AcDbLine
 10
66.85000000000001
 20
64.75
 30
0.0
 11
68.4
 21
64.75
 31
0.0
  0
ARC
  5
270
330
1E
100
AcDbEntity
  8
2
100
AcDbCircle
 10
75.15
 20
61.5
 30
0.0
 40
9.0
100
AcDbArc
 50
138.1896851042214
 51
157.253148725635
  0
POLYLINE
  5
271
330
1E
100
AcDbEntity
  8
2
100
AcDb2dPolyline
 66
     1
 10
0.0
 20
0.0
 30
0.0
  0
VERTEX
  5
272
330
271
100
AcDbEntity
  8
2
100
AcDbVertex
100
AcDb2dVertex
 10
67.75
 20
67.0
 30
0.0
  0
VERTEX
  5
273
330
271
100
AcDbEntity
  8
2
100
AcDbVertex
100
AcDb2dVertex
 10
66.59529946162068
 20
64.99999999999984
 30
0.0
  0
SEQEND
  5
274
330
271
100
AcDbEntity
  8
2
  0
LINE
  5
275
330
1E
100
AcDbEntity
  8
0
100
AcDbLine
 10
63.75
 20
61.5
 30
0.0
 11
63.75
 21
70.0
 31
0.0
  0
LINE
  5
276
330
1E
100
AcDbEntity
  8
2
100
AcDbLine
 10
66.59529946162068
 20
64.99999999999984
 30
0.0
 11
63.75
 21
64.99999999999984
 31
0.0
  0
LINE
  5
277
330
1E
100
AcDbEntity
  8
0
100
AcDbLine
 10
69.15
 20
67.5
 30
0.0
 11
69.15
 21
61.5
 31
0.0
  0
LINE
  5
278
330
1E
100
AcDbEntity
  8
0
100
AcDbLine
 10
68.45
 20
61.5
 30
0.0
 11
68.44179606750063
 21
67.5
 31
0.0
  0
LINE
  5
279
330
1E
100
AcDbEntity
  8
0
100
AcDbLine
 10
69.15
 20
61.5
 30
0.0
 11
68.45
 21
61.5
 31
0.0
  0
LINE
  5
27A
330
1E
100
AcDbEntity
  8
2
100
AcDbLine
 10
68.4
 20
64.75
 30
0.0
 11
68.9
 21
64.75
 31
0.0
  0
LINE
  5
27B
330
1E
100
AcDbEntity
  8
2
100
AcDbLine
 10
68.9
 20
64.75
 30
0.0
 11
69.15
 21
64.99999999999984
 31
0.0
  0
LINE
  5
27C
330
1E
100
AcDbEntity
  8
0
100
AcDbLine
 10
68.44179606750063
 20
67.5
 30
0.0
 11
69.15
 21
67.5
 31
0.0
  0
ENDSEC
  0
SECTION
  2
OBJECTS
  0
DICTIONARY
  5
C
330
0
100
AcDbDictionary
281
     1
  3
ACAD_GROUP
350
D
  3
ACAD_LAYOUT
350
19
  3
ACAD_MLINESTYLE
350
16
  3
ACAD_PLOTSETTINGS
350
18
  3
ACAD_PLOTSTYLENAME
350
E
  3
AcDbVariableDictionary
350
284
  3
AcmDictionary
350
157
  3
AMG
350
9D
  3
AMGSNAPSETTINGS
350
174
  3
DWGPROPS
350
33E
  0
DICTIONARY
  5
27D
330
1E
100
AcDbDictionary
280
     1
281
     1
  3
ACAD_INDEX
360
27E
  0
DICTIONARY
  5
D
102
{ACAD_REACTORS
330
C
102
}
330
C
100
AcDbDictionary
281
     1
  0
DICTIONARY
  5
19
102
{ACAD_REACTORS
330
C
102
}
330
C
100
AcDbDictionary
281
     1
  3
Model
350
21
  3
ﾚｲｱｳﾄ1
350
1D
  0
DICTIONARY
  5
16
102
{ACAD_REACTORS
330
C
102
}
330
C
100
AcDbDictionary
281
     1
  3
Standard
350
17
  0
DICTIONARY
  5
18
102
{ACAD_REACTORS
330
C
102
}
330
C
100
AcDbDictionary
281
     1
  0
ACDBDICTIONARYWDFLT
  5
E
102
{ACAD_REACTORS
330
C
102
}
330
C
100
AcDbDictionary
281
     1
  3
Normal
350
F
100
AcDbDictionaryWithDefault
340
F
  0
DICTIONARY
  5
284
102
{ACAD_REACTORS
330
C
102
}
330
C
100
AcDbDictionary
281
     1
  3
DIMASSOC
350
286
  3
INDEXCTL
350
285
  0
DICTIONARY
  5
157
102
{ACAD_REACTORS
330
C
102
}
330
C
100
AcDbDictionary
281
     1
  3
AcmBOMDATA
350
33C
  0
DICTIONARY
  5
9D
102
{ACAD_REACTORS
330
C
102
}
330
C
100
AcDbDictionary
281
     1
  3
AcMgSettings
350
9E
  3
AMGLAYCFG
350
346
  0
DICTIONARY
  5
174
102
{ACAD_REACTORS
330
C
102
}
330
C
100
AcDbDictionary
281
     1
  3
DIMENSION
350
179
  3
FEA
350
178
  3
HATCH (1)
350
175
  3
HATCH (2)
350
176
  3
SIMPLE WELD
350
17A
  3
SYMBOLS
350
177
  0
XRECORD
  5
33E
102
{ACAD_REACTORS
330
C
102
}
330
C
100
AcDbXrecord
280
     1
  1
DWGPROPS COOKIE
  2

  3

  4

  6

  7

  8

  9

300
AmdtFileType=84
301
=
302
=
303
=
304
=
305
=
306
=
307
=
308
=
309
=
 40
0.0115549074074074
 41
2450687.576724537
 42
2456524.633300058
  1

 90
        1
  0
DICTIONARY
  5
27E
102
{ACAD_REACTORS
330
27D
102
}
330
27D
100
AcDbDictionary
281
     1
  3
*A1
350
27F
  0
LAYOUT
  5
21
102
{ACAD_REACTORS
330
19
102
}
330
19
100
AcDbPlotSettings
  1

  2
\\KONISHIDENXP\SHARP MX-2700FG
  4

  6

 40
0.0
 41
0.0
 42
0.0
 43
0.0
 44
0.0
 45
0.0
 46
0.0
 47
0.0
 48
0.0
 49
0.0
140
0.0
141
0.0
142
1.0
143
1.0
 70
  1712
 72
     0
 73
     0
 74
     0
  7

 75
     0
147
1.0
148
0.0
149
0.0
100
AcDbLayout
  1
Model
 70
     1
 71
     0
 10
0.0
 20
0.0
 11
12.0
 21
9.0
 12
0.0
 22
0.0
 32
0.0
 14
0.0
 24
0.0
 34
0.0
 15
0.0
 25
0.0
 35
0.0
146
0.0
 13
0.0
 23
0.0
 33
0.0
 16
1.0
 26
0.0
 36
0.0
 17
0.0
 27
1.0
 37
0.0
 76
     0
330
1E
  0
LAYOUT
  5
1D
102
{ACAD_REACTORS
330
19
102
}
330
19
100
AcDbPlotSettings
  1

  2
\\KONISHIDENXP\SHARP MX-2700FG
  4

  6

 40
0.0
 41
0.0
 42
0.0
 43
0.0
 44
0.0
 45
0.0
 46
0.0
 47
0.0
 48
0.0
 49
0.0
140
0.0
141
0.0
142
1.0
143
1.0
 70
   688
 72
     0
 73
     0
 74
     5
  7

 75
    16
147
1.0
148
0.0
149
0.0
100
AcDbLayout
  1
ﾚｲｱｳﾄ1
 70
     1
 71
     1
 10
0.0
 20
0.0
 11
420.0
 21
297.0
 12
0.0
 22
0.0
 32
0.0
 14
1.000000000000000E+20
 24
1.000000000000000E+20
 34
1.000000000000000E+20
 15
-1.000000000000000E+20
 25
-1.000000000000000E+20
 35
-1.000000000000000E+20
146
0.0
 13
0.0
 23
0.0
 33
0.0
 16
1.0
 26
0.0
 36
0.0
 17
0.0
 27
1.0
 37
0.0
 76
     0
330
1A
  0
MLINESTYLE
  5
17
102
{ACAD_REACTORS
330
16
102
}
330
16
100
AcDbMlineStyle
  2
STANDARD
 70
     0
  3

 62
   256
 51
90.0
 52
90.0
 71
     2
 49
0.5
 62
   256
  6
BYLAYER
 49
-0.5
 62
   256
  6
BYLAYER
  0
ACDBPLACEHOLDER
  5
F
102
{ACAD_REACTORS
330
E
102
}
330
E
  0
DICTIONARYVAR
  5
286
102
{ACAD_REACTORS
330
284
102
}
330
284
100
DictionaryVariables
280
     0
  1
1
  0
DICTIONARYVAR
  5
285
102
{ACAD_REACTORS
330
284
102
}
330
284
100
DictionaryVariables
280
     0
  1
1
  0
ACMDATADICTIONARY
  5
33C
102
{ACAD_REACTORS
330
157
102
}
330
157
100
AcDbDictionary
281
     1
  3
*A1
350
33D
100
AcmDataDictionary
  0
DICTIONARY
  5
9E
102
{ACAD_REACTORS
330
9D
102
}
330
9D
100
AcDbDictionary
281
     1
  3
DWGSETTINGS
350
28E
  0
ACAMGFILTERDAT
  5
179
102
{ACAD_REACTORS
330
174
102
}
330
174
100
AcAmgFilterDat
 70
    15
  1
DIMENSION,AMDT_*_DIM
  2
*
  3
*
  4
*
  5
*
290
     1
  0
ACAMGFILTERDAT
  5
178
102
{ACAD_REACTORS
330
174
102
}
330
174
100
AcAmgFilterDat
 70
    15
  1
*
  2
AM_FEA-AM_*
  3
*
  4
*
  5
*
290
     1
  0
ACAMGFILTERDAT
  5
175
102
{ACAD_REACTORS
330
174
102
}
330
174
100
AcAmgFilterDat
 70
    15
  1
HATCH
  2
*
  3
*
  4
*
  5
*
290
     1
  0
ACAMGFILTERDAT
  5
176
102
{ACAD_REACTORS
330
174
102
}
330
174
100
AcAmgFilterDat
 70
    15
  1
LINE
  2
8,8N,*-8,*-8N,AM_8,AM_8N,*-AM_8,*-AM_8N
  3
*
  4
*
  5
INSERT,STDPART2D
290
     1
  0
ACAMGFILTERDAT
  5
17A
102
{ACAD_REACTORS
330
174
102
}
330
174
100
AcAmgFilterDat
 70
    15
  1
ARC
  2
AM_5
  3
*
  4
2
  5
INSERT
290
     0
  0
ACAMGFILTERDAT
  5
177
102
{ACAD_REACTORS
330
174
102
}
330
174
100
AcAmgFilterDat
 70
    15
  1
ACMFCFRAME,ACMDATUMTARGET,ACMDATUMID,ACMWELDSYM,ACMSURFSYM,ACMFEATID,ACMPARTREF,ACMBALLOON,AMDTEDGESYM,AMGSCREWCALCTABLE
  2
*
  3
*
  4
*
  5
*
290
     1
  0
LAYER_INDEX
  5
27F
102
{ACAD_REACTORS
330
27E
102
}
330
27E
100
AcDbIndex
 40
2456524.703061516
100
AcDbLayerIndex
  8
0
360
280
 90
       45
  8
2
360
281
 90
       45
  8
1
360
282
 90
        7
  8
Defpoints
360
283
 90
        0
  0
ACMDATAENTRYBLOCK
  5
33D
102
{ACAD_REACTORS
330
33C
102
}
330
33C
100
AcmDataEntry
100
AcmDataEntryBlock
  0
IDBUFFER
  5
280
330
0
100
AcDbIdBuffer
330
30
330
31
330
32
330
4E
330
50
330
51
330
55
330
56
330
57
330
5F
330
61
330
62
330
69
330
74
330
76
330
78
330
7B
330
1D6
330
1D7
330
1D8
330
1D9
330
23B
330
23C
330
23E
330
23F
330
246
330
249
330
252
330
253
330
255
330
256
330
257
330
25A
330
25B
330
25C
330
25E
330
25F
330
262
330
26A
330
26D
330
275
330
277
330
278
330
279
330
27C
  0
IDBUFFER
  5
281
330
0
100
AcDbIdBuffer
330
5D
330
60
330
67
330
6C
330
6D
330
72
330
79
330
7A
330
1DC
330
1DD
330
1EF
330
1F0
330
1F4
330
1F8
330
1F9
330
239
330
23A
330
23D
330
240
330
244
330
245
330
247
330
248
330
24A
330
24B
330
24F
330
250
330
254
330
258
330
259
330
25D
330
260
330
261
330
263
330
264
330
265
330
269
330
26B
330
26C
330
26F
330
270
330
271
330
276
330
27A
330
27B
  0
IDBUFFER
  5
282
330
0
100
AcDbIdBuffer
330
4D
330
52
330
53
330
54
330
75
330
251
330
26E
  0
IDBUFFER
  5
283
330
0
100
AcDbIdBuffer
  0
ENDSEC
  0
EOF
