  0
SECTION
  2
HEADER
  9
$ACADVER
  1
AC1015
  9
$ACADMAINTVER
 70
    13
  9
$DWGCODEPAGE
  3
ANSI_932
  9
$INSBASE
 10
0.0
 20
0.0
 30
0.0
  9
$EXTMIN
 10
15.75
 20
2.716666666666664
 30
0.0
  9
$EXTMAX
 10
239.8966666666666
 20
214.0
 30
0.0
  9
$LIMMIN
 10
0.0
 20
0.0
  9
$LIMMAX
 10
250.0
 20
200.0
  9
$ORTHOMODE
 70
     1
  9
$REGENMODE
 70
     1
  9
$FILLMODE
 70
     1
  9
$QTEXTMODE
 70
     0
  9
$MIRRTEXT
 70
     1
  9
$LTSCALE
 40
1.0
  9
$ATTMODE
 70
     1
  9
$TEXTSIZE
 40
7.0
  9
$TRACEWID
 40
1.0
  9
$TEXTSTYLE
  7
STANDARD
  9
$CLAYER
  8
2
  9
$CELTYPE
  6
ByLayer
  9
$CECOLOR
 62
   256
  9
$CELTSCALE
 40
1.0
  9
$DISPSILH
 70
     0
  9
$DIMSCALE
 40
1.0
  9
$DIMASZ
 40
2.5
  9
$DIMEXO
 40
0.625
  9
$DIMDLI
 40
3.75
  9
$DIMRND
 40
0.0
  9
$DIMDLE
 40
0.0
  9
$DIMEXE
 40
1.25
  9
$DIMTP
 40
0.0
  9
$DIMTM
 40
0.0
  9
$DIMTXT
 40
2.5
  9
$DIMCEN
 40
2.5
  9
$DIMTSZ
 40
0.0
  9
$DIMTOL
 70
     0
  9
$DIMLIM
 70
     0
  9
$DIMTIH
 70
     1
  9
$DIMTOH
 70
     0
  9
$DIMSE1
 70
     0
  9
$DIMSE2
 70
     0
  9
$DIMTAD
 70
     1
  9
$DIMZIN
 70
     8
  9
$DIMBLK
  1

  9
$DIMASO
 70
     1
  9
$DIMSHO
 70
     1
  9
$DIMPOST
  1

  9
$DIMAPOST
  1

  9
$DIMALT
 70
     0
  9
$DIMALTD
 70
     2
  9
$DIMALTF
 40
0.0394
  9
$DIMLFAC
 40
1.0
  9
$DIMTOFL
 70
     1
  9
$DIMTVP
 40
1.0
  9
$DIMTIX
 70
     0
  9
$DIMSOXD
 70
     0
  9
$DIMSAH
 70
     0
  9
$DIMBLK1
  1

  9
$DIMBLK2
  1

  9
$DIMSTYLE
  2
ISO-25
  9
$DIMCLRD
 70
     0
  9
$DIMCLRE
 70
     0
  9
$DIMCLRT
 70
     0
  9
$DIMTFAC
 40
1.0
  9
$DIMGAP
 40
0.625
  9
$DIMJUST
 70
     0
  9
$DIMSD1
 70
     0
  9
$DIMSD2
 70
     0
  9
$DIMTOLJ
 70
     1
  9
$DIMTZIN
 70
     0
  9
$DIMALTZ
 70
     0
  9
$DIMALTTZ
 70
     0
  9
$DIMUPT
 70
     0
  9
$DIMDEC
 70
     4
  9
$DIMTDEC
 70
     4
  9
$DIMALTU
 70
     2
  9
$DIMALTTD
 70
     2
  9
$DIMTXSTY
  7
STANDARD
  9
$DIMAUNIT
 70
     0
  9
$DIMADEC
 70
     0
  9
$DIMALTRND
 40
0.0
  9
$DIMAZIN
 70
     0
  9
$DIMDSEP
 70
    46
  9
$DIMATFIT
 70
     3
  9
$DIMFRAC
 70
     0
  9
$DIMLDRBLK
  1

  9
$DIMLUNIT
 70
     2
  9
$DIMLWD
 70
    -2
  9
$DIMLWE
 70
    -2
  9
$DIMTMOVE
 70
     0
  9
$LUNITS
 70
     2
  9
$LUPREC
 70
     4
  9
$SKETCHINC
 40
1.0
  9
$FILLETRAD
 40
2.0
  9
$AUNITS
 70
     0
  9
$AUPREC
 70
     0
  9
$MENU
  1
.
  9
$ELEVATION
 40
0.0
  9
$PELEVATION
 40
0.0
  9
$THICKNESS
 40
0.0
  9
$LIMCHECK
 70
     0
  9
$CHAMFERA
 40
0.5
  9
$CHAMFERB
 40
0.5
  9
$CHAMFERC
 40
0.0
  9
$CHAMFERD
 40
0.0
  9
$SKPOLY
 70
     0
  9
$TDCREATE
 40
2450687.577812499
  9
$TDUCREATE
 40
2450687.202812499
  9
$TDUPDATE
 40
2456524.714882986
  9
$TDUUPDATE
 40
2456524.339882986
  9
$TDINDWG
 40
0.0066892708
  9
$TDUSRTIMER
 40
0.0066892708
  9
$USRTIMER
 70
     1
  9
$ANGBASE
 50
0.0
  9
$ANGDIR
 70
     0
  9
$PDMODE
 70
     0
  9
$PDSIZE
 40
0.0
  9
$PLINEWID
 40
0.0
  9
$SPLFRAME
 70
     0
  9
$SPLINETYPE
 70
     6
  9
$SPLINESEGS
 70
     8
  9
$HANDSEED
  5
1FF
  9
$SURFTAB1
 70
     6
  9
$SURFTAB2
 70
     6
  9
$SURFTYPE
 70
     6
  9
$SURFU
 70
     6
  9
$SURFV
 70
     6
  9
$UCSBASE
  2

  9
$UCSNAME
  2

  9
$UCSORG
 10
0.0
 20
0.0
 30
0.0
  9
$UCSXDIR
 10
1.0
 20
0.0
 30
0.0
  9
$UCSYDIR
 10
0.0
 20
1.0
 30
0.0
  9
$UCSORTHOREF
  2

  9
$UCSORTHOVIEW
 70
     0
  9
$UCSORGTOP
 10
0.0
 20
0.0
 30
0.0
  9
$UCSORGBOTTOM
 10
0.0
 20
0.0
 30
0.0
  9
$UCSORGLEFT
 10
0.0
 20
0.0
 30
0.0
  9
$UCSORGRIGHT
 10
0.0
 20
0.0
 30
0.0
  9
$UCSORGFRONT
 10
0.0
 20
0.0
 30
0.0
  9
$UCSORGBACK
 10
0.0
 20
0.0
 30
0.0
  9
$PUCSBASE
  2

  9
$PUCSNAME
  2

  9
$PUCSORG
 10
0.0
 20
0.0
 30
0.0
  9
$PUCSXDIR
 10
1.0
 20
0.0
 30
0.0
  9
$PUCSYDIR
 10
0.0
 20
1.0
 30
0.0
  9
$PUCSORTHOREF
  2

  9
$PUCSORTHOVIEW
 70
     0
  9
$PUCSORGTOP
 10
0.0
 20
0.0
 30
0.0
  9
$PUCSORGBOTTOM
 10
0.0
 20
0.0
 30
0.0
  9
$PUCSORGLEFT
 10
0.0
 20
0.0
 30
0.0
  9
$PUCSORGRIGHT
 10
0.0
 20
0.0
 30
0.0
  9
$PUCSORGFRONT
 10
0.0
 20
0.0
 30
0.0
  9
$PUCSORGBACK
 10
0.0
 20
0.0
 30
0.0
  9
$USERI1
 70
     0
  9
$USERI2
 70
     0
  9
$USERI3
 70
     0
  9
$USERI4
 70
     0
  9
$USERI5
 70
     0
  9
$USERR1
 40
0.0
  9
$USERR2
 40
0.0
  9
$USERR3
 40
0.0
  9
$USERR4
 40
0.0
  9
$USERR5
 40
0.0
  9
$WORLDVIEW
 70
     1
  9
$SHADEDGE
 70
     3
  9
$SHADEDIF
 70
    70
  9
$TILEMODE
 70
     1
  9
$MAXACTVP
 70
    16
  9
$PINSBASE
 10
0.0
 20
0.0
 30
0.0
  9
$PLIMCHECK
 70
     0
  9
$PEXTMIN
 10
1.000000000000000E+20
 20
1.000000000000000E+20
 30
1.000000000000000E+20
  9
$PEXTMAX
 10
-1.000000000000000E+20
 20
-1.000000000000000E+20
 30
-1.000000000000000E+20
  9
$PLIMMIN
 10
0.0
 20
0.0
  9
$PLIMMAX
 10
420.0
 20
297.0
  9
$UNITMODE
 70
     0
  9
$VISRETAIN
 70
     0
  9
$PLINEGEN
 70
     0
  9
$PSLTSCALE
 70
     1
  9
$TREEDEPTH
 70
  3020
  9
$CMLSTYLE
  2
Standard
  9
$CMLJUST
 70
     0
  9
$CMLSCALE
 40
1.0
  9
$PROXYGRAPHICS
 70
     1
  9
$MEASUREMENT
 70
     0
  9
$CELWEIGHT
370
    -1
  9
$ENDCAPS
280
     0
  9
$JOINSTYLE
280
     0
  9
$LWDISPLAY
290
     0
  9
$INSUNITS
 70
     0
  9
$HYPERLINKBASE
  1

  9
$STYLESHEET
  1

  9
$XEDIT
290
     1
  9
$CEPSNTYPE
380
     0
  9
$PSTYLEMODE
290
     1
  9
$FINGERPRINTGUID
  2
{A1210E1F-3FBD-454A-9B63-ECCF492E6CDA}
  9
$VERSIONGUID
  2
{25888D7C-4F95-4611-8F84-FFD002F1DD0E}
  9
$EXTNAMES
290
     1
  9
$PSVPSCALE
 40
0.0
  9
$OLESTARTUP
290
     0
  0
ENDSEC
  0
SECTION
  2
CLASSES
  0
CLASS
  1
ACDBDICTIONARYWDFLT
  2
AcDbDictionaryWithDefault
  3
AutoCAD 2000
 90
        0
280
     0
281
     0
  0
CLASS
  1
ACDBPLACEHOLDER
  2
AcDbPlaceHolder
  3
AutoCAD 2000
 90
        0
280
     0
281
     0
  0
CLASS
  1
LAYOUT
  2
AcDbLayout
  3
AutoCAD 2000
 90
        0
280
     0
281
     0
  0
CLASS
  1
AMGSETTINGSOBJ
  2
AmgSettingsObj
  3
"AcadM|Product Description: AutoCAD Mechanical 2000|Company: Autodesk"
 90
        0
280
     0
281
     0
  0
CLASS
  1
ACME_DOCUMENT
  2
AcMeDbDoc
  3
AcMeServices
 90
        0
280
     0
281
     0
  0
CLASS
  1
ACMESCOPE
  2
AcMeScope
  3
AcMeServices
 90
        0
280
     0
281
     0
  0
CLASS
  1
ACMECOMMANDHISTORY
  2
AcMeCommandHistory
  3
AcMeServices
 90
        0
280
     0
281
     0
  0
CLASS
  1
ACIMSYSVARMAN
  2
AcImSysVarManager
  3
AcMeServices
 90
        0
280
     0
281
     0
  0
CLASS
  1
ACIMREALSYSVAR
  2
AcImRealSysVar
  3
AcMeServices
 90
        0
280
     0
281
     0
  0
CLASS
  1
ACIMINTSYSVAR
  2
AcImIntSysVar
  3
AcMeServices
 90
        0
280
     0
281
     0
  0
CLASS
  1
ACMEDRAWINGMAN
  2
AcMeDrawingMan
  3
AcMeServices
 90
        0
280
     0
281
     0
  0
CLASS
  1
ACMEVIEW
  2
AcMeView
  3
AcMeServices
 90
        0
280
     0
281
     0
  0
CLASS
  1
ACDBENTITYCACHE
  2
AcMeEntityCache
  3
AcMeServices
 90
        0
280
     0
281
     0
  0
CLASS
  1
GSMANAGER
  2
AcMeGSManager
  3
AcMeServices
 90
        0
280
     0
281
     0
  0
CLASS
  1
AMDTINTERNALREACTOR
  2
AmdtInternalReactor
  3
AcMeServices
 90
        0
280
     0
281
     0
  0
CLASS
  1
ACMESTATEMGR
  2
AcMeStateMgr
  3
AcMeServices
 90
        0
280
     0
281
     0
  0
CLASS
  1
ACGREFMASTER
  2
AcGrefMaster
  3
AcAttribServices
 90
        0
280
     0
281
     0
  0
CLASS
  1
AM_DRAWING_MGR
  2
AcDmDwgMgr
  3
AcMechDwgViewMgmt
 90
        0
280
     0
281
     0
  0
CLASS
  1
AM_DWG_DOCUMENT
  2
AcDmDwgDocument
  3
AcMechDwgViewMgmt
 90
        0
280
     0
281
     0
  0
CLASS
  1
AM_DWG_SHEET
  2
AcDmSheet
  3
AcMechDwgViewMgmt
 90
        0
280
     0
281
     0
  0
CLASS
  1
AM_VIEWDIMPARMAP
  2
AcDmViewDimParMap
  3
AcMechDwgViewMgmt
 90
        0
280
     0
281
     0
  0
CLASS
  1
AM_DWGMGR_NAME
  2
AcDmDwgMgrName
  3
AcMechDwgViewMgmt
 90
        0
280
     0
281
     0
  0
CLASS
  1
ACME_DATABASE
  2
AcMeDbDatabase
  3
AcMeServices
 90
        0
280
     0
281
     0
  0
CLASS
  1
ACRFINSADJUSTERMGR
  2
AcRfInsAdjusterMgr
  3
AcMeServices
 90
        0
280
     0
281
     0
  0
CLASS
  1
ACGREFACADMASTER
  2
AcGrefacadMaster
  3
AcGrefServices
 90
        0
280
     0
281
     0
  0
CLASS
  1
AMDTMENUSTATEMGR
  2
AmdtMenuStateMgr
  3
McadcomServices
 90
        0
280
     0
281
     0
  0
CLASS
  1
AMDTMCOMMENUSTATE
  2
AmdtMcomMenuState
  3
McadcomServices
 90
        0
280
     0
281
     0
  0
CLASS
  1
AMIMASTER
  2
AmiMaster
  3
AmiServices
 90
        0
280
     0
281
     0
  0
CLASS
  1
ASAPP
  2
AcAsAppObject
  3
AutoSurfServices
 90
        0
280
     0
281
     0
  0
CLASS
  1
IM_STATIC_MAN
  2
AcImStaticVarManager
  3
AcMeServices
 90
        0
280
     0
281
     0
  0
CLASS
  1
ACIMSTRSYSVAR
  2
AcImStrSysVar
  3
AcMeServices
 90
        0
280
     0
281
     0
  0
CLASS
  1
ACIMDBLSTATICVAR
  2
AcImDblStaticVar
  3
AcMeServices
 90
        0
280
     0
281
     0
  0
CLASS
  1
ACIMSTRSTATICVAR
  2
AcImStrStaticVar
  3
AcMeServices
 90
        0
280
     0
281
     0
  0
CLASS
  1
ACIMINTSTATICVAR
  2
AcImIntStaticVar
  3
AcMeServices
 90
        0
280
     0
281
     0
  0
CLASS
  1
ACASGREFMASTER
  2
AcAsGrefMaster
  3
AutoSurfResolverServices
 90
        0
280
     0
281
     0
  0
CLASS
  1
ACADGREFMODULE
  2
AcAdGrefModule
  3
AdGrefServices
 90
        0
280
     0
281
     0
  0
CLASS
  1
AMDTMAPISURFMOUDULE
  2
AmdtMApiSurfModule
  3
MApiSurfServices
 90
        0
280
     0
281
     0
  0
CLASS
  1
MAPIAMMOUDLE
  2
MApiAmModule
  3
MApiAmServices
 90
        0
280
     0
281
     0
  0
CLASS
  1
AMDTADMENUSTATE
  2
AmdtAdMenuState
  3
DesignerServices
 90
        0
280
     0
281
     0
  0
CLASS
  1
ADAPPL
  2
AcAdAppl
  3
DesignerServices
 90
        0
280
     0
281
     0
  0
CLASS
  1
DEPMGR
  2
AcAdDepMgr
  3
DesignerServices
 90
        0
280
     0
281
     0
  0
CLASS
  1
PARAMMGR
  2
AcAdParamMgr
  3
DesignerServices
 90
        0
280
     0
281
     0
  0
CLASS
  1
PARAMSCOPE
  2
AcAdParamScope
  3
DesignerServices
 90
        0
280
     0
281
     0
  0
CLASS
  1
NAMEDAPPL
  2
AcAdNamedAppl
  3
DesignerServices
 90
        0
280
     0
281
     0
  0
CLASS
  1
AMDTDMMENUSTATE
  2
AmdtDmMenuState
  3
AcMechDwgViewMgmt
 90
        0
280
     0
281
     0
  0
CLASS
  1
MAPIADMODULE
  2
MApiAdModule
  3
MApiAdServices
 90
        0
280
     0
281
     0
  0
CLASS
  1
AMDTAMMENUSTATE
  2
AmdtAmMenuState
  3
DesignerAssemblies
 90
        0
280
     0
281
     0
  0
CLASS
  1
ACAMPROJECT
  2
AcAmProject
  3
DesignerAssemblies
 90
        0
280
     0
281
     0
  0
CLASS
  1
ACAMGRCOMPDEF
  2
AcAmGrCompDef
  3
DesignerAssemblies
 90
        0
280
     0
281
     0
  0
CLASS
  1
ACCMCONTEXT
  2
AcCmContext
  3
DesignerAssemblies
 90
        0
280
     0
281
     0
  0
CLASS
  1
ACAMCOMPDEF
  2
AcAmCompDef
  3
DesignerAssemblies
 90
        0
280
     0
281
     0
  0
CLASS
  1
ACAMCOMPDEFMGR
  2
AcAmCompDefMgr
  3
DesignerAssemblies
 90
        0
280
     0
281
     0
  0
CLASS
  1
AMCONTEXTMGR
  2
AcAmContextMgr
  3
DesignerAssemblies
 90
        0
280
     0
281
     0
  0
CLASS
  1
ACAMCONTEXTMODELER
  2
AcAmContextModeler
  3
DesignerAssemblies
 90
        0
280
     0
281
     0
  0
CLASS
  1
ACMDATADICTIONARY
  2
AcmDataDictionary
  3
"AcmSymBB|Product Description: AutoCAD Mechanical 2000|Company: Autodesk"
 90
        0
280
     0
281
     0
  0
CLASS
  1
ACMDATAENTRYBLOCK
  2
AcmDataEntryBlock
  3
"AcmSymBB|Product Description: AutoCAD Mechanical 2000|Company: Autodesk"
 90
        0
280
     0
281
     0
  0
CLASS
  1
CATALOGSTATE
  2
AcAmCatalogState
  3
DesignerAssemblies
 90
        0
280
     0
281
     0
  0
CLASS
  1
ACAMGRCOMPDEFSET
  2
AcAmGrCompDefSet
  3
DesignerAssemblies
 90
        0
280
     0
281
     0
  0
CLASS
  1
AMDTBROWSERDBTAB
  2
AmdtBrowserDbTab
  3
McadcomServices
 90
        0
280
     0
281
     0
  0
CLASS
  1
CBROWSERAPPOBJECT
  2
CBrowserAppObject
  3
McadcomServices
 90
        0
280
     0
281
     0
  0
CLASS
  1
DM_PLACEHOLDER
  2
AcDmSelsetPlaceholder
  3
AcMechDwgViewMgmt
 90
        0
280
     0
281
     0
  0
CLASS
  1
AMGOBJPROPCFG
  2
AmgObjPropCfg
  3
"AmgLay|Product Description: AutoCAD Mechanical 2000|Company: Autodesk"
 90
        1
280
     0
281
     0
  0
CLASS
  1
ACAMGFILTERDAT
  2
AcAmgFilterDat
  3
"AcadM|Product Description: AutoCAD Mechanical 2000|Company: Autodesk"
 90
        0
280
     0
281
     0
  0
CLASS
  1
LAYER_INDEX
  2
AcDbLayerIndex
  3
AutoCAD 2000
 90
        0
280
     0
281
     0
  0
CLASS
  1
IDBUFFER
  2
AcDbIdBuffer
  3
AutoCAD 2000
 90
        0
280
     0
281
     0
  0
CLASS
  1
DICTIONARYVAR
  2
AcDbDictionaryVar
  3
AutoCAD 2000
 90
        0
280
     0
281
     0
  0
ENDSEC
  0
SECTION
  2
TABLES
  0
TABLE
  2
VPORT
  5
8
330
0
100
AcDbSymbolTable
 70
     4
  0
VPORT
  5
1FE
330
8
100
AcDbSymbolTableRecord
100
AcDbViewportTableRecord
  2
*Active
 70
     0
 10
0.0
 20
0.0
 11
1.0
 21
1.0
 12
158.6643551230313
 22
106.5060240963854
 13
0.0
 23
0.0
 14
0.25
 24
0.25
 15
0.5
 25
0.5
 16
0.0
 26
0.0
 36
1.0
 17
0.0
 27
0.0
 37
0.0
 40
213.0120481927709
 41
1.489721886336154
 42
50.0
 43
0.0
 44
0.0
 50
0.0
 51
0.0
 71
     0
 72
 20000
 73
     1
 74
     1
 75
     0
 76
     0
 77
     0
 78
     0
281
     0
 65
     0
110
0.0
120
0.0
130
0.0
111
1.0
121
0.0
131
0.0
112
0.0
122
1.0
132
0.0
 79
     0
146
0.0
  0
ENDTAB
  0
TABLE
  2
LTYPE
  5
5
330
0
100
AcDbSymbolTable
 70
    19
  0
LTYPE
  5
13
330
5
100
AcDbSymbolTableRecord
100
AcDbLinetypeTableRecord
  2
ByBlock
 70
     0
  3

 72
    65
 73
     0
 40
0.0
  0
LTYPE
  5
14
330
5
100
AcDbSymbolTableRecord
100
AcDbLinetypeTableRecord
  2
ByLayer
 70
     0
  3

 72
    65
 73
     0
 40
0.0
  0
LTYPE
  5
15
330
5
100
AcDbSymbolTableRecord
100
AcDbLinetypeTableRecord
  2
CONTINUOUS
 70
     0
  3
Solid line
 72
    65
 73
     0
 40
0.0
  0
LTYPE
  5
22
330
5
100
AcDbSymbolTableRecord
100
AcDbLinetypeTableRecord
  2
BYLAYER
 70
     0
  3

 72
    65
 73
     0
 40
0.0
  0
LTYPE
  5
23
330
5
100
AcDbSymbolTableRecord
100
AcDbLinetypeTableRecord
  2
TENSEN
 70
     0
  3

 72
    65
 73
     2
 40
2.5
 49
1.5
 74
     0
 49
-1.0
 74
     0
  0
LTYPE
  5
24
330
5
100
AcDbSymbolTableRecord
100
AcDbLinetypeTableRecord
  2
ITTEN
 70
     0
  3

 72
    65
 73
     4
 40
3.6
 49
2.0
 74
     0
 49
-0.5
 74
     0
 49
0.6
 74
     0
 49
-0.5
 74
     0
  0
LTYPE
  5
C7
330
5
100
AcDbSymbolTableRecord
100
AcDbLinetypeTableRecord
  2
HIDDEN
 70
     0
  3
Hidden __ __ __ __ __ __ __ __ __ __ __ __ __ _
 72
    65
 73
     2
 40
0.375
 49
0.25
 74
     0
 49
-0.125
 74
     0
  0
LTYPE
  5
C8
330
5
100
AcDbSymbolTableRecord
100
AcDbLinetypeTableRecord
  2
PHANTOM2
 70
     0
  3
Phantom (.5x) ___ _ _ ___ _ _ ___ _ _ ___ _ _
 72
    65
 73
     6
 40
1.25
 49
0.625
 74
     0
 49
-0.125
 74
     0
 49
0.125
 74
     0
 49
-0.125
 74
     0
 49
0.125
 74
     0
 49
-0.125
 74
     0
  0
LTYPE
  5
C9
330
5
100
AcDbSymbolTableRecord
100
AcDbLinetypeTableRecord
  2
CENTER
 70
     0
  3
Center ____ _ ____ _ ____ _ ____ _ ____ _ ____
 72
    65
 73
     4
 40
2.0
 49
1.25
 74
     0
 49
-0.25
 74
     0
 49
0.25
 74
     0
 49
-0.25
 74
     0
  0
LTYPE
  5
12B
330
5
100
AcDbSymbolTableRecord
100
AcDbLinetypeTableRecord
  2
ASULTYPE
 70
     0
  3
実線
 72
    65
 73
     2
 40
3.0
 49
2.5
 74
     0
 49
0.5
 74
     0
  0
LTYPE
  5
12C
330
5
100
AcDbSymbolTableRecord
100
AcDbLinetypeTableRecord
  2
ASVLTYPE
 70
     0
  3
__ __ __ __ __ __ __ __ __ __ __ __ __ __ __ __ __ __ __ __ __
 72
    65
 73
     2
 40
0.75
 49
0.5
 74
     0
 49
-0.25
 74
     0
  0
LTYPE
  5
16D
330
5
100
AcDbSymbolTableRecord
100
AcDbLinetypeTableRecord
  2
AM_ISO02W050
 70
     0
  3
__ __ __ __ __ __ __ __ __ __ __ __ __ __ __
 72
    65
 73
     2
 40
7.5
 49
6.0
 74
     0
 49
-1.5
 74
     0
  0
LTYPE
  5
16E
330
5
100
AcDbSymbolTableRecord
100
AcDbLinetypeTableRecord
  2
AM_ISO08W050
 70
     0
  3
____ . ____ . ____ . ____ . ____ . ____ . ____
 72
    65
 73
     4
 40
18.0
 49
12.0
 74
     0
 49
-1.5
 74
     0
 49
3.0
 74
     0
 49
-1.5
 74
     0
  0
LTYPE
  5
16F
330
5
100
AcDbSymbolTableRecord
100
AcDbLinetypeTableRecord
  2
AM_ISO09W050
 70
     0
  3
_____ . . _____ . . _____ . . ____ .. ____
 72
    65
 73
     6
 40
22.5
 49
12.0
 74
     0
 49
-1.5
 74
     0
 49
3.0
 74
     0
 49
-1.5
 74
     0
 49
3.0
 74
     0
 49
-1.5
 74
     0
  0
LTYPE
  5
170
330
5
100
AcDbSymbolTableRecord
100
AcDbLinetypeTableRecord
  2
Amconstr
 70
     0
  3
_______________________
 72
    65
 73
     2
 40
9999.0
 49
9999.0
 74
     0
 49
0.0
 74
     0
  0
LTYPE
  5
171
330
5
100
AcDbSymbolTableRecord
100
AcDbLinetypeTableRecord
  2
AM_ISO08W050x2
 70
     0
  3
__ . __ . __ . __ . __ . __
 72
    65
 73
     4
 40
9.0
 49
6.0
 74
     0
 49
-0.75
 74
     0
 49
1.5
 74
     0
 49
-0.75
 74
     0
  0
LTYPE
  5
172
330
5
100
AcDbSymbolTableRecord
100
AcDbLinetypeTableRecord
  2
AM_ISO02W050x2
 70
     0
  3
 _ _ _ _ _ _ _ _ _ _ _ _
 72
    65
 73
     2
 40
3.75
 49
3.0
 74
     0
 49
-0.75
 74
     0
  0
LTYPE
  5
175
330
5
100
AcDbSymbolTableRecord
100
AcDbLinetypeTableRecord
  2
Amzigzag
 70
     0
  3
/\/-/\/-/\/-/\/-/\/-/\/
 72
    65
 73
     2
 40
11.00009999999999
 49
0.0001
 74
     4
 75
   135
340
174
 46
0.04
 50
0.0
 44
0.0
 45
0.0
 49
-11.0
 74
     0
  0
LTYPE
  5
176
330
5
100
AcDbSymbolTableRecord
100
AcDbLinetypeTableRecord
  2
CENTER2
 70
     0
  3
Center (.5x) ___ _ ___ _ ___ _ ___ _ ___ _ ___
 72
    65
 73
     4
 40
1.125
 49
0.75
 74
     0
 49
-0.125
 74
     0
 49
0.125
 74
     0
 49
-0.125
 74
     0
  0
LTYPE
  5
177
330
5
100
AcDbSymbolTableRecord
100
AcDbLinetypeTableRecord
  2
HIDDEN2
 70
     0
  3
Hidden (.5x) _ _ _ _ _ _ _ _ _ _ _ _ _ _ _ _ _
 72
    65
 73
     2
 40
0.1875
 49
0.125
 74
     0
 49
-0.0625
 74
     0
  0
LTYPE
  5
178
330
5
100
AcDbSymbolTableRecord
100
AcDbLinetypeTableRecord
  2
Amzigzag2
 70
     0
  3
/\/-/\/-/\/-/\/-/\/-/\/
 72
    65
 73
     2
 40
0.4401
 49
0.0001
 74
     4
 75
   135
340
174
 46
0.0016
 50
0.0
 44
0.0
 45
0.0
 49
-0.4400000000000001
 74
     0
  0
ENDTAB
  0
TABLE
  2
LAYER
  5
2
330
0
100
AcDbSymbolTable
 70
     4
  0
LAYER
  5
10
330
2
100
AcDbSymbolTableRecord
100
AcDbLayerTableRecord
  2
0
 70
     0
 62
     7
  6
CONTINUOUS
370
    -3
390
F
  0
LAYER
  5
25
330
2
100
AcDbSymbolTableRecord
100
AcDbLayerTableRecord
  2
2
 70
     0
 62
     7
  6
TENSEN
370
    -3
390
F
  0
LAYER
  5
26
330
2
100
AcDbSymbolTableRecord
100
AcDbLayerTableRecord
  2
1
 70
     0
 62
     1
  6
ITTEN
370
    -3
390
F
  0
LAYER
  5
185
330
2
100
AcDbSymbolTableRecord
100
AcDbLayerTableRecord
  2
Defpoints
 70
     0
 62
     7
  6
CONTINUOUS
290
     0
370
    -3
390
F
  0
ENDTAB
  0
TABLE
  2
STYLE
  5
3
330
0
100
AcDbSymbolTable
 70
     2
  0
STYLE
  5
11
330
3
100
AcDbSymbolTableRecord
100
AcDbTextStyleTableRecord
  2
STANDARD
 70
     0
 40
7.0
 41
0.8
 50
0.0
 71
     0
 42
7.0
  3
ISOCP
  4
B:\r13\com\fonts\bigfont.shx
  0
STYLE
  5
174
330
3
100
AcDbSymbolTableRecord
100
AcDbTextStyleTableRecord
  2

 70
     1
 40
0.0
 41
1.0
 50
0.0
 71
     0
 42
7.0
  3
ltypeshp.shx
  4

  0
ENDTAB
  0
TABLE
  2
VIEW
  5
6
330
0
100
AcDbSymbolTable
 70
     0
  0
ENDTAB
  0
TABLE
  2
UCS
  5
7
330
0
100
AcDbSymbolTable
 70
     0
  0
ENDTAB
  0
TABLE
  2
APPID
  5
9
330
0
100
AcDbSymbolTable
 70
    12
  0
APPID
  5
12
330
9
100
AcDbSymbolTableRecord
100
AcDbRegAppTableRecord
  2
ACAD
 70
     0
  0
APPID
  5
A6
330
9
100
AcDbSymbolTableRecord
100
AcDbRegAppTableRecord
  2
GENIUS_GENDIM_13
 70
     0
  0
APPID
  5
A7
330
9
100
AcDbSymbolTableRecord
100
AcDbRegAppTableRecord
  2
GENIUS_GENDTOL_13
 70
     0
  0
APPID
  5
A8
330
9
100
AcDbSymbolTableRecord
100
AcDbRegAppTableRecord
  2
GENIUS_GE3DTOL_13
 70
     0
  0
APPID
  5
AA
330
9
100
AcDbSymbolTableRecord
100
AcDbRegAppTableRecord
  2
MCAD_NO_VIS
 70
     0
  0
APPID
  5
AB
330
9
100
AcDbSymbolTableRecord
100
AcDbRegAppTableRecord
  2
ACAD_TEMP_GRAPHIC
 70
     0
  0
APPID
  5
DE
330
9
100
AcDbSymbolTableRecord
100
AcDbRegAppTableRecord
  2
AD_DRAW
 70
     0
  0
APPID
  5
E1
330
9
100
AcDbSymbolTableRecord
100
AcDbRegAppTableRecord
  2
ACATTRIBSERVICES
 70
     0
  0
APPID
  5
12D
330
9
100
AcDbSymbolTableRecord
100
AcDbRegAppTableRecord
  2
ASURF_PCURVE_APPNAME
 70
     0
  0
APPID
  5
15C
330
9
100
AcDbSymbolTableRecord
100
AcDbRegAppTableRecord
  2
DESIGNERASSEMBLIES
 70
     0
  0
APPID
  5
164
330
9
100
AcDbSymbolTableRecord
100
AcDbRegAppTableRecord
  2
ACADM_DIM_EDIT
 70
     0
  0
APPID
  5
165
330
9
100
AcDbSymbolTableRecord
100
AcDbRegAppTableRecord
  2
AMDT_DM_ADJ
 70
     0
  0
ENDTAB
  0
TABLE
  2
DIMSTYLE
  5
A
330
0
100
AcDbSymbolTable
 70
     1
100
AcDbDimStyleTable
 71
     1
340
27
  0
DIMSTYLE
105
27
330
A
100
AcDbSymbolTableRecord
100
AcDbDimStyleTableRecord
  2
ISO-25
 70
     0
 41
2.5
 42
0.625
 43
3.75
 44
1.25
 74
     0
 77
     1
 78
     8
140
2.5
141
2.5
143
0.0394
145
1.0
147
0.625
172
     1
279
     2
284
     8
285
     8
286
     8
340
11
  0
ENDTAB
  0
TABLE
  2
BLOCK_RECORD
  5
1
330
0
100
AcDbSymbolTable
 70
     2
  0
BLOCK_RECORD
  5
1E
102
{ACAD_XDICTIONARY
360
1F3
102
}
330
1
100
AcDbSymbolTableRecord
100
AcDbBlockTableRecord
  2
*Model_Space
340
21
  0
BLOCK_RECORD
  5
1A
330
1
100
AcDbSymbolTableRecord
100
AcDbBlockTableRecord
  2
*Paper_Space
340
1D
  0
BLOCK_RECORD
  5
153
330
1
100
AcDbSymbolTableRecord
100
AcDbBlockTableRecord
  2
*U0
340
0
  0
BLOCK_RECORD
  5
186
330
1
100
AcDbSymbolTableRecord
100
AcDbBlockTableRecord
  2
*D1
340
0
  0
ENDTAB
  0
ENDSEC
  0
SECTION
  2
BLOCKS
  0
BLOCK
  5
1F
330
1E
100
AcDbEntity
  8
0
100
AcDbBlockBegin
  2
*Model_Space
 70
     0
 10
0.0
 20
0.0
 30
0.0
  3
*Model_Space
  1

  0
ENDBLK
  5
20
330
1E
100
AcDbEntity
  8
0
100
AcDbBlockEnd
  0
BLOCK
  5
1B
330
1A
100
AcDbEntity
 67
     1
  8
0
100
AcDbBlockBegin
  2
*Paper_Space
 70
     0
 10
0.0
 20
0.0
 30
0.0
  3
*Paper_Space
  1

  0
ENDBLK
  5
1C
330
1A
100
AcDbEntity
 67
     1
  8
0
100
AcDbBlockEnd
  0
BLOCK
  5
154
330
153
100
AcDbEntity
  8
0
100
AcDbBlockBegin
  2
*U0
 70
     1
 10
0.0
 20
0.0
 30
0.0
  3
*U0
  1

  0
ENDBLK
  5
155
330
153
100
AcDbEntity
  8
0
100
AcDbBlockEnd
  0
BLOCK
  5
192
330
186
100
AcDbEntity
  8
0
100
AcDbBlockBegin
  2
*D1
 70
     1
 10
0.0
 20
0.0
 30
0.0
  3
*D1
  1

  0
LINE
  5
187
330
186
100
AcDbEntity
  8
0
 62
     0
370
    -2
100
AcDbLine
 10
98.7
 20
156.5032899294161
 30
0.0
 11
98.7
 21
141.4382546087966
 31
0.0
  0
LINE
  5
188
330
186
100
AcDbEntity
  8
0
 62
     0
370
    -2
100
AcDbLine
 10
104.7
 20
150.3749999999998
 30
0.0
 11
104.7
 21
141.4382546087966
 31
0.0
  0
LINE
  5
189
330
186
100
AcDbEntity
  8
0
 62
     0
370
    -2
100
AcDbLine
 10
96.2
 20
142.6882546087966
 30
0.0
 11
93.7
 21
142.6882546087966
 31
0.0
  0
LINE
  5
18A
330
186
100
AcDbEntity
  8
0
 62
     0
370
    -2
100
AcDbLine
 10
107.2
 20
142.6882546087966
 30
0.0
 11
109.6999999999999
 21
142.6882546087966
 31
0.0
  0
LINE
  5
18B
330
186
100
AcDbEntity
  8
0
 62
     0
370
    -2
100
AcDbLine
 10
98.7
 20
142.6882546087966
 30
0.0
 11
104.7
 21
142.6882546087966
 31
0.0
  0
SOLID
  5
18C
330
186
100
AcDbEntity
  8
0
 62
     0
100
AcDbTrace
 10
96.2
 20
143.1049212754632
 30
0.0
 11
96.2
 21
142.2715879421299
 31
0.0
 12
98.7
 22
142.6882546087966
 32
0.0
 13
98.7
 23
142.6882546087966
 33
0.0
  0
SOLID
  5
18D
330
186
100
AcDbEntity
  8
0
 62
     0
100
AcDbTrace
 10
107.2
 20
143.1049212754632
 30
0.0
 11
107.2
 21
142.2715879421299
 31
0.0
 12
104.7
 22
142.6882546087966
 32
0.0
 13
104.7
 23
142.6882546087966
 33
0.0
  0
MTEXT
  5
18E
330
186
100
AcDbEntity
  8
0
 62
     0
100
AcDbMText
 10
101.7
 20
146.8132546087966
 30
0.0
 40
7.0
 41
0.0
 71
     5
 72
     1
  1
\A1;6
 73
     1
 44
1.0
  0
POINT
  5
18F
330
186
100
AcDbEntity
  8
Defpoints
 62
     0
100
AcDbPoint
 10
98.7
 20
157.1282899294161
 30
0.0
  0
POINT
  5
190
330
186
100
AcDbEntity
  8
Defpoints
 62
     0
100
AcDbPoint
 10
104.7
 20
150.9999999999998
 30
0.0
  0
POINT
  5
191
330
186
100
AcDbEntity
  8
Defpoints
 62
     0
100
AcDbPoint
 10
104.7
 20
142.6882546087966
 30
0.0
  0
ENDBLK
  5
193
330
186
100
AcDbEntity
  8
0
100
AcDbBlockEnd
  0
ENDSEC
  0
SECTION
  2
ENTITIES
  0
TEXT
  5
30
330
1E
100
AcDbEntity
  8
0
100
AcDbText
 10
200.1999999999999
 20
46.60000000000001
 30
0.0
 40
7.0
  1
球面座金
 41
0.8
100
AcDbText
  0
TEXT
  5
31
330
1E
100
AcDbEntity
  8
0
100
AcDbText
 10
200.1999999999999
 20
30.8
 30
0.0
 40
7.0
  1
ＲＷ－
 41
0.8
100
AcDbText
  0
TEXT
  5
32
330
1E
100
AcDbEntity
  8
0
100
AcDbText
 10
220.5
 20
30.75
 30
0.0
 40
7.0
  1
２０
 41
0.8
100
AcDbText
  0
LINE
  5
54
330
1E
100
AcDbEntity
  8
1
100
AcDbLine
 10
164.25
 20
135.25
 30
0.0
 11
164.25
 21
76.5
 31
0.0
  0
CIRCLE
  5
55
330
1E
100
AcDbEntity
  8
0
100
AcDbCircle
 10
164.25
 20
105.75
 30
0.0
 40
25.0
  0
CIRCLE
  5
57
330
1E
100
AcDbEntity
  8
0
100
AcDbCircle
 10
164.25
 20
105.75
 30
0.0
 40
18.0
  0
CIRCLE
  5
58
330
1E
100
AcDbEntity
  8
0
100
AcDbCircle
 10
164.25
 20
105.75
 30
0.0
 40
10.5
  0
LINE
  5
59
330
1E
100
AcDbEntity
  8
1
100
AcDbLine
 10
66.0
 20
105.75
 30
0.0
 11
16.25
 21
105.75
 31
0.0
  0
LINE
  5
5A
330
1E
100
AcDbEntity
  8
1
100
AcDbLine
 10
40.75
 20
134.25
 30
0.0
 11
40.75
 21
77.25
 31
0.0
  0
CIRCLE
  5
5B
330
1E
100
AcDbEntity
  8
0
100
AcDbCircle
 10
40.75
 20
105.75
 30
0.0
 40
25.0
  0
CIRCLE
  5
5C
330
1E
100
AcDbEntity
  8
0
100
AcDbCircle
 10
40.75
 20
105.75
 30
0.0
 40
11.75
  0
CIRCLE
  5
5D
330
1E
100
AcDbEntity
  8
0
100
AcDbCircle
 10
40.75
 20
105.75
 30
0.0
 40
10.5
  0
LINE
  5
5E
330
1E
100
AcDbEntity
  8
1
100
AcDbLine
 10
136.7499999999998
 20
105.75
 30
0.0
 11
191.5
 21
105.75
 31
0.0
  0
LINE
  5
60
330
1E
100
AcDbEntity
  8
2
100
AcDbLine
 10
104.4499999999999
 20
158.4999999999998
 30
0.0
 11
104.4499999999999
 21
168.9999999999998
 31
0.0
  0
LINE
  5
61
330
1E
100
AcDbEntity
  8
2
100
AcDbLine
 10
98.40000000000001
 20
168.9999999999998
 30
0.0
 11
98.39999999999999
 21
157.491814281064
 31
0.0
  0
LINE
  5
62
330
1E
100
AcDbEntity
  8
0
100
AcDbLine
 10
104.7
 20
150.9999999999998
 30
0.0
 11
104.7
 21
168.9999999999998
 31
0.0
  0
LINE
  5
63
330
1E
100
AcDbEntity
  8
0
100
AcDbLine
 10
92.5
 20
168.9999999999998
 30
0.0
 11
92.5
 21
143.9999999999998
 31
0.0
  0
LINE
  5
64
330
1E
100
AcDbEntity
  8
0
100
AcDbLine
 10
100.5
 20
143.9999999999998
 30
0.0
 11
100.5
 21
168.9999999999998
 31
0.0
  0
LINE
  5
65
330
1E
100
AcDbEntity
  8
0
100
AcDbLine
 10
92.5
 20
143.9999999999998
 30
0.0
 11
100.5
 21
143.9999999999998
 31
0.0
  0
LINE
  5
6D
330
1E
100
AcDbEntity
  8
2
100
AcDbLine
 10
98.40000000000001
 20
158.4999999999998
 30
0.0
 11
104.4499999999999
 21
158.4999999999998
 31
0.0
  0
LINE
  5
6E
330
1E
100
AcDbEntity
  8
2
100
AcDbLine
 10
104.7
 20
158.25
 30
0.0
 11
104.4499999999999
 21
158.4999999999998
 31
0.0
  0
LINE
  5
6F
330
1E
100
AcDbEntity
  8
1
100
AcDbLine
 10
85.99999999999999
 20
168.9999999999998
 30
0.0
 11
109.25
 21
168.9999999999998
 31
0.0
  0
LINE
  5
70
330
1E
100
AcDbEntity
  8
2
100
AcDbLine
 10
104.4499999999999
 20
179.4999999999998
 30
0.0
 11
104.4499999999999
 21
168.9999999999998
 31
0.0
  0
LINE
  5
71
330
1E
100
AcDbEntity
  8
2
100
AcDbLine
 10
98.40000000000001
 20
168.9999999999998
 30
0.0
 11
98.40000000000003
 21
180.5081857189358
 31
0.0
  0
LINE
  5
72
330
1E
100
AcDbEntity
  8
0
100
AcDbLine
 10
104.7
 20
187.0
 30
0.0
 11
104.7
 21
168.9999999999998
 31
0.0
  0
LINE
  5
74
330
1E
100
AcDbEntity
  8
0
100
AcDbLine
 10
100.5
 20
193.9999999999998
 30
0.0
 11
100.5
 21
168.9999999999998
 31
0.0
  0
LINE
  5
75
330
1E
100
AcDbEntity
  8
0
100
AcDbLine
 10
92.5
 20
168.9999999999998
 30
0.0
 11
92.5
 21
193.9999999999998
 31
0.0
  0
LINE
  5
7A
330
1E
100
AcDbEntity
  8
0
100
AcDbLine
 10
92.5
 20
193.9999999999998
 30
0.0
 11
100.5
 21
193.9999999999998
 31
0.0
  0
LINE
  5
7D
330
1E
100
AcDbEntity
  8
2
100
AcDbLine
 10
98.40000000000001
 20
179.4999999999998
 30
0.0
 11
104.4499999999999
 21
179.4999999999998
 31
0.0
  0
LINE
  5
7E
330
1E
100
AcDbEntity
  8
2
100
AcDbLine
 10
104.7
 20
179.75
 30
0.0
 11
104.4499999999999
 21
179.4999999999998
 31
0.0
  0
LINE
  5
197
330
1E
100
AcDbEntity
  8
0
100
AcDbLine
 10
102.7
 20
187.0
 30
0.0
 11
102.6999999999999
 21
150.9999999999998
 31
0.0
  0
LINE
  5
198
330
1E
100
AcDbEntity
  8
0
100
AcDbLine
 10
104.7
 20
187.0
 30
0.0
 11
102.7
 21
187.0
 31
0.0
  0
LINE
  5
199
330
1E
100
AcDbEntity
  8
0
100
AcDbLine
 10
104.7
 20
150.9999999999998
 30
0.0
 11
102.6999999999999
 21
150.9999999999998
 31
0.0
  0
ARC
  5
19C
330
1E
100
AcDbEntity
  8
2
100
AcDbCircle
 10
122.824611797498
 20
168.9999999999999
 30
0.0
 40
27.0
100
AcDbArc
 50
205.2284863070823
 51
221.8103148957786
  0
ARC
  5
19D
330
1E
100
AcDbEntity
  8
2
100
AcDbCircle
 10
122.824611797498
 20
168.9999999999999
 30
0.0
 40
27.0
100
AcDbArc
 50
138.1896851042211
 51
154.7715136929175
  0
POLYLINE
  5
1A4
330
1E
100
AcDbEntity
  8
2
100
AcDb2dPolyline
 66
     1
 10
0.0
 20
0.0
 30
0.0
  0
VERTEX
  5
1A5
330
1A4
100
AcDbEntity
  8
2
100
AcDbVertex
100
AcDb2dVertex
 10
100.5
 20
153.4999999999998
 30
0.0
  0
VERTEX
  5
1A6
330
1A4
100
AcDbEntity
  8
2
100
AcDbVertex
100
AcDb2dVertex
 10
98.33493649053899
 20
157.2499999999997
 30
0.0
  0
SEQEND
  5
1A7
330
1A4
100
AcDbEntity
  8
2
  0
POLYLINE
  5
1A8
330
1E
100
AcDbEntity
  8
2
100
AcDb2dPolyline
 66
     1
 10
0.0
 20
0.0
 30
0.0
  0
VERTEX
  5
1A9
330
1A8
100
AcDbEntity
  8
2
100
AcDbVertex
100
AcDb2dVertex
 10
100.4999999999999
 20
184.4999999999998
 30
0.0
  0
VERTEX
  5
1AA
330
1A8
100
AcDbEntity
  8
2
100
AcDbVertex
100
AcDb2dVertex
 10
98.33493649053899
 20
180.75
 30
0.0
  0
SEQEND
  5
1AB
330
1A8
100
AcDbEntity
  8
2
  0
LINE
  5
1AC
330
1E
100
AcDbEntity
  8
2
100
AcDbLine
 10
98.33493649053899
 20
180.75
 30
0.0
 11
98.33493649053899
 21
157.2499999999997
 31
0.0
  0
LINE
  5
1AD
330
1E
100
AcDbEntity
  8
2
100
AcDbLine
 10
98.33493649053899
 20
157.2499999999997
 30
0.0
 11
92.50000000000001
 21
157.2499999999997
 31
0.0
  0
LINE
  5
1AE
330
1E
100
AcDbEntity
  8
2
100
AcDbLine
 10
98.33493649053899
 20
180.75
 30
0.0
 11
92.5
 21
180.75
 31
0.0
  0
LINE
  5
1B1
330
1E
100
AcDbEntity
  8
2
100
AcDbLine
 10
98.33493649053899
 20
117.5000000000001
 30
0.0
 11
98.33493649053899
 21
93.99999999999986
 31
0.0
  0
LINE
  5
1B2
330
1E
100
AcDbEntity
  8
2
100
AcDbLine
 10
98.40000000000001
 20
105.75
 30
0.0
 11
98.39999999999999
 21
94.2418142810642
 31
0.0
  0
LINE
  5
1B3
330
1E
100
AcDbEntity
  8
0
100
AcDbLine
 10
102.7
 20
123.7500000000001
 30
0.0
 11
102.6999999999999
 21
87.75
 31
0.0
  0
LINE
  5
1B4
330
1E
100
AcDbEntity
  8
2
100
AcDbLine
 10
104.4499999999999
 20
95.25
 30
0.0
 11
104.4499999999999
 21
105.75
 31
0.0
  0
LINE
  5
1B5
330
1E
100
AcDbEntity
  8
0
100
AcDbLine
 10
104.7
 20
87.75
 30
0.0
 11
104.7
 21
105.75
 31
0.0
  0
LINE
  5
1B6
330
1E
100
AcDbEntity
  8
0
100
AcDbLine
 10
100.5
 20
80.75000000000001
 30
0.0
 11
100.5
 21
105.75
 31
0.0
  0
LINE
  5
1B7
330
1E
100
AcDbEntity
  8
0
100
AcDbLine
 10
92.5
 20
105.75
 30
0.0
 11
92.5
 21
80.75000000000001
 31
0.0
  0
LINE
  5
1B8
330
1E
100
AcDbEntity
  8
0
100
AcDbLine
 10
92.5
 20
80.75000000000001
 30
0.0
 11
100.5
 21
80.75000000000001
 31
0.0
  0
LINE
  5
1B9
330
1E
100
AcDbEntity
  8
2
100
AcDbLine
 10
98.33493649053899
 20
93.99999999999986
 30
0.0
 11
92.50000000000001
 21
93.99999999999986
 31
0.0
  0
POLYLINE
  5
1BA
330
1E
100
AcDbEntity
  8
2
100
AcDb2dPolyline
 66
     1
 10
0.0
 20
0.0
 30
0.0
  0
VERTEX
  5
1BB
330
1BA
100
AcDbEntity
  8
2
100
AcDbVertex
100
AcDb2dVertex
 10
100.5
 20
90.25
 30
0.0
  0
VERTEX
  5
1BC
330
1BA
100
AcDbEntity
  8
2
100
AcDbVertex
100
AcDb2dVertex
 10
98.33493649053899
 20
93.99999999999986
 30
0.0
  0
SEQEND
  5
1BD
330
1BA
100
AcDbEntity
  8
2
  0
ARC
  5
1BE
330
1E
100
AcDbEntity
  8
2
100
AcDbCircle
 10
122.824611797498
 20
105.75
 30
0.0
 40
27.0
100
AcDbArc
 50
205.2284863070823
 51
221.8103148957786
  0
LINE
  5
1BF
330
1E
100
AcDbEntity
  8
0
100
AcDbLine
 10
104.7
 20
87.75
 30
0.0
 11
102.6999999999999
 21
87.75
 31
0.0
  0
LINE
  5
1C0
330
1E
100
AcDbEntity
  8
2
100
AcDbLine
 10
98.40000000000001
 20
95.25
 30
0.0
 11
104.4499999999999
 21
95.25
 31
0.0
  0
LINE
  5
1C1
330
1E
100
AcDbEntity
  8
2
100
AcDbLine
 10
104.7
 20
95.00000000000014
 30
0.0
 11
104.4499999999999
 21
95.25
 31
0.0
  0
LINE
  5
1C2
330
1E
100
AcDbEntity
  8
0
100
AcDbLine
 10
92.5
 20
105.75
 30
0.0
 11
92.5
 21
130.75
 31
0.0
  0
LINE
  5
1C3
330
1E
100
AcDbEntity
  8
0
100
AcDbLine
 10
100.5
 20
130.75
 30
0.0
 11
100.5
 21
105.75
 31
0.0
  0
LINE
  5
1C4
330
1E
100
AcDbEntity
  8
1
100
AcDbLine
 10
85.99999999999999
 20
105.75
 30
0.0
 11
109.25
 21
105.75
 31
0.0
  0
LINE
  5
1C5
330
1E
100
AcDbEntity
  8
2
100
AcDbLine
 10
98.40000000000001
 20
105.75
 30
0.0
 11
98.40000000000003
 21
117.2581857189359
 31
0.0
  0
LINE
  5
1C6
330
1E
100
AcDbEntity
  8
2
100
AcDbLine
 10
104.4499999999999
 20
116.25
 30
0.0
 11
104.4499999999999
 21
105.75
 31
0.0
  0
LINE
  5
1C7
330
1E
100
AcDbEntity
  8
0
100
AcDbLine
 10
104.7
 20
123.7500000000001
 30
0.0
 11
104.7
 21
105.75
 31
0.0
  0
LINE
  5
1C8
330
1E
100
AcDbEntity
  8
2
100
AcDbLine
 10
98.33493649053899
 20
117.5000000000001
 30
0.0
 11
92.5
 21
117.5000000000001
 31
0.0
  0
ARC
  5
1C9
330
1E
100
AcDbEntity
  8
2
100
AcDbCircle
 10
122.824611797498
 20
105.75
 30
0.0
 40
27.0
100
AcDbArc
 50
138.1896851042211
 51
154.7715136929175
  0
LINE
  5
1CA
330
1E
100
AcDbEntity
  8
2
100
AcDbLine
 10
98.40000000000001
 20
116.25
 30
0.0
 11
104.4499999999999
 21
116.25
 31
0.0
  0
POLYLINE
  5
1CB
330
1E
100
AcDbEntity
  8
2
100
AcDb2dPolyline
 66
     1
 10
0.0
 20
0.0
 30
0.0
  0
VERTEX
  5
1CC
330
1CB
100
AcDbEntity
  8
2
100
AcDbVertex
100
AcDb2dVertex
 10
100.4999999999999
 20
121.25
 30
0.0
  0
VERTEX
  5
1CD
330
1CB
100
AcDbEntity
  8
2
100
AcDbVertex
100
AcDb2dVertex
 10
98.33493649053899
 20
117.5000000000001
 30
0.0
  0
SEQEND
  5
1CE
330
1CB
100
AcDbEntity
  8
2
  0
LINE
  5
1CF
330
1E
100
AcDbEntity
  8
2
100
AcDbLine
 10
104.7
 20
116.5000000000001
 30
0.0
 11
104.4499999999999
 21
116.25
 31
0.0
  0
LINE
  5
1D0
330
1E
100
AcDbEntity
  8
0
100
AcDbLine
 10
104.7
 20
123.7500000000001
 30
0.0
 11
102.7
 21
123.7500000000001
 31
0.0
  0
LINE
  5
1D1
330
1E
100
AcDbEntity
  8
0
100
AcDbLine
 10
92.5
 20
130.75
 30
0.0
 11
100.5
 21
130.75
 31
0.0
  0
LINE
  5
1D2
330
1E
100
AcDbEntity
  8
0
100
AcDbLine
 10
92.5
 20
41.5
 30
0.0
 11
92.5
 21
16.5
 31
0.0
  0
LINE
  5
1D3
330
1E
100
AcDbEntity
  8
0
100
AcDbLine
 10
100.5
 20
16.5
 30
0.0
 11
100.5
 21
41.5
 31
0.0
  0
LINE
  5
1D4
330
1E
100
AcDbEntity
  8
0
100
AcDbLine
 10
104.7
 20
23.5
 30
0.0
 11
104.7
 21
41.5
 31
0.0
  0
LINE
  5
1D5
330
1E
100
AcDbEntity
  8
2
100
AcDbLine
 10
104.4499999999999
 20
31.0
 30
0.0
 11
104.4499999999999
 21
41.5
 31
0.0
  0
LINE
  5
1D6
330
1E
100
AcDbEntity
  8
0
100
AcDbLine
 10
102.7
 20
59.50000000000014
 30
0.0
 11
102.6999999999999
 21
23.5
 31
0.0
  0
LINE
  5
1D7
330
1E
100
AcDbEntity
  8
2
100
AcDbLine
 10
98.40000000000001
 20
41.5
 30
0.0
 11
98.39999999999999
 21
29.99181428106419
 31
0.0
  0
LINE
  5
1D8
330
1E
100
AcDbEntity
  8
2
100
AcDbLine
 10
98.33493649053899
 20
53.25000000000014
 30
0.0
 11
98.33493649053899
 21
29.74999999999985
 31
0.0
  0
LINE
  5
1D9
330
1E
100
AcDbEntity
  8
0
100
AcDbLine
 10
92.5
 20
16.5
 30
0.0
 11
100.5
 21
16.5
 31
0.0
  0
LINE
  5
1DA
330
1E
100
AcDbEntity
  8
2
100
AcDbLine
 10
98.33493649053899
 20
29.74999999999985
 30
0.0
 11
92.50000000000001
 21
29.74999999999985
 31
0.0
  0
ARC
  5
1DB
330
1E
100
AcDbEntity
  8
2
100
AcDbCircle
 10
122.824611797498
 20
41.50000000000005
 30
0.0
 40
27.0
100
AcDbArc
 50
205.2284863070823
 51
221.8103148957786
  0
POLYLINE
  5
1DC
330
1E
100
AcDbEntity
  8
2
100
AcDb2dPolyline
 66
     1
 10
0.0
 20
0.0
 30
0.0
  0
VERTEX
  5
1DD
330
1DC
100
AcDbEntity
  8
2
100
AcDbVertex
100
AcDb2dVertex
 10
100.5
 20
26.0
 30
0.0
  0
VERTEX
  5
1DE
330
1DC
100
AcDbEntity
  8
2
100
AcDbVertex
100
AcDb2dVertex
 10
98.33493649053899
 20
29.74999999999985
 30
0.0
  0
SEQEND
  5
1DF
330
1DC
100
AcDbEntity
  8
2
  0
LINE
  5
1E0
330
1E
100
AcDbEntity
  8
0
100
AcDbLine
 10
104.7
 20
23.5
 30
0.0
 11
102.6999999999999
 21
23.5
 31
0.0
  0
LINE
  5
1E1
330
1E
100
AcDbEntity
  8
2
100
AcDbLine
 10
98.40000000000001
 20
31.0
 30
0.0
 11
104.4499999999999
 21
31.0
 31
0.0
  0
LINE
  5
1E2
330
1E
100
AcDbEntity
  8
2
100
AcDbLine
 10
104.7
 20
30.75000000000014
 30
0.0
 11
104.4499999999999
 21
31.0
 31
0.0
  0
LINE
  5
1E3
330
1E
100
AcDbEntity
  8
1
100
AcDbLine
 10
85.99999999999999
 20
41.5
 30
0.0
 11
109.25
 21
41.5
 31
0.0
  0
LINE
  5
1E4
330
1E
100
AcDbEntity
  8
0
100
AcDbLine
 10
104.7
 20
59.50000000000014
 30
0.0
 11
104.7
 21
41.5
 31
0.0
  0
LINE
  5
1E5
330
1E
100
AcDbEntity
  8
2
100
AcDbLine
 10
104.4499999999999
 20
52.00000000000002
 30
0.0
 11
104.4499999999999
 21
41.5
 31
0.0
  0
LINE
  5
1E6
330
1E
100
AcDbEntity
  8
2
100
AcDbLine
 10
98.40000000000001
 20
41.5
 30
0.0
 11
98.40000000000003
 21
53.00818571893597
 31
0.0
  0
LINE
  5
1E7
330
1E
100
AcDbEntity
  8
0
100
AcDbLine
 10
100.5
 20
66.50000000000003
 30
0.0
 11
100.5
 21
41.5
 31
0.0
  0
LINE
  5
1E8
330
1E
100
AcDbEntity
  8
0
100
AcDbLine
 10
92.5
 20
41.5
 30
0.0
 11
92.5
 21
66.50000000000003
 31
0.0
  0
LINE
  5
1E9
330
1E
100
AcDbEntity
  8
0
100
AcDbLine
 10
92.5
 20
66.50000000000003
 30
0.0
 11
100.5
 21
66.50000000000003
 31
0.0
  0
LINE
  5
1EA
330
1E
100
AcDbEntity
  8
2
100
AcDbLine
 10
98.33493649053899
 20
53.25000000000014
 30
0.0
 11
92.5
 21
53.25000000000014
 31
0.0
  0
ARC
  5
1EB
330
1E
100
AcDbEntity
  8
2
100
AcDbCircle
 10
122.824611797498
 20
41.50000000000005
 30
0.0
 40
27.0
100
AcDbArc
 50
138.1896851042211
 51
154.7715136929175
  0
LINE
  5
1EC
330
1E
100
AcDbEntity
  8
2
100
AcDbLine
 10
98.40000000000001
 20
52.00000000000002
 30
0.0
 11
104.4499999999999
 21
52.00000000000002
 31
0.0
  0
POLYLINE
  5
1ED
330
1E
100
AcDbEntity
  8
2
100
AcDb2dPolyline
 66
     1
 10
0.0
 20
0.0
 30
0.0
  0
VERTEX
  5
1EE
330
1ED
100
AcDbEntity
  8
2
100
AcDbVertex
100
AcDb2dVertex
 10
100.4999999999999
 20
57.0
 30
0.0
  0
VERTEX
  5
1EF
330
1ED
100
AcDbEntity
  8
2
100
AcDbVertex
100
AcDb2dVertex
 10
98.33493649053899
 20
53.25000000000014
 30
0.0
  0
SEQEND
  5
1F0
330
1ED
100
AcDbEntity
  8
2
  0
LINE
  5
1F1
330
1E
100
AcDbEntity
  8
2
100
AcDbLine
 10
104.7
 20
52.25000000000014
 30
0.0
 11
104.4499999999999
 21
52.00000000000002
 31
0.0
  0
LINE
  5
1F2
330
1E
100
AcDbEntity
  8
0
100
AcDbLine
 10
104.7
 20
59.50000000000014
 30
0.0
 11
102.7
 21
59.50000000000014
 31
0.0
  0
ENDSEC
  0
SECTION
  2
OBJECTS
  0
DICTIONARY
  5
C
330
0
100
AcDbDictionary
281
     1
  3
ACAD_GROUP
350
D
  3
ACAD_LAYOUT
350
19
  3
ACAD_MLINESTYLE
350
16
  3
ACAD_PLOTSETTINGS
350
18
  3
ACAD_PLOTSTYLENAME
350
E
  3
AcDbVariableDictionary
350
1FA
  3
AcmDictionary
350
15D
  3
AMG
350
A3
  3
AMGSNAPSETTINGS
350
17A
  3
DWGPROPS
350
160
  3
MAPISURF_MODULE
350
130
  0
DICTIONARY
  5
1F3
330
1E
100
AcDbDictionary
280
     1
281
     1
  3
ACAD_INDEX
360
1F4
  0
DICTIONARY
  5
D
102
{ACAD_REACTORS
330
C
102
}
330
C
100
AcDbDictionary
281
     1
  0
DICTIONARY
  5
19
102
{ACAD_REACTORS
330
C
102
}
330
C
100
AcDbDictionary
281
     1
  3
Model
350
21
  3
ﾚｲｱｳﾄ1
350
1D
  0
DICTIONARY
  5
16
102
{ACAD_REACTORS
330
C
102
}
330
C
100
AcDbDictionary
281
     1
  3
Standard
350
17
  0
DICTIONARY
  5
18
102
{ACAD_REACTORS
330
C
102
}
330
C
100
AcDbDictionary
281
     1
  0
ACDBDICTIONARYWDFLT
  5
E
102
{ACAD_REACTORS
330
C
102
}
330
C
100
AcDbDictionary
281
     1
  3
Normal
350
F
100
AcDbDictionaryWithDefault
340
F
  0
DICTIONARY
  5
1FA
102
{ACAD_REACTORS
330
C
102
}
330
C
100
AcDbDictionary
281
     1
  3
DIMASSOC
350
1FC
  3
INDEXCTL
350
1FB
  0
DICTIONARY
  5
15D
102
{ACAD_REACTORS
330
C
102
}
330
C
100
AcDbDictionary
281
     1
  3
AcmBOMDATA
350
15E
  0
DICTIONARY
  5
A3
102
{ACAD_REACTORS
330
C
102
}
330
C
100
AcDbDictionary
281
     1
  3
AcMgSettings
350
A4
  3
AMGLAYCFG
350
16A
  0
DICTIONARY
  5
17A
102
{ACAD_REACTORS
330
C
102
}
330
C
100
AcDbDictionary
281
     1
  3
DIMENSION
350
17F
  3
FEA
350
17E
  3
HATCH (1)
350
17B
  3
HATCH (2)
350
17C
  3
SIMPLE WELD
350
180
  3
SYMBOLS
350
17D
  0
XRECORD
  5
160
102
{ACAD_REACTORS
330
C
102
}
330
C
100
AcDbXrecord
280
     1
  1
DWGPROPS COOKIE
  2

  3

  4

  6

  7

  8

  9

300
AmdtFileType=84
301
=
302
=
303
=
304
=
305
=
306
=
307
=
308
=
309
=
 40
0.0000037962962963
 41
2450687.577812499
 42
2450687.577812499
  1

 90
        1
  0
DICTIONARY
  5
1F4
102
{ACAD_REACTORS
330
1F3
102
}
330
1F3
100
AcDbDictionary
281
     1
  3
*A1
350
1F5
  0
LAYOUT
  5
21
102
{ACAD_REACTORS
330
19
102
}
330
19
100
AcDbPlotSettings
  1

  2
\\KONISHIDENXP\SHARP MX-2700FG
  4

  6

 40
0.0
 41
0.0
 42
0.0
 43
0.0
 44
0.0
 45
0.0
 46
0.0
 47
0.0
 48
0.0
 49
0.0
140
0.0
141
0.0
142
1.0
143
1.0
 70
  1712
 72
     0
 73
     0
 74
     0
  7

 75
     0
147
1.0
148
0.0
149
0.0
100
AcDbLayout
  1
Model
 70
     1
 71
     0
 10
0.0
 20
0.0
 11
12.0
 21
9.0
 12
0.0
 22
0.0
 32
0.0
 14
0.0
 24
0.0
 34
0.0
 15
0.0
 25
0.0
 35
0.0
146
0.0
 13
0.0
 23
0.0
 33
0.0
 16
1.0
 26
0.0
 36
0.0
 17
0.0
 27
1.0
 37
0.0
 76
     0
330
1E
  0
LAYOUT
  5
1D
102
{ACAD_REACTORS
330
19
102
}
330
19
100
AcDbPlotSettings
  1

  2
\\KONISHIDENXP\SHARP MX-2700FG
  4

  6

 40
0.0
 41
0.0
 42
0.0
 43
0.0
 44
0.0
 45
0.0
 46
0.0
 47
0.0
 48
0.0
 49
0.0
140
0.0
141
0.0
142
1.0
143
1.0
 70
   688
 72
     0
 73
     0
 74
     5
  7

 75
    16
147
1.0
148
0.0
149
0.0
100
AcDbLayout
  1
ﾚｲｱｳﾄ1
 70
     1
 71
     1
 10
0.0
 20
0.0
 11
420.0
 21
297.0
 12
0.0
 22
0.0
 32
0.0
 14
1.000000000000000E+20
 24
1.000000000000000E+20
 34
1.000000000000000E+20
 15
-1.000000000000000E+20
 25
-1.000000000000000E+20
 35
-1.000000000000000E+20
146
0.0
 13
0.0
 23
0.0
 33
0.0
 16
1.0
 26
0.0
 36
0.0
 17
0.0
 27
1.0
 37
0.0
 76
     0
330
1A
  0
MLINESTYLE
  5
17
102
{ACAD_REACTORS
330
16
102
}
330
16
100
AcDbMlineStyle
  2
STANDARD
 70
     0
  3

 62
   256
 51
90.0
 52
90.0
 71
     2
 49
0.5
 62
   256
  6
BYLAYER
 49
-0.5
 62
   256
  6
BYLAYER
  0
ACDBPLACEHOLDER
  5
F
102
{ACAD_REACTORS
330
E
102
}
330
E
  0
DICTIONARYVAR
  5
1FC
102
{ACAD_REACTORS
330
1FA
102
}
330
1FA
100
DictionaryVariables
280
     0
  1
1
  0
DICTIONARYVAR
  5
1FB
102
{ACAD_REACTORS
330
1FA
102
}
330
1FA
100
DictionaryVariables
280
     0
  1
1
  0
ACMDATADICTIONARY
  5
15E
102
{ACAD_REACTORS
330
15D
102
}
330
15D
100
AcDbDictionary
281
     1
  3
*A1
350
15F
100
AcmDataDictionary
  0
DICTIONARY
  5
A4
102
{ACAD_REACTORS
330
A3
102
}
330
A3
100
AcDbDictionary
281
     1
  3
DWGSETTINGS
350
A5
  0
ACAMGFILTERDAT
  5
17F
102
{ACAD_REACTORS
330
17A
102
}
330
17A
100
AcAmgFilterDat
 70
    15
  1
DIMENSION,AMDT_*_DIM
  2
*
  3
*
  4
*
  5
*
290
     1
  0
ACAMGFILTERDAT
  5
17E
102
{ACAD_REACTORS
330
17A
102
}
330
17A
100
AcAmgFilterDat
 70
    15
  1
*
  2
AM_FEA-AM_*
  3
*
  4
*
  5
*
290
     1
  0
ACAMGFILTERDAT
  5
17B
102
{ACAD_REACTORS
330
17A
102
}
330
17A
100
AcAmgFilterDat
 70
    15
  1
HATCH
  2
*
  3
*
  4
*
  5
*
290
     1
  0
ACAMGFILTERDAT
  5
17C
102
{ACAD_REACTORS
330
17A
102
}
330
17A
100
AcAmgFilterDat
 70
    15
  1
LINE
  2
8,8N,*-8,*-8N,AM_8,AM_8N,*-AM_8,*-AM_8N
  3
*
  4
*
  5
INSERT,STDPART2D
290
     1
  0
ACAMGFILTERDAT
  5
180
102
{ACAD_REACTORS
330
17A
102
}
330
17A
100
AcAmgFilterDat
 70
    15
  1
ARC
  2
AM_5
  3
*
  4
2
  5
INSERT
290
     0
  0
ACAMGFILTERDAT
  5
17D
102
{ACAD_REACTORS
330
17A
102
}
330
17A
100
AcAmgFilterDat
 70
    15
  1
ACMFCFRAME,ACMDATUMTARGET,ACMDATUMID,ACMWELDSYM,ACMSURFSYM,ACMFEATID,ACMPARTREF,ACMBALLOON,AMDTEDGESYM,AMGSCREWCALCTABLE
  2
*
  3
*
  4
*
  5
*
290
     1
  0
LAYER_INDEX
  5
1F5
102
{ACAD_REACTORS
330
1F4
102
}
330
1F4
100
AcDbIndex
 40
2456524.714882986
100
AcDbLayerIndex
  8
0
360
1F6
 90
       42
  8
2
360
1F7
 90
       45
  8
1
360
1F8
 90
        7
  8
Defpoints
360
1F9
 90
        0
  0
ACMDATAENTRYBLOCK
  5
15F
102
{ACAD_REACTORS
330
15E
102
}
330
15E
100
AcmDataEntry
100
AcmDataEntryBlock
  0
IDBUFFER
  5
1F6
330
0
100
AcDbIdBuffer
330
7A
330
197
330
198
330
199
330
1B3
330
1B5
330
1B6
330
1B7
330
1B8
330
1BF
330
1C2
330
1C3
330
1C7
330
1D0
330
1D1
330
1D2
330
1D3
330
1D4
330
1D6
330
1D9
330
1E0
330
1E4
330
1E7
330
1E8
330
1E9
330
1F2
330
30
330
31
330
32
330
55
330
57
330
58
330
5B
330
5C
330
5D
330
62
330
63
330
64
330
65
330
72
330
74
330
75
  0
IDBUFFER
  5
1F7
330
0
100
AcDbIdBuffer
330
1B2
330
1B4
330
1B9
330
1BA
330
1BE
330
1C0
330
1C1
330
1C5
330
1C6
330
1C8
330
1C9
330
1CA
330
1CB
330
1CF
330
1D5
330
1D7
330
1D8
330
1DA
330
1DB
330
1DC
330
1E1
330
1E2
330
1E5
330
1E6
330
1EA
330
1EB
330
1EC
330
1ED
330
1F1
330
60
330
61
330
6D
330
6E
330
70
330
71
330
7D
330
7E
330
19C
330
19D
330
1A4
330
1A8
330
1AC
330
1AD
330
1AE
330
1B1
  0
IDBUFFER
  5
1F8
330
0
100
AcDbIdBuffer
330
54
330
59
330
5A
330
5E
330
6F
330
1C4
330
1E3
  0
IDBUFFER
  5
1F9
330
0
100
AcDbIdBuffer
  0
ENDSEC
  0
EOF
