  0
SECTION
  2
HEADER
  9
$ACADVER
  1
AC1015
  9
$ACADMAINTVER
 70
    13
  9
$DWGCODEPAGE
  3
ANSI_932
  9
$INSBASE
 10
0.0
 20
0.0
 30
0.0
  9
$EXTMIN
 10
-28.97466236770691
 20
76.88026079615307
 30
0.0
  9
$EXTMAX
 10
251.3982434270705
 20
160.921060114205
 30
0.0
  9
$LIMMIN
 10
0.0
 20
0.0
  9
$LIMMAX
 10
450.0
 20
350.0
  9
$ORTHOMODE
 70
     1
  9
$REGENMODE
 70
     1
  9
$FILLMODE
 70
     1
  9
$QTEXTMODE
 70
     0
  9
$MIRRTEXT
 70
     1
  9
$LTSCALE
 40
1.0
  9
$ATTMODE
 70
     1
  9
$TEXTSIZE
 40
7.0
  9
$TRACEWID
 40
0.05
  9
$TEXTSTYLE
  7
BIGFONT
  9
$CLAYER
  8
0
  9
$CELTYPE
  6
ByLayer
  9
$CECOLOR
 62
   256
  9
$CELTSCALE
 40
1.0
  9
$DISPSILH
 70
     0
  9
$DIMSCALE
 40
1.0
  9
$DIMASZ
 40
0.18
  9
$DIMEXO
 40
0.0625
  9
$DIMDLI
 40
4.0
  9
$DIMRND
 40
0.0
  9
$DIMDLE
 40
0.0
  9
$DIMEXE
 40
0.18
  9
$DIMTP
 40
0.0
  9
$DIMTM
 40
0.0
  9
$DIMTXT
 40
0.18
  9
$DIMCEN
 40
0.09
  9
$DIMTSZ
 40
0.0
  9
$DIMTOL
 70
     0
  9
$DIMLIM
 70
     0
  9
$DIMTIH
 70
     1
  9
$DIMTOH
 70
     1
  9
$DIMSE1
 70
     0
  9
$DIMSE2
 70
     0
  9
$DIMTAD
 70
     0
  9
$DIMZIN
 70
     0
  9
$DIMBLK
  1

  9
$DIMASO
 70
     1
  9
$DIMSHO
 70
     1
  9
$DIMPOST
  1

  9
$DIMAPOST
  1

  9
$DIMALT
 70
     0
  9
$DIMALTD
 70
     2
  9
$DIMALTF
 40
25.4
  9
$DIMLFAC
 40
1.0
  9
$DIMTOFL
 70
     0
  9
$DIMTVP
 40
0.0
  9
$DIMTIX
 70
     0
  9
$DIMSOXD
 70
     0
  9
$DIMSAH
 70
     0
  9
$DIMBLK1
  1

  9
$DIMBLK2
  1

  9
$DIMSTYLE
  2
STANDARD
  9
$DIMCLRD
 70
     0
  9
$DIMCLRE
 70
     0
  9
$DIMCLRT
 70
     0
  9
$DIMTFAC
 40
1.0
  9
$DIMGAP
 40
0.09
  9
$DIMJUST
 70
     0
  9
$DIMSD1
 70
     0
  9
$DIMSD2
 70
     0
  9
$DIMTOLJ
 70
     1
  9
$DIMTZIN
 70
     0
  9
$DIMALTZ
 70
     0
  9
$DIMALTTZ
 70
     0
  9
$DIMUPT
 70
     0
  9
$DIMDEC
 70
     4
  9
$DIMTDEC
 70
     4
  9
$DIMALTU
 70
     2
  9
$DIMALTTD
 70
     2
  9
$DIMTXSTY
  7
STANDARD
  9
$DIMAUNIT
 70
     0
  9
$DIMADEC
 70
     0
  9
$DIMALTRND
 40
0.0
  9
$DIMAZIN
 70
     0
  9
$DIMDSEP
 70
    46
  9
$DIMATFIT
 70
     3
  9
$DIMFRAC
 70
     0
  9
$DIMLDRBLK
  1

  9
$DIMLUNIT
 70
     2
  9
$DIMLWD
 70
    -2
  9
$DIMLWE
 70
    -2
  9
$DIMTMOVE
 70
     0
  9
$LUNITS
 70
     2
  9
$LUPREC
 70
     4
  9
$SKETCHINC
 40
0.1
  9
$FILLETRAD
 40
0.0
  9
$AUNITS
 70
     0
  9
$AUPREC
 70
     0
  9
$MENU
  1
acad
  9
$ELEVATION
 40
0.0
  9
$PELEVATION
 40
0.0
  9
$THICKNESS
 40
0.0
  9
$LIMCHECK
 70
     0
  9
$CHAMFERA
 40
0.0
  9
$CHAMFERB
 40
0.0
  9
$CHAMFERC
 40
0.0
  9
$CHAMFERD
 40
0.0
  9
$SKPOLY
 70
     0
  9
$TDCREATE
 40
2450686.782511574
  9
$TDUCREATE
 40
2450686.407511574
  9
$TDUPDATE
 40
2454699.712685544
  9
$TDUUPDATE
 40
2454699.337685544
  9
$TDINDWG
 40
0.0145972569
  9
$TDUSRTIMER
 40
0.0145972569
  9
$USRTIMER
 70
     1
  9
$ANGBASE
 50
0.0
  9
$ANGDIR
 70
     0
  9
$PDMODE
 70
     0
  9
$PDSIZE
 40
0.0
  9
$PLINEWID
 40
0.0
  9
$SPLFRAME
 70
     0
  9
$SPLINETYPE
 70
     6
  9
$SPLINESEGS
 70
     8
  9
$HANDSEED
  5
78D
  9
$SURFTAB1
 70
     6
  9
$SURFTAB2
 70
     6
  9
$SURFTYPE
 70
     6
  9
$SURFU
 70
     6
  9
$SURFV
 70
     6
  9
$UCSBASE
  2

  9
$UCSNAME
  2

  9
$UCSORG
 10
0.0
 20
0.0
 30
0.0
  9
$UCSXDIR
 10
1.0
 20
0.0
 30
0.0
  9
$UCSYDIR
 10
0.0
 20
1.0
 30
0.0
  9
$UCSORTHOREF
  2

  9
$UCSORTHOVIEW
 70
     0
  9
$UCSORGTOP
 10
0.0
 20
0.0
 30
0.0
  9
$UCSORGBOTTOM
 10
0.0
 20
0.0
 30
0.0
  9
$UCSORGLEFT
 10
0.0
 20
0.0
 30
0.0
  9
$UCSORGRIGHT
 10
0.0
 20
0.0
 30
0.0
  9
$UCSORGFRONT
 10
0.0
 20
0.0
 30
0.0
  9
$UCSORGBACK
 10
0.0
 20
0.0
 30
0.0
  9
$PUCSBASE
  2

  9
$PUCSNAME
  2

  9
$PUCSORG
 10
0.0
 20
0.0
 30
0.0
  9
$PUCSXDIR
 10
1.0
 20
0.0
 30
0.0
  9
$PUCSYDIR
 10
0.0
 20
1.0
 30
0.0
  9
$PUCSORTHOREF
  2

  9
$PUCSORTHOVIEW
 70
     0
  9
$PUCSORGTOP
 10
0.0
 20
0.0
 30
0.0
  9
$PUCSORGBOTTOM
 10
0.0
 20
0.0
 30
0.0
  9
$PUCSORGLEFT
 10
0.0
 20
0.0
 30
0.0
  9
$PUCSORGRIGHT
 10
0.0
 20
0.0
 30
0.0
  9
$PUCSORGFRONT
 10
0.0
 20
0.0
 30
0.0
  9
$PUCSORGBACK
 10
0.0
 20
0.0
 30
0.0
  9
$USERI1
 70
     0
  9
$USERI2
 70
     0
  9
$USERI3
 70
     0
  9
$USERI4
 70
     0
  9
$USERI5
 70
     0
  9
$USERR1
 40
0.0
  9
$USERR2
 40
0.0
  9
$USERR3
 40
0.0
  9
$USERR4
 40
0.0
  9
$USERR5
 40
0.0
  9
$WORLDVIEW
 70
     1
  9
$SHADEDGE
 70
     3
  9
$SHADEDIF
 70
    70
  9
$TILEMODE
 70
     1
  9
$MAXACTVP
 70
    16
  9
$PINSBASE
 10
0.0
 20
0.0
 30
0.0
  9
$PLIMCHECK
 70
     0
  9
$PEXTMIN
 10
1.000000000000000E+20
 20
1.000000000000000E+20
 30
1.000000000000000E+20
  9
$PEXTMAX
 10
-1.000000000000000E+20
 20
-1.000000000000000E+20
 30
-1.000000000000000E+20
  9
$PLIMMIN
 10
0.0
 20
0.0
  9
$PLIMMAX
 10
12.0
 20
9.0
  9
$UNITMODE
 70
     0
  9
$VISRETAIN
 70
     0
  9
$PLINEGEN
 70
     0
  9
$PSLTSCALE
 70
     1
  9
$TREEDEPTH
 70
  3020
  9
$CMLSTYLE
  2
Standard
  9
$CMLJUST
 70
     0
  9
$CMLSCALE
 40
1.0
  9
$PROXYGRAPHICS
 70
     1
  9
$MEASUREMENT
 70
     0
  9
$CELWEIGHT
370
    -1
  9
$ENDCAPS
280
     0
  9
$JOINSTYLE
280
     0
  9
$LWDISPLAY
290
     0
  9
$INSUNITS
 70
     0
  9
$HYPERLINKBASE
  1

  9
$STYLESHEET
  1

  9
$XEDIT
290
     1
  9
$CEPSNTYPE
380
     0
  9
$PSTYLEMODE
290
     1
  9
$FINGERPRINTGUID
  2
{B3B6F12C-371D-4AD1-8C89-AAB96844E33D}
  9
$VERSIONGUID
  2
{A853C193-DF1D-44FF-97C4-DB1E88EE3298}
  9
$EXTNAMES
290
     1
  9
$PSVPSCALE
 40
0.0
  9
$OLESTARTUP
290
     0
  0
ENDSEC
  0
SECTION
  2
CLASSES
  0
CLASS
  1
ACDBDICTIONARYWDFLT
  2
AcDbDictionaryWithDefault
  3
AutoCAD 2000
 90
        0
280
     0
281
     0
  0
CLASS
  1
ACDBPLACEHOLDER
  2
AcDbPlaceHolder
  3
AutoCAD 2000
 90
        0
280
     0
281
     0
  0
CLASS
  1
LAYOUT
  2
AcDbLayout
  3
AutoCAD 2000
 90
        0
280
     0
281
     0
  0
CLASS
  1
AMGSETTINGSOBJ
  2
AmgSettingsObj
  3
"AcadM|Product Description: AutoCAD Mechanical 2000|Company: Autodesk"
 90
        0
280
     0
281
     0
  0
CLASS
  1
ACME_DOCUMENT
  2
AcMeDbDoc
  3
AcMeServices
 90
        0
280
     0
281
     0
  0
CLASS
  1
ACMESCOPE
  2
AcMeScope
  3
AcMeServices
 90
        0
280
     0
281
     0
  0
CLASS
  1
ACMECOMMANDHISTORY
  2
AcMeCommandHistory
  3
AcMeServices
 90
        0
280
     0
281
     0
  0
CLASS
  1
ACIMSYSVARMAN
  2
AcImSysVarManager
  3
AcMeServices
 90
        0
280
     0
281
     0
  0
CLASS
  1
ACIMREALSYSVAR
  2
AcImRealSysVar
  3
AcMeServices
 90
        0
280
     0
281
     0
  0
CLASS
  1
ACIMINTSYSVAR
  2
AcImIntSysVar
  3
AcMeServices
 90
        0
280
     0
281
     0
  0
CLASS
  1
ACMEDRAWINGMAN
  2
AcMeDrawingMan
  3
AcMeServices
 90
        0
280
     0
281
     0
  0
CLASS
  1
ACMEVIEW
  2
AcMeView
  3
AcMeServices
 90
        0
280
     0
281
     0
  0
CLASS
  1
ACDBENTITYCACHE
  2
AcMeEntityCache
  3
AcMeServices
 90
        0
280
     0
281
     0
  0
CLASS
  1
GSMANAGER
  2
AcMeGSManager
  3
AcMeServices
 90
        0
280
     0
281
     0
  0
CLASS
  1
AMDTINTERNALREACTOR
  2
AmdtInternalReactor
  3
AcMeServices
 90
        0
280
     0
281
     0
  0
CLASS
  1
ACMESTATEMGR
  2
AcMeStateMgr
  3
AcMeServices
 90
        0
280
     0
281
     0
  0
CLASS
  1
ACGREFMASTER
  2
AcGrefMaster
  3
AcAttribServices
 90
        0
280
     0
281
     0
  0
CLASS
  1
AM_DRAWING_MGR
  2
AcDmDwgMgr
  3
AcMechDwgViewMgmt
 90
        0
280
     0
281
     0
  0
CLASS
  1
AM_DWG_DOCUMENT
  2
AcDmDwgDocument
  3
AcMechDwgViewMgmt
 90
        0
280
     0
281
     0
  0
CLASS
  1
AM_DWG_SHEET
  2
AcDmSheet
  3
AcMechDwgViewMgmt
 90
        0
280
     0
281
     0
  0
CLASS
  1
AM_VIEWDIMPARMAP
  2
AcDmViewDimParMap
  3
AcMechDwgViewMgmt
 90
        0
280
     0
281
     0
  0
CLASS
  1
AM_DWGMGR_NAME
  2
AcDmDwgMgrName
  3
AcMechDwgViewMgmt
 90
        0
280
     0
281
     0
  0
CLASS
  1
ACME_DATABASE
  2
AcMeDbDatabase
  3
AcMeServices
 90
        0
280
     0
281
     0
  0
CLASS
  1
ACRFINSADJUSTERMGR
  2
AcRfInsAdjusterMgr
  3
AcMeServices
 90
        0
280
     0
281
     0
  0
CLASS
  1
ACGREFACADMASTER
  2
AcGrefacadMaster
  3
AcGrefServices
 90
        0
280
     0
281
     0
  0
CLASS
  1
AMDTMENUSTATEMGR
  2
AmdtMenuStateMgr
  3
McadcomServices
 90
        0
280
     0
281
     0
  0
CLASS
  1
AMDTMCOMMENUSTATE
  2
AmdtMcomMenuState
  3
McadcomServices
 90
        0
280
     0
281
     0
  0
CLASS
  1
AMIMASTER
  2
AmiMaster
  3
AmiServices
 90
        0
280
     0
281
     0
  0
CLASS
  1
ASAPP
  2
AcAsAppObject
  3
AutoSurfServices
 90
        0
280
     0
281
     0
  0
CLASS
  1
IM_STATIC_MAN
  2
AcImStaticVarManager
  3
AcMeServices
 90
        0
280
     0
281
     0
  0
CLASS
  1
ACIMSTRSYSVAR
  2
AcImStrSysVar
  3
AcMeServices
 90
        0
280
     0
281
     0
  0
CLASS
  1
ACIMDBLSTATICVAR
  2
AcImDblStaticVar
  3
AcMeServices
 90
        0
280
     0
281
     0
  0
CLASS
  1
ACIMSTRSTATICVAR
  2
AcImStrStaticVar
  3
AcMeServices
 90
        0
280
     0
281
     0
  0
CLASS
  1
ACIMINTSTATICVAR
  2
AcImIntStaticVar
  3
AcMeServices
 90
        0
280
     0
281
     0
  0
CLASS
  1
ACASGREFMASTER
  2
AcAsGrefMaster
  3
AutoSurfResolverServices
 90
        0
280
     0
281
     0
  0
CLASS
  1
ACADGREFMODULE
  2
AcAdGrefModule
  3
AdGrefServices
 90
        0
280
     0
281
     0
  0
CLASS
  1
AMDTMAPISURFMOUDULE
  2
AmdtMApiSurfModule
  3
MApiSurfServices
 90
        0
280
     0
281
     0
  0
CLASS
  1
MAPIAMMOUDLE
  2
MApiAmModule
  3
MApiAmServices
 90
        0
280
     0
281
     0
  0
CLASS
  1
AMDTADMENUSTATE
  2
AmdtAdMenuState
  3
DesignerServices
 90
        0
280
     0
281
     0
  0
CLASS
  1
ADAPPL
  2
AcAdAppl
  3
DesignerServices
 90
        0
280
     0
281
     0
  0
CLASS
  1
DEPMGR
  2
AcAdDepMgr
  3
DesignerServices
 90
        0
280
     0
281
     0
  0
CLASS
  1
PARAMMGR
  2
AcAdParamMgr
  3
DesignerServices
 90
        0
280
     0
281
     0
  0
CLASS
  1
PARAMSCOPE
  2
AcAdParamScope
  3
DesignerServices
 90
        0
280
     0
281
     0
  0
CLASS
  1
NAMEDAPPL
  2
AcAdNamedAppl
  3
DesignerServices
 90
        0
280
     0
281
     0
  0
CLASS
  1
AMDTDMMENUSTATE
  2
AmdtDmMenuState
  3
AcMechDwgViewMgmt
 90
        0
280
     0
281
     0
  0
CLASS
  1
MAPIADMODULE
  2
MApiAdModule
  3
MApiAdServices
 90
        0
280
     0
281
     0
  0
CLASS
  1
AMDTAMMENUSTATE
  2
AmdtAmMenuState
  3
DesignerAssemblies
 90
        0
280
     0
281
     0
  0
CLASS
  1
ACAMPROJECT
  2
AcAmProject
  3
DesignerAssemblies
 90
        0
280
     0
281
     0
  0
CLASS
  1
ACAMGRCOMPDEF
  2
AcAmGrCompDef
  3
DesignerAssemblies
 90
        0
280
     0
281
     0
  0
CLASS
  1
ACCMCONTEXT
  2
AcCmContext
  3
DesignerAssemblies
 90
        0
280
     0
281
     0
  0
CLASS
  1
ACAMCOMPDEF
  2
AcAmCompDef
  3
DesignerAssemblies
 90
        0
280
     0
281
     0
  0
CLASS
  1
ACAMCOMPDEFMGR
  2
AcAmCompDefMgr
  3
DesignerAssemblies
 90
        0
280
     0
281
     0
  0
CLASS
  1
AMCONTEXTMGR
  2
AcAmContextMgr
  3
DesignerAssemblies
 90
        0
280
     0
281
     0
  0
CLASS
  1
ACAMCONTEXTMODELER
  2
AcAmContextModeler
  3
DesignerAssemblies
 90
        0
280
     0
281
     0
  0
CLASS
  1
ACMDATADICTIONARY
  2
AcmDataDictionary
  3
"AcmSymBB|Product Description: AutoCAD Mechanical 2000|Company: Autodesk"
 90
        0
280
     0
281
     0
  0
CLASS
  1
ACMDATAENTRYBLOCK
  2
AcmDataEntryBlock
  3
"AcmSymBB|Product Description: AutoCAD Mechanical 2000|Company: Autodesk"
 90
        0
280
     0
281
     0
  0
CLASS
  1
CATALOGSTATE
  2
AcAmCatalogState
  3
DesignerAssemblies
 90
        0
280
     0
281
     0
  0
CLASS
  1
ACAMGRCOMPDEFSET
  2
AcAmGrCompDefSet
  3
DesignerAssemblies
 90
        0
280
     0
281
     0
  0
CLASS
  1
AMDTBROWSERDBTAB
  2
AmdtBrowserDbTab
  3
McadcomServices
 90
        0
280
     0
281
     0
  0
CLASS
  1
CBROWSERAPPOBJECT
  2
CBrowserAppObject
  3
McadcomServices
 90
        0
280
     0
281
     0
  0
CLASS
  1
DM_PLACEHOLDER
  2
AcDmSelsetPlaceholder
  3
AcMechDwgViewMgmt
 90
        0
280
     0
281
     0
  0
CLASS
  1
ACMSTANDARDANSI
  2
AcmStandardANSI
  3
"Amdt_StdImp|Product Description: AutoCAD Mechanical 2000|Company: Autodesk"
 90
        0
280
     0
281
     0
  0
CLASS
  1
AMGOBJPROPCFG
  2
AmgObjPropCfg
  3
"AmgLay|Product Description: AutoCAD Mechanical 2000|Company: Autodesk"
 90
        1
280
     0
281
     0
  0
CLASS
  1
ACMSURFSTANDARDANSI
  2
AcmSurfTextStdANSI
  3
"Amdt_StdImp|Product Description: AutoCAD Mechanical 2000|Company: Autodesk"
 90
        0
280
     0
281
     0
  0
CLASS
  1
ACMFCFSTANDARDANSI
  2
AcmFCFStdANSI
  3
"Amdt_StdImp|Product Description: AutoCAD Mechanical 2000|Company: Autodesk"
 90
        0
280
     0
281
     0
  0
CLASS
  1
ACMWELDSTANDARDANSI
  2
AcmWeldingStdANSI
  3
"Amdt_StdImp|Product Description: AutoCAD Mechanical 2000|Company: Autodesk"
 90
        0
280
     0
281
     0
  0
CLASS
  1
ACMIDSTANDARDANSI
  2
AcmIdStdANSI
  3
"Amdt_StdImp|Product Description: AutoCAD Mechanical 2000|Company: Autodesk"
 90
        0
280
     0
281
     0
  0
CLASS
  1
ACMDATUMSTANDARDANSI
  2
AcmDatumStdANSI
  3
"Amdt_StdImp|Product Description: AutoCAD Mechanical 2000|Company: Autodesk"
 90
        0
280
     0
281
     0
  0
CLASS
  1
ACMBOMSTANDARDANSI
  2
AcmBOMStdANSI
  3
"Amdt_StdImp|Product Description: AutoCAD Mechanical 2000|Company: Autodesk"
 90
        0
280
     0
281
     0
  0
CLASS
  1
ACMDETAILSTANDARDANSI
  2
AmdtDetailSymStdANSI
  3
"Amdt_StdImp|Product Description: AutoCAD Mechanical 2000|Company: Autodesk"
 90
        0
280
     0
281
     0
  0
CLASS
  1
ACMSECTIONSTANDARDANSI
  2
AmdtSectionSymStdANSI
  3
"Amdt_StdImp|Product Description: AutoCAD Mechanical 2000|Company: Autodesk"
 90
        0
280
     0
281
     0
  0
CLASS
  1
ACMCENTERLINESTANDARDANSI
  2
AmdtCenterLineStdANSI
  3
"Amdt_StdImp|Product Description: AutoCAD Mechanical 2000|Company: Autodesk"
 90
        0
280
     0
281
     0
  0
CLASS
  1
ACMTHREADLINESTANDARDANSI
  2
AmdtThreadLineStdANSI
  3
"Amdt_StdImp|Product Description: AutoCAD Mechanical 2000|Company: Autodesk"
 90
        0
280
     0
281
     0
  0
CLASS
  1
ACMNOTESTANDARDANSI
  2
AmdtNoteStdANSI
  3
"Amdt_StdImp|Product Description: AutoCAD Mechanical 2000|Company: Autodesk"
 90
        0
280
     0
281
     0
  0
CLASS
  1
ACAMGLAYSTD
  2
AcAmgLayStd
  3
"AcAmgLayStd|Product Description: AutoCAD Mechanical 2000|Company: Autodesk"
 90
        0
280
     0
281
     0
  0
CLASS
  1
ACAMGDIMSTD
  2
AcAmgDimStd
  3
"AcAmgDimStd|Product Description: AutoCAD Mechanical 2000|Company: Autodesk"
 90
        0
280
     0
281
     0
  0
CLASS
  1
ACAMGHOLECHARTSTDANSI
  2
AcAmgHoleChartStdANSI
  3
ACMSYMBB_MODULE_NAME
 90
        0
280
     0
281
     0
  0
CLASS
  1
ACAMGTITLESTD
  2
AcAmgTitleStd
  3
"TITLEAPP"
 90
        0
280
     0
281
     0
  0
CLASS
  1
LAYER_INDEX
  2
AcDbLayerIndex
  3
AutoCAD 2000
 90
        0
280
     0
281
     0
  0
CLASS
  1
IDBUFFER
  2
AcDbIdBuffer
  3
AutoCAD 2000
 90
        0
280
     0
281
     0
  0
CLASS
  1
DICTIONARYVAR
  2
AcDbDictionaryVar
  3
AutoCAD 2000
 90
        0
280
     0
281
     0
  0
CLASS
  1
ACAMGFILTERDAT
  2
AcAmgFilterDat
  3
"AcadM|Product Description: AutoCAD Mechanical 2000|Company: Autodesk"
 90
        0
280
     0
281
     0
  0
CLASS
  1
AMDTFORMULAUPDATEDISPATCHER
  2
AmdtFormulaUpdateDispatcher
  3
AcMeServices
 90
        0
280
     0
281
     0
  0
ENDSEC
  0
SECTION
  2
TABLES
  0
TABLE
  2
VPORT
  5
8
330
0
100
AcDbSymbolTable
 70
     6
  0
VPORT
  5
78C
330
8
100
AcDbSymbolTableRecord
100
AcDbViewportTableRecord
  2
*Active
 70
     0
 10
0.0
 20
0.0
 11
1.0
 21
1.0
 12
-84.91966873688056
 22
-62.01319618462884
 13
0.0
 23
0.0
 14
0.1
 24
0.1
 15
1.0
 25
1.0
 16
0.0
 26
0.0
 36
1.0
 17
265.5389625577257
 27
174.9556590104544
 37
0.0
 40
390.5511940331269
 41
1.516981132075471
 42
50.0
 43
0.0
 44
0.0
 50
0.0
 51
0.0
 71
     0
 72
   100
 73
     1
 74
     1
 75
     0
 76
     0
 77
     0
 78
     0
281
     0
 65
     0
110
0.0
120
0.0
130
0.0
111
1.0
121
0.0
131
0.0
112
0.0
122
1.0
132
0.0
 79
     0
146
0.0
  0
ENDTAB
  0
TABLE
  2
LTYPE
  5
5
330
0
100
AcDbSymbolTable
 70
    23
  0
LTYPE
  5
13
330
5
100
AcDbSymbolTableRecord
100
AcDbLinetypeTableRecord
  2
ByBlock
 70
     0
  3

 72
    65
 73
     0
 40
0.0
  0
LTYPE
  5
14
330
5
100
AcDbSymbolTableRecord
100
AcDbLinetypeTableRecord
  2
ByLayer
 70
     0
  3

 72
    65
 73
     0
 40
0.0
  0
LTYPE
  5
15
330
5
100
AcDbSymbolTableRecord
100
AcDbLinetypeTableRecord
  2
CONTINUOUS
 70
     0
  3
Solid line
 72
    65
 73
     0
 40
0.0
  0
LTYPE
  5
23
330
5
100
AcDbSymbolTableRecord
100
AcDbLinetypeTableRecord
  2
BYLAYER
 70
     0
  3

 72
    65
 73
     0
 40
0.0
  0
LTYPE
  5
24
330
5
100
AcDbSymbolTableRecord
100
AcDbLinetypeTableRecord
  2
ITTEN1
 70
     0
  3

 72
    65
 73
     4
 40
8.199999999999997
 49
5.0
 74
     0
 49
-1.0
 74
     0
 49
1.199999999999999
 74
     0
 49
-1.0
 74
     0
  0
LTYPE
  5
25
330
5
100
AcDbSymbolTableRecord
100
AcDbLinetypeTableRecord
  2
TENSEN2
 70
     0
  3

 72
    65
 73
     2
 40
2.1
 49
1.5
 74
     0
 49
-0.6
 74
     0
  0
LTYPE
  5
1FE
330
5
100
AcDbSymbolTableRecord
100
AcDbLinetypeTableRecord
  2
HIDDEN
 70
     0
  3
Hidden __ __ __ __ __ __ __ __ __ __ __ __ __ _
 72
    65
 73
     2
 40
0.375
 49
0.25
 74
     0
 49
-0.125
 74
     0
  0
LTYPE
  5
1FF
330
5
100
AcDbSymbolTableRecord
100
AcDbLinetypeTableRecord
  2
PHANTOM2
 70
     0
  3
Phantom (.5x) ___ _ _ ___ _ _ ___ _ _ ___ _ _
 72
    65
 73
     6
 40
1.25
 49
0.625
 74
     0
 49
-0.125
 74
     0
 49
0.125
 74
     0
 49
-0.125
 74
     0
 49
0.125
 74
     0
 49
-0.125
 74
     0
  0
LTYPE
  5
200
330
5
100
AcDbSymbolTableRecord
100
AcDbLinetypeTableRecord
  2
CENTER
 70
     0
  3
Center ____ _ ____ _ ____ _ ____ _ ____ _ ____
 72
    65
 73
     4
 40
2.0
 49
1.25
 74
     0
 49
-0.25
 74
     0
 49
0.25
 74
     0
 49
-0.25
 74
     0
  0
LTYPE
  5
262
330
5
100
AcDbSymbolTableRecord
100
AcDbLinetypeTableRecord
  2
ASULTYPE
 70
     0
  3
実線
 72
    65
 73
     2
 40
3.0
 49
2.5
 74
     0
 49
0.5
 74
     0
  0
LTYPE
  5
263
330
5
100
AcDbSymbolTableRecord
100
AcDbLinetypeTableRecord
  2
ASVLTYPE
 70
     0
  3
__ __ __ __ __ __ __ __ __ __ __ __ __ __ __ __ __ __ __ __ __
 72
    65
 73
     2
 40
0.75
 49
0.5
 74
     0
 49
-0.25
 74
     0
  0
LTYPE
  5
2A7
330
5
100
AcDbSymbolTableRecord
100
AcDbLinetypeTableRecord
  2
AM_ISO02W050
 70
     0
  3
__ __ __ __ __ __ __ __ __ __ __ __ __ __ __
 72
    65
 73
     2
 40
7.5
 49
6.0
 74
     0
 49
-1.5
 74
     0
  0
LTYPE
  5
2A8
330
5
100
AcDbSymbolTableRecord
100
AcDbLinetypeTableRecord
  2
AM_ISO08W050
 70
     0
  3
____ . ____ . ____ . ____ . ____ . ____ . ____
 72
    65
 73
     4
 40
18.0
 49
12.0
 74
     0
 49
-1.5
 74
     0
 49
3.0
 74
     0
 49
-1.5
 74
     0
  0
LTYPE
  5
2A9
330
5
100
AcDbSymbolTableRecord
100
AcDbLinetypeTableRecord
  2
AM_ISO09W050
 70
     0
  3
_____ . . _____ . . _____ . . ____ .. ____
 72
    65
 73
     6
 40
22.5
 49
12.0
 74
     0
 49
-1.5
 74
     0
 49
3.0
 74
     0
 49
-1.5
 74
     0
 49
3.0
 74
     0
 49
-1.5
 74
     0
  0
LTYPE
  5
2AA
330
5
100
AcDbSymbolTableRecord
100
AcDbLinetypeTableRecord
  2
Amconstr
 70
     0
  3
_______________________
 72
    65
 73
     2
 40
9999.0
 49
9999.0
 74
     0
 49
0.0
 74
     0
  0
LTYPE
  5
2AB
330
5
100
AcDbSymbolTableRecord
100
AcDbLinetypeTableRecord
  2
AM_ISO08W050x2
 70
     0
  3
__ . __ . __ . __ . __ . __
 72
    65
 73
     4
 40
9.0
 49
6.0
 74
     0
 49
-0.75
 74
     0
 49
1.5
 74
     0
 49
-0.75
 74
     0
  0
LTYPE
  5
2AC
330
5
100
AcDbSymbolTableRecord
100
AcDbLinetypeTableRecord
  2
AM_ISO02W050x2
 70
     0
  3
 _ _ _ _ _ _ _ _ _ _ _ _
 72
    65
 73
     2
 40
3.75
 49
3.0
 74
     0
 49
-0.75
 74
     0
  0
LTYPE
  5
2AF
330
5
100
AcDbSymbolTableRecord
100
AcDbLinetypeTableRecord
  2
Amzigzag
 70
     0
  3
/\/-/\/-/\/-/\/-/\/-/\/
 72
    65
 73
     2
 40
11.00009999999999
 49
0.0001
 74
     4
 75
   135
340
2AE
 46
0.04
 50
0.0
 44
0.0
 45
0.0
 49
-11.0
 74
     0
  0
LTYPE
  5
2B0
330
5
100
AcDbSymbolTableRecord
100
AcDbLinetypeTableRecord
  2
CENTER2
 70
     0
  3
Center (.5x) ___ _ ___ _ ___ _ ___ _ ___ _ ___
 72
    65
 73
     4
 40
1.125
 49
0.75
 74
     0
 49
-0.125
 74
     0
 49
0.125
 74
     0
 49
-0.125
 74
     0
  0
LTYPE
  5
2B1
330
5
100
AcDbSymbolTableRecord
100
AcDbLinetypeTableRecord
  2
HIDDEN2
 70
     0
  3
Hidden (.5x) _ _ _ _ _ _ _ _ _ _ _ _ _ _ _ _ _
 72
    65
 73
     2
 40
0.1875
 49
0.125
 74
     0
 49
-0.0625
 74
     0
  0
LTYPE
  5
2B2
330
5
100
AcDbSymbolTableRecord
100
AcDbLinetypeTableRecord
  2
Amzigzag2
 70
     0
  3
/\/-/\/-/\/-/\/-/\/-/\/
 72
    65
 73
     2
 40
0.4401
 49
0.0001
 74
     4
 75
   135
340
2AE
 46
0.0016
 50
0.0
 44
0.0
 45
0.0
 49
-0.4400000000000001
 74
     0
  0
LTYPE
  5
2C0
330
5
100
AcDbSymbolTableRecord
100
AcDbLinetypeTableRecord
  2
ACANSTGB
 70
     0
  3
__ . . __ . .
 72
    65
 73
     6
 40
0.35433070866
 49
0.15748031496
 74
     0
 49
-0.03937007874
 74
     0
 49
0.03937007874
 74
     0
 49
-0.03937007874
 74
     0
 49
0.03937007874
 74
     0
 49
-0.03937007874
 74
     0
  0
LTYPE
  5
2C1
330
5
100
AcDbSymbolTableRecord
100
AcDbLinetypeTableRecord
  2
ACANSTGL
 70
     0
  3
_ _ _ _ _
 72
    65
 73
     2
 40
0.11811023622
 49
0.07874015748
 74
     0
 49
-0.03937007874
 74
     0
  0
LTYPE
  5
6C9
330
5
100
AcDbSymbolTableRecord
100
AcDbLinetypeTableRecord
  2
TENSEN
 70
     0
  3

 72
    65
 73
     2
 40
3.0
 49
2.0
 74
     0
 49
-1.0
 74
     0
  0
LTYPE
  5
6CA
330
5
100
AcDbSymbolTableRecord
100
AcDbLinetypeTableRecord
  2
ITTEN
 70
     0
  3

 72
    65
 73
     4
 40
5.5
 49
2.5
 74
     0
 49
-1.0
 74
     0
 49
1.0
 74
     0
 49
-1.0
 74
     0
  0
ENDTAB
  0
TABLE
  2
LAYER
  5
2
330
0
100
AcDbSymbolTable
 70
     5
  0
LAYER
  5
10
330
2
100
AcDbSymbolTableRecord
100
AcDbLayerTableRecord
  2
0
 70
     0
 62
     7
  6
CONTINUOUS
370
    -3
390
F
  0
LAYER
  5
26
330
2
100
AcDbSymbolTableRecord
100
AcDbLayerTableRecord
  2
1
 70
     0
 62
     1
  6
ITTEN1
370
    -3
390
F
  0
LAYER
  5
27
330
2
100
AcDbSymbolTableRecord
100
AcDbLayerTableRecord
  2
2
 70
     0
 62
     7
  6
TENSEN2
370
    -3
390
F
  0
LAYER
  5
28
330
2
100
AcDbSymbolTableRecord
100
AcDbLayerTableRecord
  2
3
 70
     0
 62
     7
  6
CONTINUOUS
370
    -3
390
F
  0
LAYER
  5
334
330
2
100
AcDbSymbolTableRecord
100
AcDbLayerTableRecord
  2
DEFPOINTS
 70
     0
 62
     7
  6
CONTINUOUS
290
     0
370
    -3
390
F
  0
ENDTAB
  0
TABLE
  2
STYLE
  5
3
330
0
100
AcDbSymbolTable
 70
     6
  0
STYLE
  5
11
330
3
100
AcDbSymbolTableRecord
100
AcDbTextStyleTableRecord
  2
STANDARD
 70
     0
 40
0.0
 41
1.0
 50
0.0
 71
     0
 42
0.2
  3
txt
  4

  0
STYLE
  5
22
330
3
100
AcDbSymbolTableRecord
100
AcDbTextStyleTableRecord
  2
BIGFONT
 70
     0
 40
7.0
 41
1.0
 50
0.0
 71
     0
 42
7.0
  3

  4
extfont.shx
  0
STYLE
  5
2AE
330
3
100
AcDbSymbolTableRecord
100
AcDbTextStyleTableRecord
  2

 70
     1
 40
0.0
 41
1.0
 50
0.0
 71
     0
 42
7.0
  3
ltypeshp.shx
  4

  0
STYLE
  5
2B3
330
3
100
AcDbSymbolTableRecord
100
AcDbTextStyleTableRecord
  2
ACANSTS
 70
     0
 40
1.0
 41
1.0
 50
0.0
 71
     0
 42
7.0
  3
romans.shx
  4
extfont.shx
  0
STYLE
  5
2BF
330
3
100
AcDbSymbolTableRecord
100
AcDbTextStyleTableRecord
  2
ACANSGDT
 70
     0
 40
0.0
 41
1.0
 50
0.0
 71
     0
 42
7.0
  3
amgdtans.shx
  4

  0
STYLE
  5
335
330
3
100
AcDbSymbolTableRecord
100
AcDbTextStyleTableRecord
  2
EXTFONT
 70
     0
 40
4.0
 41
0.75
 50
0.0
 71
     0
 42
4.0
  3
txt.shx
  4
extfont.shx
  0
ENDTAB
  0
TABLE
  2
VIEW
  5
6
330
0
100
AcDbSymbolTable
 70
     0
  0
ENDTAB
  0
TABLE
  2
UCS
  5
7
330
0
100
AcDbSymbolTable
 70
     0
  0
ENDTAB
  0
TABLE
  2
APPID
  5
9
330
0
100
AcDbSymbolTable
 70
    13
  0
APPID
  5
12
330
9
100
AcDbSymbolTableRecord
100
AcDbRegAppTableRecord
  2
ACAD
 70
     0
  0
APPID
  5
1DC
330
9
100
AcDbSymbolTableRecord
100
AcDbRegAppTableRecord
  2
GENIUS_GENDIM_13
 70
     0
  0
APPID
  5
1DD
330
9
100
AcDbSymbolTableRecord
100
AcDbRegAppTableRecord
  2
GENIUS_GENDTOL_13
 70
     0
  0
APPID
  5
1DE
330
9
100
AcDbSymbolTableRecord
100
AcDbRegAppTableRecord
  2
GENIUS_GE3DTOL_13
 70
     0
  0
APPID
  5
1E1
330
9
100
AcDbSymbolTableRecord
100
AcDbRegAppTableRecord
  2
MCAD_NO_VIS
 70
     0
  0
APPID
  5
1E2
330
9
100
AcDbSymbolTableRecord
100
AcDbRegAppTableRecord
  2
ACAD_TEMP_GRAPHIC
 70
     0
  0
APPID
  5
215
330
9
100
AcDbSymbolTableRecord
100
AcDbRegAppTableRecord
  2
AD_DRAW
 70
     0
  0
APPID
  5
218
330
9
100
AcDbSymbolTableRecord
100
AcDbRegAppTableRecord
  2
ACATTRIBSERVICES
 70
     0
  0
APPID
  5
264
330
9
100
AcDbSymbolTableRecord
100
AcDbRegAppTableRecord
  2
ASURF_PCURVE_APPNAME
 70
     0
  0
APPID
  5
269
330
9
100
AcDbSymbolTableRecord
100
AcDbRegAppTableRecord
  2
AMG_3D2D_5.0
 70
     0
  0
APPID
  5
294
330
9
100
AcDbSymbolTableRecord
100
AcDbRegAppTableRecord
  2
DESIGNERASSEMBLIES
 70
     0
  0
APPID
  5
29C
330
9
100
AcDbSymbolTableRecord
100
AcDbRegAppTableRecord
  2
ACADM_DIM_EDIT
 70
     0
  0
APPID
  5
29D
330
9
100
AcDbSymbolTableRecord
100
AcDbRegAppTableRecord
  2
AMDT_DM_ADJ
 70
     0
  0
ENDTAB
  0
TABLE
  2
DIMSTYLE
  5
A
330
0
100
AcDbSymbolTable
 70
     7
100
AcDbDimStyleTable
 71
     1
340
29
  0
DIMSTYLE
105
29
330
A
100
AcDbSymbolTableRecord
100
AcDbDimStyleTableRecord
  2
STANDARD
 70
     0
279
     2
340
22
  0
DIMSTYLE
105
2C5
330
A
100
AcDbSymbolTableRecord
100
AcDbDimStyleTableRecord
  2
AM_ANSI
 70
     0
  4
mm
 41
0.1
 42
0.05
 43
0.5
 44
0.1
 47
0.1
 48
0.1
 78
     7
 79
     2
140
0.12
141
0.0
146
0.71
147
0.06
176
   256
177
   256
178
     2
274
     4
284
     7
340
11
371
    -1
372
    -1
  0
DIMSTYLE
105
2C6
330
A
100
AcDbSymbolTableRecord
100
AcDbDimStyleTableRecord
  2
AM_ANSI$3
 70
     0
  4
mm
 41
0.1
 42
0.05
 43
0.5
 44
0.1
 47
0.1
 48
0.1
 78
     7
 79
     2
140
0.12
141
0.0
146
0.71
147
0.06
176
   256
177
   256
178
     2
274
     4
284
     7
288
     1
289
     0
340
11
371
    -1
372
    -1
  0
DIMSTYLE
105
2C7
330
A
100
AcDbSymbolTableRecord
100
AcDbDimStyleTableRecord
  2
AM_ANSI$4
 70
     0
  4
mm
 41
0.1
 42
0.05
 43
0.5
 44
0.1
 47
0.1
 48
0.1
 78
     7
 79
     2
140
0.12
141
0.0
146
0.71
147
0.06
176
   256
177
   256
178
     2
274
     4
284
     7
288
     1
289
     0
340
11
371
    -1
372
    -1
  0
DIMSTYLE
105
2C8
330
A
100
AcDbSymbolTableRecord
100
AcDbDimStyleTableRecord
  2
AM_ANSI$7
 70
     0
  4
mm
 41
0.1
 42
0.05
 43
0.5
 44
0.1
 47
0.1
 48
0.1
 78
     7
 79
     2
140
0.24
141
0.0
146
0.71
147
0.06
176
   256
177
   256
178
     2
274
     4
284
     7
340
11
371
    -1
372
    -1
  0
DIMSTYLE
105
2C9
330
A
100
AcDbSymbolTableRecord
100
AcDbDimStyleTableRecord
  2
AM_ANSI$SF
 70
     0
  4
mm
 41
0.1
 42
0.05
 43
0.5
 44
0.1
 47
0.1
 48
0.1
 75
     1
 76
     1
 78
     7
 79
     2
140
0.12
141
0.0
146
0.71
147
0.06
176
   256
177
   256
178
     2
274
     4
284
     7
340
11
371
    -1
372
    -1
  0
DIMSTYLE
105
2CE
330
A
100
AcDbSymbolTableRecord
100
AcDbDimStyleTableRecord
  2
AM_ANSI$SH
 70
     0
  4
mm
 41
0.1
 42
0.05
 43
0.5
 44
0.1
 47
0.1
 48
0.1
 75
     1
 76
     1
 78
     7
 79
     2
140
0.12
141
0.0
146
0.71
147
0.06
173
     1
176
   256
177
   256
178
     2
274
     4
284
     7
340
11
343
2CA
371
    -1
372
    -1
  0
ENDTAB
  0
TABLE
  2
BLOCK_RECORD
  5
1
330
0
100
AcDbSymbolTable
 70
    17
  0
BLOCK_RECORD
  5
1E
102
{ACAD_XDICTIONARY
360
2D2
102
}
330
1
100
AcDbSymbolTableRecord
100
AcDbBlockTableRecord
  2
*Model_Space
340
21
  0
BLOCK_RECORD
  5
1A
330
1
100
AcDbSymbolTableRecord
100
AcDbBlockTableRecord
  2
*Paper_Space
340
1D
  0
BLOCK_RECORD
  5
28B
330
1
100
AcDbSymbolTableRecord
100
AcDbBlockTableRecord
  2
*U0
340
0
  0
BLOCK_RECORD
  5
2CA
330
1
100
AcDbSymbolTableRecord
100
AcDbBlockTableRecord
  2
GENAXEH
340
0
  0
BLOCK_RECORD
  5
2E6
330
1
100
AcDbSymbolTableRecord
100
AcDbBlockTableRecord
  2
*D2
340
0
  0
BLOCK_RECORD
  5
2F3
330
1
100
AcDbSymbolTableRecord
100
AcDbBlockTableRecord
  2
*D3
340
0
  0
BLOCK_RECORD
  5
300
330
1
100
AcDbSymbolTableRecord
100
AcDbBlockTableRecord
  2
*D4
340
0
  0
BLOCK_RECORD
  5
30D
330
1
100
AcDbSymbolTableRecord
100
AcDbBlockTableRecord
  2
*D5
340
0
  0
BLOCK_RECORD
  5
31A
330
1
100
AcDbSymbolTableRecord
100
AcDbBlockTableRecord
  2
*D6
340
0
  0
BLOCK_RECORD
  5
327
330
1
100
AcDbSymbolTableRecord
100
AcDbBlockTableRecord
  2
*D7
340
0
  0
BLOCK_RECORD
  5
5E6
330
1
100
AcDbSymbolTableRecord
100
AcDbBlockTableRecord
  2
*D9
340
0
  0
BLOCK_RECORD
  5
5F3
330
1
100
AcDbSymbolTableRecord
100
AcDbBlockTableRecord
  2
*D10
340
0
  0
BLOCK_RECORD
  5
600
330
1
100
AcDbSymbolTableRecord
100
AcDbBlockTableRecord
  2
*D11
340
0
  0
BLOCK_RECORD
  5
60D
330
1
100
AcDbSymbolTableRecord
100
AcDbBlockTableRecord
  2
*D12
340
0
  0
BLOCK_RECORD
  5
61A
330
1
100
AcDbSymbolTableRecord
100
AcDbBlockTableRecord
  2
*D13
340
0
  0
BLOCK_RECORD
  5
627
330
1
100
AcDbSymbolTableRecord
100
AcDbBlockTableRecord
  2
*D14
340
0
  0
BLOCK_RECORD
  5
6AE
330
1
100
AcDbSymbolTableRecord
100
AcDbBlockTableRecord
  2
*D15
340
0
  0
ENDTAB
  0
ENDSEC
  0
SECTION
  2
BLOCKS
  0
BLOCK
  5
1F
330
1E
100
AcDbEntity
  8
0
100
AcDbBlockBegin
  2
*Model_Space
 70
     0
 10
0.0
 20
0.0
 30
0.0
  3
*Model_Space
  1

  0
ENDBLK
  5
20
330
1E
100
AcDbEntity
  8
0
100
AcDbBlockEnd
  0
BLOCK
  5
1B
330
1A
100
AcDbEntity
 67
     1
  8
0
100
AcDbBlockBegin
  2
*Paper_Space
 70
     0
 10
0.0
 20
0.0
 30
0.0
  3
*Paper_Space
  1

  0
ENDBLK
  5
1C
330
1A
100
AcDbEntity
 67
     1
  8
0
100
AcDbBlockEnd
  0
BLOCK
  5
28C
330
28B
100
AcDbEntity
  8
0
100
AcDbBlockBegin
  2
*U0
 70
     1
 10
0.0
 20
0.0
 30
0.0
  3
*U0
  1

  0
ENDBLK
  5
28D
330
28B
100
AcDbEntity
  8
0
100
AcDbBlockEnd
  0
BLOCK
  5
2CC
330
2CA
100
AcDbEntity
  8
0
100
AcDbBlockBegin
  2
GENAXEH
 70
     0
 10
0.0
 20
0.0
 30
0.0
  3
GENAXEH
  1

  0
LINE
  5
2CB
330
2CA
100
AcDbEntity
  8
0
100
AcDbLine
 10
-1.0
 20
0.0
 30
0.0
 11
1.0
 21
0.0
 31
0.0
  0
ENDBLK
  5
2CD
330
2CA
100
AcDbEntity
  8
0
100
AcDbBlockEnd
  0
BLOCK
  5
2F1
330
2E6
100
AcDbEntity
  8
0
100
AcDbBlockBegin
  2
*D2
 70
     1
 10
0.0
 20
0.0
 30
0.0
  3
*D2
  1

  0
LINE
  5
2E7
330
2E6
100
AcDbEntity
  8
0
  6
ByBlock
 62
     0
100
AcDbLine
 10
214.9500001771667
 20
121.5499997876654
 30
0.0
 11
193.9787386369228
 21
121.5499997876654
 31
0.0
  0
LINE
  5
2E8
330
2E6
100
AcDbEntity
  8
0
  6
ByBlock
 62
     0
100
AcDbLine
 10
214.9500001771667
 20
101.8499997876654
 30
0.0
 11
193.9787386369228
 21
101.8499997876654
 31
0.0
  0
LINE
  5
2E9
330
2E6
100
AcDbEntity
  8
0
  6
ByBlock
 62
     0
100
AcDbLine
 10
194.4787386369227
 20
119.5499997876654
 30
0.0
 11
194.4787386369227
 21
114.0693477100776
 31
0.0
  0
LINE
  5
2EA
330
2E6
100
AcDbEntity
  8
0
  6
ByBlock
 62
     0
100
AcDbLine
 10
194.4787386369227
 20
103.8499997876654
 30
0.0
 11
194.4787386369227
 21
109.3893477100776
 31
0.0
  0
SOLID
  5
2EB
330
2E6
100
AcDbEntity
  8
0
  6
ByBlock
 62
     0
100
AcDbTrace
 10
194.1454053035894
 20
119.5499997876654
 30
0.0
 11
194.8120719702561
 21
119.5499997876654
 31
0.0
 12
194.4787386369227
 22
121.5499997876654
 32
0.0
 13
194.4787386369227
 23
121.5499997876654
 33
0.0
  0
SOLID
  5
2EC
330
2E6
100
AcDbEntity
  8
0
  6
ByBlock
 62
     0
100
AcDbTrace
 10
194.1454053035894
 20
103.8499997876654
 30
0.0
 11
194.8120719702561
 21
103.8499997876654
 31
0.0
 12
194.4787386369227
 22
101.8499997876654
 32
0.0
 13
194.4787386369227
 23
101.8499997876654
 33
0.0
  0
MTEXT
  5
2ED
330
2E6
100
AcDbEntity
  8
0
  6
ByBlock
 62
     0
100
AcDbMText
 10
194.4787386369227
 20
111.7293477100776
 30
0.0
 40
4.0
 41
0.0
 71
     5
 72
     1
  1
\A1;20
  7
EXTFONT
 11
0.0000000000000001
 21
1.0
 31
0.0
 73
     1
 44
1.0
  0
POINT
  5
2EE
330
2E6
100
AcDbEntity
  8
DEFPOINTS
  6
ByBlock
 62
     0
100
AcDbPoint
 10
215.4500001771668
 20
121.5499997876654
 30
0.0
  0
POINT
  5
2EF
330
2E6
100
AcDbEntity
  8
DEFPOINTS
  6
ByBlock
 62
     0
100
AcDbPoint
 10
215.4500001771668
 20
101.8499997876654
 30
0.0
  0
POINT
  5
2F0
330
2E6
100
AcDbEntity
  8
DEFPOINTS
  6
ByBlock
 62
     0
100
AcDbPoint
 10
194.4787386369227
 20
101.8499997876654
 30
0.0
  0
ENDBLK
  5
2F2
330
2E6
100
AcDbEntity
  8
0
100
AcDbBlockEnd
  0
BLOCK
  5
2FE
330
2F3
100
AcDbEntity
  8
0
100
AcDbBlockBegin
  2
*D3
 70
     1
 10
0.0
 20
0.0
 30
0.0
  3
*D3
  1

  0
LINE
  5
2F4
330
2F3
100
AcDbEntity
  8
0
  6
ByBlock
 62
     0
100
AcDbLine
 10
211.2500001771667
 20
132.5499997876654
 30
0.0
 11
186.549524354096
 21
132.5499997876654
 31
0.0
  0
LINE
  5
2F5
330
2F3
100
AcDbEntity
  8
0
  6
ByBlock
 62
     0
100
AcDbLine
 10
211.2500001771667
 20
90.8499997876655
 30
0.0
 11
186.549524354096
 21
90.8499997876655
 31
0.0
  0
LINE
  5
2F6
330
2F3
100
AcDbEntity
  8
0
  6
ByBlock
 62
     0
100
AcDbLine
 10
187.049524354096
 20
130.5499997876654
 30
0.0
 11
187.049524354096
 21
113.7232288045276
 31
0.0
  0
LINE
  5
2F7
330
2F3
100
AcDbEntity
  8
0
  6
ByBlock
 62
     0
100
AcDbLine
 10
187.049524354096
 20
92.84999978766549
 30
0.0
 11
187.049524354096
 21
108.5432288045276
 31
0.0
  0
SOLID
  5
2F8
330
2F3
100
AcDbEntity
  8
0
  6
ByBlock
 62
     0
100
AcDbTrace
 10
186.7161910207627
 20
130.5499997876654
 30
0.0
 11
187.3828576874294
 21
130.5499997876654
 31
0.0
 12
187.049524354096
 22
132.5499997876654
 32
0.0
 13
187.049524354096
 23
132.5499997876654
 33
0.0
  0
SOLID
  5
2F9
330
2F3
100
AcDbEntity
  8
0
  6
ByBlock
 62
     0
100
AcDbTrace
 10
186.7161910207627
 20
92.84999978766549
 30
0.0
 11
187.3828576874294
 21
92.84999978766549
 31
0.0
 12
187.049524354096
 22
90.8499997876655
 32
0.0
 13
187.049524354096
 23
90.8499997876655
 33
0.0
  0
MTEXT
  5
2FA
330
2F3
100
AcDbEntity
  8
0
  6
ByBlock
 62
     0
100
AcDbMText
 10
187.049524354096
 20
111.1332288045276
 30
0.0
 40
4.0
 41
0.0
 71
     5
 72
     1
  1
\A1;42
  7
EXTFONT
 11
0.0000000000000001
 21
1.0
 31
0.0
 73
     1
 44
1.0
  0
POINT
  5
2FB
330
2F3
100
AcDbEntity
  8
DEFPOINTS
  6
ByBlock
 62
     0
100
AcDbPoint
 10
211.7500001771667
 20
132.5499997876654
 30
0.0
  0
POINT
  5
2FC
330
2F3
100
AcDbEntity
  8
DEFPOINTS
  6
ByBlock
 62
     0
100
AcDbPoint
 10
211.7500001771667
 20
90.8499997876655
 30
0.0
  0
POINT
  5
2FD
330
2F3
100
AcDbEntity
  8
DEFPOINTS
  6
ByBlock
 62
     0
100
AcDbPoint
 10
187.049524354096
 20
90.8499997876655
 30
0.0
  0
ENDBLK
  5
2FF
330
2F3
100
AcDbEntity
  8
0
100
AcDbBlockEnd
  0
BLOCK
  5
30B
330
300
100
AcDbEntity
  8
0
100
AcDbBlockBegin
  2
*D4
 70
     1
 10
0.0
 20
0.0
 30
0.0
  3
*D4
  1

  0
LINE
  5
301
330
300
100
AcDbEntity
  8
0
  6
ByBlock
 62
     0
100
AcDbLine
 10
207.0578259921705
 20
144.2032612886312
 30
0.0
 11
179.8448871142182
 21
144.2032612886312
 31
0.0
  0
LINE
  5
302
330
300
100
AcDbEntity
  8
0
  6
ByBlock
 62
     0
100
AcDbLine
 10
207.0210003569146
 20
79.22174216908036
 30
0.0
 11
179.8448871142182
 21
79.22174216908036
 31
0.0
  0
LINE
  5
303
330
300
100
AcDbEntity
  8
0
  6
ByBlock
 62
     0
100
AcDbLine
 10
180.3448871142182
 20
142.2032612886312
 30
0.0
 11
180.3448871142182
 21
118.5845652354081
 31
0.0
  0
LINE
  5
304
330
300
100
AcDbEntity
  8
0
  6
ByBlock
 62
     0
100
AcDbLine
 10
180.3448871142182
 20
81.22174216908035
 30
0.0
 11
180.3448871142182
 21
107.4045652354081
 31
0.0
  0
SOLID
  5
305
330
300
100
AcDbEntity
  8
0
  6
ByBlock
 62
     0
100
AcDbTrace
 10
180.0115537808849
 20
142.2032612886312
 30
0.0
 11
180.6782204475516
 21
142.2032612886312
 31
0.0
 12
180.3448871142182
 22
144.2032612886312
 32
0.0
 13
180.3448871142182
 23
144.2032612886312
 33
0.0
  0
SOLID
  5
306
330
300
100
AcDbEntity
  8
0
  6
ByBlock
 62
     0
100
AcDbTrace
 10
180.0115537808849
 20
81.22174216908035
 30
0.0
 11
180.6782204475516
 21
81.22174216908035
 31
0.0
 12
180.3448871142182
 22
79.22174216908036
 32
0.0
 13
180.3448871142182
 23
79.22174216908036
 33
0.0
  0
MTEXT
  5
307
330
300
100
AcDbEntity
  8
0
  6
ByBlock
 62
     0
100
AcDbMText
 10
180.3448871142182
 20
112.9945652354081
 30
0.0
 40
4.0
 41
0.0
 71
     5
 72
     1
  1
\A1;63.91
  7
EXTFONT
 11
0.0000000000000001
 21
1.0
 31
0.0
 73
     1
 44
1.0
  0
POINT
  5
308
330
300
100
AcDbEntity
  8
DEFPOINTS
  6
ByBlock
 62
     0
100
AcDbPoint
 10
207.5578259921706
 20
144.2032612886312
 30
0.0
  0
POINT
  5
309
330
300
100
AcDbEntity
  8
DEFPOINTS
  6
ByBlock
 62
     0
100
AcDbPoint
 10
207.5210003569146
 20
79.22174216908036
 30
0.0
  0
POINT
  5
30A
330
300
100
AcDbEntity
  8
DEFPOINTS
  6
ByBlock
 62
     0
100
AcDbPoint
 10
180.3448871142182
 20
79.22174216908036
 30
0.0
  0
ENDBLK
  5
30C
330
300
100
AcDbEntity
  8
0
100
AcDbBlockEnd
  0
BLOCK
  5
318
330
30D
100
AcDbEntity
  8
0
100
AcDbBlockBegin
  2
*D5
 70
     1
 10
0.0
 20
0.0
 30
0.0
  3
*D5
  1

  0
LINE
  5
30E
330
30D
100
AcDbEntity
  8
0
  6
ByBlock
 62
     0
100
AcDbLine
 10
212.3000001771667
 20
147.1999997876654
 30
0.0
 11
171.195813110979
 21
147.1999997876654
 31
0.0
  0
LINE
  5
30F
330
30D
100
AcDbEntity
  8
0
  6
ByBlock
 62
     0
100
AcDbLine
 10
212.3000001771667
 20
76.19999978766552
 30
0.0
 11
171.195813110979
 21
76.19999978766552
 31
0.0
  0
LINE
  5
310
330
30D
100
AcDbEntity
  8
0
  6
ByBlock
 62
     0
100
AcDbLine
 10
171.6958131109791
 20
145.1999997876654
 30
0.0
 11
171.6958131109791
 21
114.5302174685109
 31
0.0
  0
LINE
  5
311
330
30D
100
AcDbEntity
  8
0
  6
ByBlock
 62
     0
100
AcDbLine
 10
171.6958131109791
 20
78.19999978766552
 30
0.0
 11
171.6958131109791
 21
109.3502174685109
 31
0.0
  0
SOLID
  5
312
330
30D
100
AcDbEntity
  8
0
  6
ByBlock
 62
     0
100
AcDbTrace
 10
171.3624797776457
 20
145.1999997876654
 30
0.0
 11
172.0291464443124
 21
145.1999997876654
 31
0.0
 12
171.6958131109791
 22
147.1999997876654
 32
0.0
 13
171.6958131109791
 23
147.1999997876654
 33
0.0
  0
SOLID
  5
313
330
30D
100
AcDbEntity
  8
0
  6
ByBlock
 62
     0
100
AcDbTrace
 10
171.3624797776457
 20
78.19999978766552
 30
0.0
 11
172.0291464443124
 21
78.19999978766552
 31
0.0
 12
171.6958131109791
 22
76.19999978766552
 32
0.0
 13
171.6958131109791
 23
76.19999978766552
 33
0.0
  0
MTEXT
  5
314
330
30D
100
AcDbEntity
  8
0
  6
ByBlock
 62
     0
100
AcDbMText
 10
171.6958131109791
 20
111.9402174685109
 30
0.0
 40
4.0
 41
0.0
 71
     5
 72
     1
  1
\A1;69
  7
EXTFONT
 11
0.0000000000000001
 21
1.0
 31
0.0
 73
     1
 44
1.0
  0
POINT
  5
315
330
30D
100
AcDbEntity
  8
DEFPOINTS
  6
ByBlock
 62
     0
100
AcDbPoint
 10
212.8000001771667
 20
147.1999997876654
 30
0.0
  0
POINT
  5
316
330
30D
100
AcDbEntity
  8
DEFPOINTS
  6
ByBlock
 62
     0
100
AcDbPoint
 10
212.8000001771667
 20
76.19999978766552
 30
0.0
  0
POINT
  5
317
330
30D
100
AcDbEntity
  8
DEFPOINTS
  6
ByBlock
 62
     0
100
AcDbPoint
 10
171.6958131109791
 20
76.19999978766552
 30
0.0
  0
ENDBLK
  5
319
330
30D
100
AcDbEntity
  8
0
100
AcDbBlockEnd
  0
BLOCK
  5
325
330
31A
100
AcDbEntity
  8
0
100
AcDbBlockBegin
  2
*D6
 70
     1
 10
0.0
 20
0.0
 30
0.0
  3
*D6
  1

  0
LINE
  5
31B
330
31A
100
AcDbEntity
  8
0
  6
ByBlock
 62
     0
100
AcDbLine
 10
229.1000001771667
 20
138.1499997876655
 30
0.0
 11
253.8346297448358
 21
138.1499997876654
 31
0.0
  0
LINE
  5
31C
330
31A
100
AcDbEntity
  8
0
  6
ByBlock
 62
     0
100
AcDbLine
 10
229.1000001771667
 20
85.24999978766548
 30
0.0
 11
253.8346297448358
 21
85.24999978766548
 31
0.0
  0
LINE
  5
31D
330
31A
100
AcDbEntity
  8
0
  6
ByBlock
 62
     0
100
AcDbLine
 10
253.3346297448358
 20
136.1499997876654
 30
0.0
 11
253.3346297448358
 21
114.5302174685109
 31
0.0
  0
LINE
  5
31E
330
31A
100
AcDbEntity
  8
0
  6
ByBlock
 62
     0
100
AcDbLine
 10
253.3346297448358
 20
87.24999978766547
 30
0.0
 11
253.3346297448358
 21
109.3502174685109
 31
0.0
  0
SOLID
  5
31F
330
31A
100
AcDbEntity
  8
0
  6
ByBlock
 62
     0
100
AcDbTrace
 10
253.0012964115025
 20
136.1499997876654
 30
0.0
 11
253.6679630781692
 21
136.1499997876654
 31
0.0
 12
253.3346297448358
 22
138.1499997876654
 32
0.0
 13
253.3346297448358
 23
138.1499997876654
 33
0.0
  0
SOLID
  5
320
330
31A
100
AcDbEntity
  8
0
  6
ByBlock
 62
     0
100
AcDbTrace
 10
253.0012964115025
 20
87.24999978766547
 30
0.0
 11
253.6679630781692
 21
87.24999978766547
 31
0.0
 12
253.3346297448358
 22
85.24999978766548
 32
0.0
 13
253.3346297448358
 23
85.24999978766548
 33
0.0
  0
MTEXT
  5
321
330
31A
100
AcDbEntity
  8
0
  6
ByBlock
 62
     0
100
AcDbMText
 10
253.3346297448358
 20
111.9402174685109
 30
0.0
 40
4.0
 41
0.0
 71
     5
 72
     1
  1
\A1;53
  7
EXTFONT
 11
0.0000000000000001
 21
1.0
 31
0.0
 73
     1
 44
1.0
  0
POINT
  5
322
330
31A
100
AcDbEntity
  8
DEFPOINTS
  6
ByBlock
 62
     0
100
AcDbPoint
 10
228.6000001771667
 20
138.1499997876655
 30
0.0
  0
POINT
  5
323
330
31A
100
AcDbEntity
  8
DEFPOINTS
  6
ByBlock
 62
     0
100
AcDbPoint
 10
228.6000001771667
 20
85.24999978766548
 30
0.0
  0
POINT
  5
324
330
31A
100
AcDbEntity
  8
DEFPOINTS
  6
ByBlock
 62
     0
100
AcDbPoint
 10
253.3346297448358
 20
85.24999978766548
 30
0.0
  0
ENDBLK
  5
326
330
31A
100
AcDbEntity
  8
0
100
AcDbBlockEnd
  0
BLOCK
  5
332
330
327
100
AcDbEntity
  8
0
100
AcDbBlockBegin
  2
*D7
 70
     1
 10
0.0
 20
0.0
 30
0.0
  3
*D7
  1

  0
LINE
  5
328
330
327
100
AcDbEntity
  8
0
  6
ByBlock
 62
     0
100
AcDbLine
 10
230.1000001771667
 20
130.5499997876654
 30
0.0
 11
244.5526969756956
 21
130.5499997876654
 31
0.0
  0
LINE
  5
329
330
327
100
AcDbEntity
  8
0
  6
ByBlock
 62
     0
100
AcDbLine
 10
230.1000001771667
 20
92.84999978766549
 30
0.0
 11
244.5526969756956
 21
92.84999978766549
 31
0.0
  0
LINE
  5
32A
330
327
100
AcDbEntity
  8
0
  6
ByBlock
 62
     0
100
AcDbLine
 10
244.0526969756956
 20
128.5499997876654
 30
0.0
 11
244.0526969756956
 21
114.3193477100776
 31
0.0
  0
LINE
  5
32B
330
327
100
AcDbEntity
  8
0
  6
ByBlock
 62
     0
100
AcDbLine
 10
244.0526969756956
 20
94.8499997876655
 30
0.0
 11
244.0526969756956
 21
109.1393477100776
 31
0.0
  0
SOLID
  5
32C
330
327
100
AcDbEntity
  8
0
  6
ByBlock
 62
     0
100
AcDbTrace
 10
243.7193636423623
 20
128.5499997876654
 30
0.0
 11
244.386030309029
 21
128.5499997876654
 31
0.0
 12
244.0526969756956
 22
130.5499997876654
 32
0.0
 13
244.0526969756956
 23
130.5499997876654
 33
0.0
  0
SOLID
  5
32D
330
327
100
AcDbEntity
  8
0
  6
ByBlock
 62
     0
100
AcDbTrace
 10
243.7193636423623
 20
94.8499997876655
 30
0.0
 11
244.386030309029
 21
94.8499997876655
 31
0.0
 12
244.0526969756956
 22
92.84999978766549
 32
0.0
 13
244.0526969756956
 23
92.84999978766549
 33
0.0
  0
MTEXT
  5
32E
330
327
100
AcDbEntity
  8
0
  6
ByBlock
 62
     0
100
AcDbMText
 10
244.0526969756956
 20
111.7293477100776
 30
0.0
 40
4.0
 41
0.0
 71
     5
 72
     1
  1
\A1;38
  7
EXTFONT
 11
0.0000000000000001
 21
1.0
 31
0.0
 73
     1
 44
1.0
  0
POINT
  5
32F
330
327
100
AcDbEntity
  8
DEFPOINTS
  6
ByBlock
 62
     0
100
AcDbPoint
 10
229.6000001771667
 20
130.5499997876654
 30
0.0
  0
POINT
  5
330
330
327
100
AcDbEntity
  8
DEFPOINTS
  6
ByBlock
 62
     0
100
AcDbPoint
 10
229.6000001771667
 20
92.84999978766549
 30
0.0
  0
POINT
  5
331
330
327
100
AcDbEntity
  8
DEFPOINTS
  6
ByBlock
 62
     0
100
AcDbPoint
 10
244.0526969756956
 20
92.84999978766549
 30
0.0
  0
ENDBLK
  5
333
330
327
100
AcDbEntity
  8
0
100
AcDbBlockEnd
  0
BLOCK
  5
5F1
330
5E6
100
AcDbEntity
  8
0
100
AcDbBlockBegin
  2
*D9
 70
     1
 10
0.0
 20
0.0
 30
0.0
  3
*D9
  1

  0
LINE
  5
63E
330
5E6
100
AcDbEntity
  8
3
 62
     0
370
    -2
100
AcDbLine
 10
253.9897529011911
 20
138.671060114205
 30
0.0
 11
268.44244969972
 21
138.671060114205
 31
0.0
  0
LINE
  5
63F
330
5E6
100
AcDbEntity
  8
3
 62
     0
370
    -2
100
AcDbLine
 10
253.9897529011911
 20
100.971060114205
 30
0.0
 11
268.4424496997199
 21
100.971060114205
 31
0.0
  0
LINE
  5
640
330
5E6
100
AcDbEntity
  8
3
 62
     0
370
    -2
100
AcDbLine
 10
267.94244969972
 20
136.671060114205
 30
0.0
 11
267.9424496997199
 21
122.4404080366171
 31
0.0
  0
LINE
  5
641
330
5E6
100
AcDbEntity
  8
3
 62
     0
370
    -2
100
AcDbLine
 10
267.9424496997199
 20
102.971060114205
 30
0.0
 11
267.9424496997199
 21
117.2604080366171
 31
0.0
  0
MTEXT
  5
642
330
5E6
100
AcDbEntity
  8
3
 62
     0
100
AcDbMText
 10
267.9424496997199
 20
119.8504080366172
 30
0.0
 40
4.0
 41
0.0
 71
     5
 72
     1
  1
\A1;38
  7
EXTFONT
 11
0.0000000000000001
 21
1.0
 31
0.0
 73
     1
 44
1.0
  0
SOLID
  5
643
330
5E6
100
AcDbEntity
  8
3
 62
     0
100
AcDbTrace
 10
267.6091163663867
 20
136.671060114205
 30
0.0
 11
268.2757830330533
 21
136.671060114205
 31
0.0
 12
267.94244969972
 22
138.671060114205
 32
0.0
 13
267.94244969972
 23
138.671060114205
 33
0.0
  0
SOLID
  5
644
330
5E6
100
AcDbEntity
  8
3
 62
     0
100
AcDbTrace
 10
267.6091163663866
 20
102.971060114205
 30
0.0
 11
268.2757830330533
 21
102.971060114205
 31
0.0
 12
267.9424496997199
 22
100.971060114205
 32
0.0
 13
267.9424496997199
 23
100.971060114205
 33
0.0
  0
POINT
  5
645
330
5E6
100
AcDbEntity
  8
DEFPOINTS
 62
     0
100
AcDbPoint
 10
253.4897529011911
 20
138.671060114205
 30
0.0
  0
POINT
  5
646
330
5E6
100
AcDbEntity
  8
DEFPOINTS
 62
     0
100
AcDbPoint
 10
253.4897529011911
 20
100.971060114205
 30
0.0
  0
POINT
  5
647
330
5E6
100
AcDbEntity
  8
DEFPOINTS
 62
     0
100
AcDbPoint
 10
267.9424496997199
 20
100.971060114205
 30
0.0
  0
ENDBLK
  5
5F2
330
5E6
100
AcDbEntity
  8
0
100
AcDbBlockEnd
  0
BLOCK
  5
5FE
330
5F3
100
AcDbEntity
  8
0
100
AcDbBlockBegin
  2
*D10
 70
     1
 10
0.0
 20
0.0
 30
0.0
  3
*D10
  1

  0
LINE
  5
652
330
5F3
100
AcDbEntity
  8
3
 62
     0
370
    -2
100
AcDbLine
 10
252.9897529011911
 20
146.2710601142051
 30
0.0
 11
277.7243824688602
 21
146.2710601142051
 31
0.0
  0
LINE
  5
653
330
5F3
100
AcDbEntity
  8
3
 62
     0
370
    -2
100
AcDbLine
 10
252.9897529011911
 20
93.37106011420505
 30
0.0
 11
277.7243824688602
 21
93.37106011420505
 31
0.0
  0
LINE
  5
654
330
5F3
100
AcDbEntity
  8
3
 62
     0
370
    -2
100
AcDbLine
 10
277.2243824688602
 20
144.271060114205
 30
0.0
 11
277.2243824688601
 21
122.6512777950505
 31
0.0
  0
LINE
  5
655
330
5F3
100
AcDbEntity
  8
3
 62
     0
370
    -2
100
AcDbLine
 10
277.2243824688601
 20
95.37106011420505
 30
0.0
 11
277.2243824688601
 21
117.4712777950505
 31
0.0
  0
MTEXT
  5
656
330
5F3
100
AcDbEntity
  8
3
 62
     0
100
AcDbMText
 10
277.2243824688601
 20
120.0612777950505
 30
0.0
 40
4.0
 41
0.0
 71
     5
 72
     1
  1
\A1;53
  7
EXTFONT
 11
0.0000000000000001
 21
1.0
 31
0.0
 73
     1
 44
1.0
  0
SOLID
  5
657
330
5F3
100
AcDbEntity
  8
3
 62
     0
100
AcDbTrace
 10
276.8910491355269
 20
144.271060114205
 30
0.0
 11
277.5577158021935
 21
144.271060114205
 31
0.0
 12
277.2243824688602
 22
146.2710601142051
 32
0.0
 13
277.2243824688602
 23
146.2710601142051
 33
0.0
  0
SOLID
  5
658
330
5F3
100
AcDbEntity
  8
3
 62
     0
100
AcDbTrace
 10
276.8910491355268
 20
95.37106011420505
 30
0.0
 11
277.5577158021935
 21
95.37106011420505
 31
0.0
 12
277.2243824688601
 22
93.37106011420505
 32
0.0
 13
277.2243824688601
 23
93.37106011420505
 33
0.0
  0
POINT
  5
659
330
5F3
100
AcDbEntity
  8
DEFPOINTS
 62
     0
100
AcDbPoint
 10
252.4897529011911
 20
146.2710601142051
 30
0.0
  0
POINT
  5
65A
330
5F3
100
AcDbEntity
  8
DEFPOINTS
 62
     0
100
AcDbPoint
 10
252.4897529011911
 20
93.37106011420505
 30
0.0
  0
POINT
  5
65B
330
5F3
100
AcDbEntity
  8
DEFPOINTS
 62
     0
100
AcDbPoint
 10
277.2243824688601
 20
93.37106011420505
 30
0.0
  0
ENDBLK
  5
5FF
330
5F3
100
AcDbEntity
  8
0
100
AcDbBlockEnd
  0
BLOCK
  5
60B
330
600
100
AcDbEntity
  8
0
100
AcDbBlockBegin
  2
*D11
 70
     1
 10
0.0
 20
0.0
 30
0.0
  3
*D11
  1

  0
LINE
  5
666
330
600
100
AcDbEntity
  8
3
 62
     0
370
    -2
100
AcDbLine
 10
236.1897529011911
 20
155.321060114205
 30
0.0
 11
195.0855658350034
 21
155.321060114205
 31
0.0
  0
LINE
  5
667
330
600
100
AcDbEntity
  8
3
 62
     0
370
    -2
100
AcDbLine
 10
236.1897529011911
 20
84.32106011420509
 30
0.0
 11
195.0855658350034
 21
84.32106011420511
 31
0.0
  0
LINE
  5
668
330
600
100
AcDbEntity
  8
3
 62
     0
370
    -2
100
AcDbLine
 10
195.5855658350034
 20
153.321060114205
 30
0.0
 11
195.5855658350034
 21
122.6512777950505
 31
0.0
  0
LINE
  5
669
330
600
100
AcDbEntity
  8
3
 62
     0
370
    -2
100
AcDbLine
 10
195.5855658350034
 20
86.32106011420511
 30
0.0
 11
195.5855658350034
 21
117.4712777950505
 31
0.0
  0
MTEXT
  5
66A
330
600
100
AcDbEntity
  8
3
 62
     0
100
AcDbMText
 10
195.5855658350034
 20
120.0612777950505
 30
0.0
 40
4.0
 41
0.0
 71
     5
 72
     1
  1
\A1;69
  7
EXTFONT
 11
0.0000000000000001
 21
1.0
 31
0.0
 73
     1
 44
1.0
  0
SOLID
  5
66B
330
600
100
AcDbEntity
  8
3
 62
     0
100
AcDbTrace
 10
195.25223250167
 20
153.321060114205
 30
0.0
 11
195.9188991683367
 21
153.321060114205
 31
0.0
 12
195.5855658350034
 22
155.321060114205
 32
0.0
 13
195.5855658350034
 23
155.321060114205
 33
0.0
  0
SOLID
  5
66C
330
600
100
AcDbEntity
  8
3
 62
     0
100
AcDbTrace
 10
195.25223250167
 20
86.32106011420511
 30
0.0
 11
195.9188991683367
 21
86.32106011420511
 31
0.0
 12
195.5855658350034
 22
84.32106011420511
 32
0.0
 13
195.5855658350034
 23
84.32106011420511
 33
0.0
  0
POINT
  5
66D
330
600
100
AcDbEntity
  8
DEFPOINTS
 62
     0
100
AcDbPoint
 10
236.6897529011911
 20
155.321060114205
 30
0.0
  0
POINT
  5
66E
330
600
100
AcDbEntity
  8
DEFPOINTS
 62
     0
100
AcDbPoint
 10
236.6897529011911
 20
84.32106011420509
 30
0.0
  0
POINT
  5
66F
330
600
100
AcDbEntity
  8
DEFPOINTS
 62
     0
100
AcDbPoint
 10
195.5855658350034
 20
84.32106011420511
 30
0.0
  0
ENDBLK
  5
60C
330
600
100
AcDbEntity
  8
0
100
AcDbBlockEnd
  0
BLOCK
  5
618
330
60D
100
AcDbEntity
  8
0
100
AcDbBlockBegin
  2
*D12
 70
     1
 10
0.0
 20
0.0
 30
0.0
  3
*D12
  1

  0
LINE
  5
67A
330
60D
100
AcDbEntity
  8
3
 62
     0
370
    -2
100
AcDbLine
 10
230.9475787161949
 20
152.3243216151708
 30
0.0
 11
203.7346398382426
 21
152.3243216151708
 31
0.0
  0
LINE
  5
67B
330
60D
100
AcDbEntity
  8
3
 62
     0
370
    -2
100
AcDbLine
 10
230.9107530809389
 20
87.34280249561994
 30
0.0
 11
203.7346398382426
 21
87.34280249561996
 31
0.0
  0
LINE
  5
67C
330
60D
100
AcDbEntity
  8
3
 62
     0
370
    -2
100
AcDbLine
 10
204.2346398382426
 20
150.3243216151708
 30
0.0
 11
204.2346398382426
 21
126.7056255619477
 31
0.0
  0
LINE
  5
67D
330
60D
100
AcDbEntity
  8
3
 62
     0
370
    -2
100
AcDbLine
 10
204.2346398382426
 20
89.34280249561995
 30
0.0
 11
204.2346398382426
 21
115.5256255619477
 31
0.0
  0
MTEXT
  5
67E
330
60D
100
AcDbEntity
  8
3
 62
     0
100
AcDbMText
 10
204.2346398382426
 20
121.1156255619477
 30
0.0
 40
4.0
 41
0.0
 71
     5
 72
     1
  1
\A1;63.91
  7
EXTFONT
 11
0.0000000000000001
 21
1.0
 31
0.0
 73
     1
 44
1.0
  0
SOLID
  5
67F
330
60D
100
AcDbEntity
  8
3
 62
     0
100
AcDbTrace
 10
203.9013065049092
 20
150.3243216151708
 30
0.0
 11
204.5679731715759
 21
150.3243216151708
 31
0.0
 12
204.2346398382426
 22
152.3243216151708
 32
0.0
 13
204.2346398382426
 23
152.3243216151708
 33
0.0
  0
SOLID
  5
680
330
60D
100
AcDbEntity
  8
3
 62
     0
100
AcDbTrace
 10
203.9013065049092
 20
89.34280249561995
 30
0.0
 11
204.5679731715759
 21
89.34280249561995
 31
0.0
 12
204.2346398382426
 22
87.34280249561996
 32
0.0
 13
204.2346398382426
 23
87.34280249561996
 33
0.0
  0
POINT
  5
681
330
60D
100
AcDbEntity
  8
DEFPOINTS
 62
     0
100
AcDbPoint
 10
231.4475787161949
 20
152.3243216151708
 30
0.0
  0
POINT
  5
682
330
60D
100
AcDbEntity
  8
DEFPOINTS
 62
     0
100
AcDbPoint
 10
231.4107530809389
 20
87.34280249561994
 30
0.0
  0
POINT
  5
683
330
60D
100
AcDbEntity
  8
DEFPOINTS
 62
     0
100
AcDbPoint
 10
204.2346398382426
 20
87.34280249561996
 30
0.0
  0
ENDBLK
  5
619
330
60D
100
AcDbEntity
  8
0
100
AcDbBlockEnd
  0
BLOCK
  5
625
330
61A
100
AcDbEntity
  8
0
100
AcDbBlockBegin
  2
*D13
 70
     1
 10
0.0
 20
0.0
 30
0.0
  3
*D13
  1

  0
LINE
  5
68E
330
61A
100
AcDbEntity
  8
3
 62
     0
370
    -2
100
AcDbLine
 10
235.1397529011911
 20
140.671060114205
 30
0.0
 11
210.4392770781204
 21
140.671060114205
 31
0.0
  0
LINE
  5
68F
330
61A
100
AcDbEntity
  8
3
 62
     0
370
    -2
100
AcDbLine
 10
235.1397529011911
 20
98.97106011420508
 30
0.0
 11
210.4392770781204
 21
98.97106011420509
 31
0.0
  0
LINE
  5
690
330
61A
100
AcDbEntity
  8
3
 62
     0
370
    -2
100
AcDbLine
 10
210.9392770781204
 20
138.671060114205
 30
0.0
 11
210.9392770781204
 21
121.8442891310671
 31
0.0
  0
LINE
  5
691
330
61A
100
AcDbEntity
  8
3
 62
     0
370
    -2
100
AcDbLine
 10
210.9392770781204
 20
100.971060114205
 30
0.0
 11
210.9392770781204
 21
116.6642891310671
 31
0.0
  0
MTEXT
  5
692
330
61A
100
AcDbEntity
  8
3
 62
     0
100
AcDbMText
 10
210.9392770781204
 20
119.2542891310671
 30
0.0
 40
4.0
 41
0.0
 71
     5
 72
     1
  1
\A1;42
  7
EXTFONT
 11
0.0000000000000001
 21
1.0
 31
0.0
 73
     1
 44
1.0
  0
SOLID
  5
693
330
61A
100
AcDbEntity
  8
3
 62
     0
100
AcDbTrace
 10
210.605943744787
 20
138.671060114205
 30
0.0
 11
211.2726104114537
 21
138.671060114205
 31
0.0
 12
210.9392770781204
 22
140.671060114205
 32
0.0
 13
210.9392770781204
 23
140.671060114205
 33
0.0
  0
SOLID
  5
694
330
61A
100
AcDbEntity
  8
3
 62
     0
100
AcDbTrace
 10
210.605943744787
 20
100.971060114205
 30
0.0
 11
211.2726104114537
 21
100.971060114205
 31
0.0
 12
210.9392770781204
 22
98.97106011420509
 32
0.0
 13
210.9392770781204
 23
98.97106011420509
 33
0.0
  0
POINT
  5
695
330
61A
100
AcDbEntity
  8
DEFPOINTS
 62
     0
100
AcDbPoint
 10
235.6397529011911
 20
140.671060114205
 30
0.0
  0
POINT
  5
696
330
61A
100
AcDbEntity
  8
DEFPOINTS
 62
     0
100
AcDbPoint
 10
235.6397529011911
 20
98.97106011420508
 30
0.0
  0
POINT
  5
697
330
61A
100
AcDbEntity
  8
DEFPOINTS
 62
     0
100
AcDbPoint
 10
210.9392770781204
 20
98.97106011420509
 30
0.0
  0
ENDBLK
  5
626
330
61A
100
AcDbEntity
  8
0
100
AcDbBlockEnd
  0
BLOCK
  5
632
330
627
100
AcDbEntity
  8
0
100
AcDbBlockBegin
  2
*D14
 70
     1
 10
0.0
 20
0.0
 30
0.0
  3
*D14
  1

  0
LINE
  5
6A2
330
627
100
AcDbEntity
  8
3
 62
     0
370
    -2
100
AcDbLine
 10
238.8397529011911
 20
129.671060114205
 30
0.0
 11
217.8684913609471
 21
129.671060114205
 31
0.0
  0
LINE
  5
6A3
330
627
100
AcDbEntity
  8
3
 62
     0
370
    -2
100
AcDbLine
 10
238.8397529011911
 20
109.971060114205
 30
0.0
 11
217.8684913609471
 21
109.971060114205
 31
0.0
  0
LINE
  5
6A4
330
627
100
AcDbEntity
  8
3
 62
     0
370
    -2
100
AcDbLine
 10
218.3684913609471
 20
127.671060114205
 30
0.0
 11
218.3684913609471
 21
122.1904080366172
 31
0.0
  0
LINE
  5
6A5
330
627
100
AcDbEntity
  8
3
 62
     0
370
    -2
100
AcDbLine
 10
218.3684913609471
 20
111.971060114205
 30
0.0
 11
218.3684913609471
 21
117.5104080366172
 31
0.0
  0
MTEXT
  5
6A6
330
627
100
AcDbEntity
  8
3
 62
     0
100
AcDbMText
 10
218.3684913609471
 20
119.8504080366172
 30
0.0
 40
4.0
 41
0.0
 71
     5
 72
     1
  1
\A1;20
  7
EXTFONT
 11
0.0000000000000001
 21
1.0
 31
0.0
 73
     1
 44
1.0
  0
SOLID
  5
6A7
330
627
100
AcDbEntity
  8
3
 62
     0
100
AcDbTrace
 10
218.0351580276137
 20
127.671060114205
 30
0.0
 11
218.7018246942804
 21
127.671060114205
 31
0.0
 12
218.3684913609471
 22
129.671060114205
 32
0.0
 13
218.3684913609471
 23
129.671060114205
 33
0.0
  0
SOLID
  5
6A8
330
627
100
AcDbEntity
  8
3
 62
     0
100
AcDbTrace
 10
218.0351580276137
 20
111.971060114205
 30
0.0
 11
218.7018246942804
 21
111.971060114205
 31
0.0
 12
218.3684913609471
 22
109.971060114205
 32
0.0
 13
218.3684913609471
 23
109.971060114205
 33
0.0
  0
POINT
  5
6A9
330
627
100
AcDbEntity
  8
DEFPOINTS
 62
     0
100
AcDbPoint
 10
239.3397529011911
 20
129.671060114205
 30
0.0
  0
POINT
  5
6AA
330
627
100
AcDbEntity
  8
DEFPOINTS
 62
     0
100
AcDbPoint
 10
239.3397529011911
 20
109.971060114205
 30
0.0
  0
POINT
  5
6AB
330
627
100
AcDbEntity
  8
DEFPOINTS
 62
     0
100
AcDbPoint
 10
218.3684913609471
 20
109.971060114205
 30
0.0
  0
ENDBLK
  5
633
330
627
100
AcDbEntity
  8
0
100
AcDbBlockEnd
  0
BLOCK
  5
6B9
330
6AE
100
AcDbEntity
  8
0
100
AcDbBlockBegin
  2
*D15
 70
     1
 10
0.0
 20
0.0
 30
0.0
  3
*D15
  1

  0
LINE
  5
6AF
330
6AE
100
AcDbEntity
  8
0
 62
     0
370
    -2
100
AcDbLine
 10
244.4897529011911
 20
148.8913197855874
 30
0.0
 11
244.4897529011911
 21
159.0878094803429
 31
0.0
  0
LINE
  5
6B0
330
6AE
100
AcDbEntity
  8
0
 62
     0
370
    -2
100
AcDbLine
 10
237.6897529011911
 20
154.233560114205
 30
0.0
 11
237.6897529011911
 21
159.0878094803429
 31
0.0
  0
LINE
  5
6B1
330
6AE
100
AcDbEntity
  8
0
 62
     0
370
    -2
100
AcDbLine
 10
244.3097529011911
 20
158.9078094803429
 30
0.0
 11
241.5847529011911
 21
158.9078094803429
 31
0.0
  0
LINE
  5
6B2
330
6AE
100
AcDbEntity
  8
0
 62
     0
370
    -2
100
AcDbLine
 10
237.8697529011911
 20
158.9078094803429
 30
0.0
 11
240.5947529011911
 21
158.9078094803429
 31
0.0
  0
SOLID
  5
6B3
330
6AE
100
AcDbEntity
  8
0
 62
     0
100
AcDbTrace
 10
244.3097529011911
 20
158.9378094803429
 30
0.0
 11
244.3097529011911
 21
158.8778094803429
 31
0.0
 12
244.4897529011911
 22
158.9078094803429
 32
0.0
 13
244.4897529011911
 23
158.9078094803429
 33
0.0
  0
SOLID
  5
6B4
330
6AE
100
AcDbEntity
  8
0
 62
     0
100
AcDbTrace
 10
237.8697529011911
 20
158.9378094803429
 30
0.0
 11
237.8697529011911
 21
158.8778094803429
 31
0.0
 12
237.6897529011911
 22
158.9078094803429
 32
0.0
 13
237.6897529011911
 23
158.9078094803429
 33
0.0
  0
MTEXT
  5
6B5
330
6AE
100
AcDbEntity
  8
0
 62
     0
100
AcDbMText
 10
241.0897529011911
 20
158.9078094803429
 30
0.0
 40
0.18
 41
0.0
 71
     5
 72
     1
  1
\A1;6.8000
 73
     1
 44
1.0
  0
POINT
  5
6B6
330
6AE
100
AcDbEntity
  8
DEFPOINTS
 62
     0
100
AcDbPoint
 10
244.4897529011911
 20
148.8288197855874
 30
0.0
  0
POINT
  5
6B7
330
6AE
100
AcDbEntity
  8
DEFPOINTS
 62
     0
100
AcDbPoint
 10
237.6897529011911
 20
154.171060114205
 30
0.0
  0
POINT
  5
6B8
330
6AE
100
AcDbEntity
  8
DEFPOINTS
 62
     0
100
AcDbPoint
 10
237.6897529011911
 20
158.9078094803429
 30
0.0
  0
ENDBLK
  5
6BA
330
6AE
100
AcDbEntity
  8
0
100
AcDbBlockEnd
  0
ENDSEC
  0
SECTION
  2
ENTITIES
  0
LINE
  5
513
330
1E
100
AcDbEntity
  8
0
100
AcDbLine
 10
187.1502554974068
 20
104.421060114205
 30
0.0
 11
187.1502554974068
 21
105.871060114205
 31
0.0
  0
LINE
  5
515
330
1E
100
AcDbEntity
  8
0
100
AcDbLine
 10
185.1502554974068
 20
104.421060114205
 30
0.0
 11
185.1502554974068
 21
105.871060114205
 31
0.0
  0
LINE
  5
516
330
1E
100
AcDbEntity
  8
1
100
AcDbLine
 10
186.1502554974068
 20
119.871060114205
 30
0.0
 11
186.1502554974068
 21
78.72106011420507
 31
0.0
  0
LINE
  5
517
330
1E
100
AcDbEntity
  8
0
100
AcDbLine
 10
183.9502554974068
 20
119.821060114205
 30
0.0
 11
183.9502554974068
 21
88.82106011420509
 31
0.0
  0
LINE
  5
518
330
1E
100
AcDbEntity
  8
0
100
AcDbLine
 10
188.3502554974068
 20
119.821060114205
 30
0.0
 11
188.3502554974068
 21
88.82106011420509
 31
0.0
  0
LINE
  5
51D
330
1E
100
AcDbEntity
  8
1
100
AcDbLine
 10
192.1065223796421
 20
87.32893481078722
 30
0.0
 11
179.8712556771547
 21
87.34280249561994
 31
0.0
  0
LINE
  5
51E
330
1E
100
AcDbEntity
  8
0
100
AcDbLine
 10
187.1502554974068
 20
89.5710601142051
 30
0.0
 11
187.1502554974068
 21
90.57106011420509
 31
0.0
  0
ARC
  5
51F
330
1E
100
AcDbEntity
  8
0
100
AcDbCircle
 10
185.910255497407
 20
90.96106011420497
 30
0.0
 40
1.862713075059936
100
AcDbArc
 50
311.73571627598
 51
351.0433643920896
  0
ARC
  5
520
330
1E
100
AcDbEntity
  8
0
100
AcDbCircle
 10
174.7890614675584
 20
91.30688100972717
 30
0.0
 40
13.56483291547984
100
AcDbArc
 50
343.5739933028902
 51
1.327163160583335
  0
LINE
  5
521
330
1E
100
AcDbEntity
  8
0
100
AcDbLine
 10
185.1502554974068
 20
89.5710601142051
 30
0.0
 11
185.1502554974068
 21
90.57106011420509
 31
0.0
  0
ARC
  5
522
330
1E
100
AcDbEntity
  8
0
100
AcDbCircle
 10
186.3902554974066
 20
90.96106011420497
 30
0.0
 40
1.862713075059936
100
AcDbArc
 50
188.9566356079103
 51
228.2642837240197
  0
ARC
  5
523
330
1E
100
AcDbEntity
  8
0
100
AcDbCircle
 10
197.5114495272552
 20
91.30688100972717
 30
0.0
 40
13.56483291547984
100
AcDbArc
 50
178.6728368394166
 51
196.4260066971097
  0
ARC
  5
524
330
1E
100
AcDbEntity
  8
0
100
AcDbCircle
 10
180.4233324204842
 20
88.52490626805112
 30
0.0
 40
7.932453376354571
100
AcDbArc
 50
327.997561530542
 51
2.139604113182463
  0
ARC
  5
525
330
1E
100
AcDbEntity
  8
0
100
AcDbCircle
 10
181.6153870763544
 20
89.30921800894182
 30
0.0
 40
6.735445379727551
100
AcDbArc
 50
325.2606026323762
 51
359.2500541175108
  0
ARC
  5
526
330
1E
100
AcDbEntity
  8
0
100
AcDbCircle
 10
181.0632554974125
 20
89.74806011420232
 30
0.0
 40
7.111392128121642
100
AcDbArc
 50
328.8649065778946
 51
341.3255558059164
  0
ARC
  5
527
330
1E
100
AcDbEntity
  8
0
100
AcDbCircle
 10
191.8771785743293
 20
88.52490626805112
 30
0.0
 40
7.932453376354571
100
AcDbArc
 50
177.8603958868175
 51
212.0024384694579
  0
ARC
  5
528
330
1E
100
AcDbEntity
  8
0
100
AcDbCircle
 10
190.6851239184592
 20
89.30921800894182
 30
0.0
 40
6.735445379727551
100
AcDbArc
 50
180.749945882489
 51
214.7393973676237
  0
ARC
  5
529
330
1E
100
AcDbEntity
  8
0
100
AcDbCircle
 10
191.2372554974011
 20
89.74806011420232
 30
0.0
 40
7.111392128121642
100
AcDbArc
 50
198.6744441940834
 51
211.1350934221052
  0
LINE
  5
52A
330
1E
100
AcDbEntity
  8
0
100
AcDbLine
 10
187.1502554974068
 20
85.47106011420508
 30
0.0
 11
187.1502554974068
 21
86.0710601142051
 31
0.0
  0
LINE
  5
52B
330
1E
100
AcDbEntity
  8
0
100
AcDbLine
 10
186.1502554974068
 20
84.32106011420509
 30
0.0
 11
187.1502554974068
 21
84.32106011420509
 31
0.0
  0
LINE
  5
52C
330
1E
100
AcDbEntity
  8
0
100
AcDbLine
 10
186.1502554974068
 20
85.47106011420508
 30
0.0
 11
187.1502554974068
 21
85.47106011420508
 31
0.0
  0
LINE
  5
52D
330
1E
100
AcDbEntity
  8
0
100
AcDbLine
 10
187.1502554974068
 20
86.0710601142051
 30
0.0
 11
186.1502554974068
 21
86.0710601142051
 31
0.0
  0
LINE
  5
52E
330
1E
100
AcDbEntity
  8
0
100
AcDbLine
 10
185.1502554974068
 20
85.47106011420508
 30
0.0
 11
185.1502554974068
 21
86.0710601142051
 31
0.0
  0
LINE
  5
52F
330
1E
100
AcDbEntity
  8
0
100
AcDbLine
 10
186.1502554974068
 20
84.32106011420509
 30
0.0
 11
185.1502554974068
 21
84.32106011420509
 31
0.0
  0
LINE
  5
530
330
1E
100
AcDbEntity
  8
0
100
AcDbLine
 10
186.1502554974068
 20
85.47106011420508
 30
0.0
 11
185.1502554974068
 21
85.47106011420508
 31
0.0
  0
LINE
  5
531
330
1E
100
AcDbEntity
  8
0
100
AcDbLine
 10
185.1502554974068
 20
86.0710601142051
 30
0.0
 11
186.1502554974068
 21
86.0710601142051
 31
0.0
  0
LINE
  5
532
330
1E
100
AcDbEntity
  8
0
100
AcDbLine
 10
186.1502554974068
 20
89.5710601142051
 30
0.0
 11
187.1502554974068
 21
89.5710601142051
 31
0.0
  0
LINE
  5
533
330
1E
100
AcDbEntity
  8
0
100
AcDbLine
 10
186.1502554974068
 20
89.5710601142051
 30
0.0
 11
185.1502554974068
 21
89.5710601142051
 31
0.0
  0
ARC
  5
536
330
1E
100
AcDbEntity
  8
0
100
AcDbCircle
 10
189.718112640263
 20
96.63177439991981
 30
0.0
 40
2.658760068534797
100
AcDbArc
 50
144.6233655114775
 51
164.9743871975716
  0
ARC
  5
538
330
1E
100
AcDbEntity
  8
0
100
AcDbCircle
 10
182.5823983545507
 20
96.63177439991981
 30
0.0
 40
2.658760068534797
100
AcDbArc
 50
15.02561280242844
 51
35.37663448852246
  0
ARC
  5
53A
330
1E
100
AcDbEntity
  8
0
100
AcDbCircle
 10
187.3593464064977
 20
96.1392419323868
 30
0.0
 40
0.2683358571480234
100
AcDbArc
 50
218.8113840367448
 51
333.8689994551076
  0
ARC
  5
53B
330
1E
100
AcDbEntity
  8
0
100
AcDbCircle
 10
183.7788269259784
 20
92.33891725706204
 30
0.0
 40
3.80681618807557
100
AcDbArc
 50
332.3290828682933
 51
352.1815738815975
  0
ARC
  5
53C
330
1E
100
AcDbEntity
  8
0
100
AcDbCircle
 10
-138.5929263218214
 20
34.79151465946765
 30
0.0
 40
328.3339493317078
100
AcDbArc
 50
10.00264971786631
 51
10.72999548903421
  0
ARC
  5
53D
330
1E
100
AcDbEntity
  8
0
100
AcDbCircle
 10
181.4752554974059
 20
90.02106011420464
 30
0.0
 40
3.142948456466703
100
AcDbArc
 50
11.93560254327173
 51
31.66721642943438
  0
ARC
  5
53E
330
1E
100
AcDbEntity
  8
0
100
AcDbCircle
 10
184.0585888307401
 20
91.61272678087172
 30
0.0
 40
0.1086533734200238
100
AcDbArc
 50
32.47119229085742
 51
175.6012946450089
  0
LINE
  5
53F
330
1E
100
AcDbEntity
  8
0
100
AcDbLine
 10
187.1502554974068
 20
90.57106011420509
 30
0.0
 11
186.1502554974068
 21
90.57106011420509
 31
0.0
  0
ARC
  5
540
330
1E
100
AcDbEntity
  8
0
100
AcDbCircle
 10
188.5216840688352
 20
92.33891725706204
 30
0.0
 40
3.80681618807557
100
AcDbArc
 50
187.8184261184024
 51
207.6709171317068
  0
LINE
  5
541
330
1E
100
AcDbEntity
  8
0
100
AcDbLine
 10
185.1502554974068
 20
90.57106011420509
 30
0.0
 11
186.1502554974068
 21
90.57106011420509
 31
0.0
  0
ARC
  5
542
330
1E
100
AcDbEntity
  8
0
100
AcDbCircle
 10
178.0502554973986
 20
94.57106011420254
 30
0.0
 40
6.806247130402826
100
AcDbArc
 50
12.30053887900424
 51
21.09794958898388
  0
ARC
  5
543
330
1E
100
AcDbEntity
  8
0
100
AcDbCircle
 10
184.2696999418513
 20
96.87939344753843
 30
0.0
 40
0.1926504542710804
100
AcDbArc
 50
47.33730585912609
 51
151.5873385569394
  0
ARC
  5
544
330
1E
100
AcDbEntity
  8
0
100
AcDbCircle
 10
185.4203774486263
 20
96.31557230932706
 30
0.0
 40
1.473901702433222
100
AcDbArc
 50
153.5939561284597
 51
195.5253798095533
  0
LINE
  5
545
330
1E
100
AcDbEntity
  8
0
100
AcDbLine
 10
187.1502554974068
 20
95.97106011420507
 30
0.0
 11
187.1502554974068
 21
97.3210601142051
 31
0.0
  0
LINE
  5
546
330
1E
100
AcDbEntity
  8
0
100
AcDbLine
 10
186.1502554974068
 20
95.97106011420507
 30
0.0
 11
187.1502554974068
 21
95.97106011420507
 31
0.0
  0
LINE
  5
547
330
1E
100
AcDbEntity
  8
0
100
AcDbLine
 10
187.1502554974068
 20
97.3210601142051
 30
0.0
 11
186.1502554974068
 21
97.3210601142051
 31
0.0
  0
LINE
  5
548
330
1E
100
AcDbEntity
  8
0
100
AcDbLine
 10
185.1502554974068
 20
95.97106011420507
 30
0.0
 11
185.1502554974068
 21
97.3210601142051
 31
0.0
  0
ARC
  5
549
330
1E
100
AcDbEntity
  8
0
100
AcDbCircle
 10
184.9411645883159
 20
96.1392419323868
 30
0.0
 40
0.2683358571480234
100
AcDbArc
 50
206.1310005449005
 51
321.1886159632552
  0
LINE
  5
54A
330
1E
100
AcDbEntity
  8
0
100
AcDbLine
 10
186.1502554974068
 20
95.97106011420507
 30
0.0
 11
185.1502554974068
 21
95.97106011420507
 31
0.0
  0
LINE
  5
54B
330
1E
100
AcDbEntity
  8
0
100
AcDbLine
 10
185.1502554974068
 20
97.3210601142051
 30
0.0
 11
186.1502554974068
 21
97.3210601142051
 31
0.0
  0
ARC
  5
54D
330
1E
100
AcDbEntity
  8
0
100
AcDbCircle
 10
510.8934373166351
 20
34.79151465946765
 30
0.0
 40
328.3339493317078
100
AcDbArc
 50
169.2700045109657
 51
169.9973502821336
  0
ARC
  5
54E
330
1E
100
AcDbEntity
  8
0
100
AcDbCircle
 10
188.2419221640734
 20
91.61272678087172
 30
0.0
 40
0.1086533734200238
100
AcDbArc
 50
4.398705354990974
 51
147.5288077091425
  0
ARC
  5
54F
330
1E
100
AcDbEntity
  8
0
100
AcDbCircle
 10
190.8252554974077
 20
90.02106011420464
 30
0.0
 40
3.142948456466703
100
AcDbArc
 50
148.3327835705656
 51
168.0643974567281
  0
ARC
  5
550
330
1E
100
AcDbEntity
  8
0
100
AcDbCircle
 10
194.250255497415
 20
94.57106011420254
 30
0.0
 40
6.806247130402826
100
AcDbArc
 50
158.9020504110161
 51
167.6994611209957
  0
ARC
  5
551
330
1E
100
AcDbEntity
  8
0
100
AcDbCircle
 10
188.0308110529623
 20
96.87939344753843
 30
0.0
 40
0.1926504542710804
100
AcDbArc
 50
28.41266144306073
 51
132.6626941408739
  0
ARC
  5
552
330
1E
100
AcDbEntity
  8
0
100
AcDbCircle
 10
186.8801335461872
 20
96.31557230932706
 30
0.0
 40
1.473901702433222
100
AcDbArc
 50
344.4746201904465
 51
26.40604387152911
  0
ARC
  5
553
330
1E
100
AcDbEntity
  8
0
100
AcDbCircle
 10
188.5279582001092
 20
104.7095736277183
 30
0.0
 40
1.407588286578592
100
AcDbArc
 50
191.8277488059973
 51
233.982737039981
  0
ARC
  5
556
330
1E
100
AcDbEntity
  8
0
100
AcDbCircle
 10
196.4640486008537
 20
102.5900256314461
 30
0.0
 40
12.51959284932726
100
AcDbArc
 50
178.2559305404057
 51
200.6687138756447
  0
ARC
  5
558
330
1E
100
AcDbEntity
  8
0
100
AcDbCircle
 10
185.3141443862959
 20
102.4071712253161
 30
0.0
 40
1.365384448189749
100
AcDbArc
 50
121.5235020965685
 51
177.318044158457
  0
LINE
  5
559
330
1E
100
AcDbEntity
  8
0
100
AcDbLine
 10
186.1502554974068
 20
104.421060114205
 30
0.0
 11
187.1502554974068
 21
104.421060114205
 31
0.0
  0
ARC
  5
55A
330
1E
100
AcDbEntity
  8
0
100
AcDbCircle
 10
183.7725527947044
 20
104.7095736277183
 30
0.0
 40
1.407588286578592
100
AcDbArc
 50
306.0172629600189
 51
348.1722511940027
  0
LINE
  5
55B
330
1E
100
AcDbEntity
  8
0
100
AcDbLine
 10
186.1502554974068
 20
104.421060114205
 30
0.0
 11
185.1502554974068
 21
104.421060114205
 31
0.0
  0
ARC
  5
55C
330
1E
100
AcDbEntity
  8
0
100
AcDbCircle
 10
175.8364623939599
 20
102.5900256314461
 30
0.0
 40
12.51959284932726
100
AcDbArc
 50
339.3312861243551
 51
1.74406945959426
  0
ARC
  5
55D
330
1E
100
AcDbEntity
  8
0
100
AcDbCircle
 10
186.9863666085177
 20
102.4071712253161
 30
0.0
 40
1.365384448189749
100
AcDbArc
 50
2.681955841542923
 51
58.47649790343151
  0
LINE
  5
562
330
1E
100
AcDbEntity
  8
1
100
AcDbLine
 10
171.3587460232862
 20
119.821060114205
 30
0.0
 11
199.8587460232862
 21
119.821060114205
 31
0.0
  0
ARC
  5
569
330
1E
100
AcDbEntity
  8
0
100
AcDbCircle
 10
188.5279582001092
 20
134.9325466006917
 30
0.0
 40
1.407588286578592
100
AcDbArc
 50
126.0172629600189
 51
168.1722511940026
  0
ARC
  5
56A
330
1E
100
AcDbEntity
  8
0
100
AcDbCircle
 10
186.9863666085177
 20
137.2349490030939
 30
0.0
 40
1.365384448189749
100
AcDbArc
 50
301.5235020965685
 51
357.318044158457
  0
LINE
  5
56B
330
1E
100
AcDbEntity
  8
0
100
AcDbLine
 10
188.3502554974068
 20
119.821060114205
 30
0.0
 11
188.3502554974068
 21
150.821060114205
 31
0.0
  0
ARC
  5
56C
330
1E
100
AcDbEntity
  8
0
100
AcDbCircle
 10
185.3141443862959
 20
137.2349490030939
 30
0.0
 40
1.365384448189749
100
AcDbArc
 50
182.6819558415429
 51
238.4764979034315
  0
ARC
  5
56D
330
1E
100
AcDbEntity
  8
0
100
AcDbCircle
 10
183.7725527947044
 20
134.9325466006917
 30
0.0
 40
1.407588286578592
100
AcDbArc
 50
11.82774880599728
 51
53.98273703998103
  0
LINE
  5
56E
330
1E
100
AcDbEntity
  8
0
100
AcDbLine
 10
183.9502554974068
 20
119.821060114205
 30
0.0
 11
183.9502554974068
 21
150.821060114205
 31
0.0
  0
LINE
  5
56F
330
1E
100
AcDbEntity
  8
1
100
AcDbLine
 10
186.1502554974068
 20
119.771060114205
 30
0.0
 11
186.1502554974068
 21
160.921060114205
 31
0.0
  0
ARC
  5
571
330
1E
100
AcDbEntity
  8
0
100
AcDbCircle
 10
177.389771626438
 20
119.0234794690434
 30
0.0
 40
10.98594936756885
100
AcDbArc
 50
3.901924265269811
 51
23.02849192435352
  0
ARC
  5
572
330
1E
100
AcDbEntity
  8
0
100
AcDbCircle
 10
194.9107393683755
 20
119.0234794690434
 30
0.0
 40
10.98594936756885
100
AcDbArc
 50
156.9715080756466
 51
176.0980757347301
  0
LINE
  5
573
330
1E
100
AcDbEntity
  8
2
100
AcDbLine
 10
181.0002554974068
 20
109.971060114205
 30
0.0
 11
191.1502554974068
 21
109.971060114205
 31
0.0
  0
ARC
  5
574
330
1E
100
AcDbEntity
  8
0
100
AcDbCircle
 10
188.3042028658279
 20
113.7329022194682
 30
0.0
 40
1.178267249783152
100
AcDbArc
 50
168.3387180478372
 51
223.5520737540095
  0
ARC
  5
575
330
1E
100
AcDbEntity
  8
0
100
AcDbCircle
 10
183.9963081289857
 20
113.7329022194682
 30
0.0
 40
1.178267249783152
100
AcDbArc
 50
316.4479262459905
 51
11.66128195216263
  0
ARC
  5
576
330
1E
100
AcDbEntity
  8
0
100
AcDbCircle
 10
192.1170080747251
 20
105.6372972276074
 30
0.0
 40
4.972250622348829
100
AcDbArc
 50
152.6579469392158
 51
177.3053317984827
  0
LINE
  5
578
330
1E
100
AcDbEntity
  8
2
100
AcDbLine
 10
180.1502554974068
 20
108.971060114205
 30
0.0
 11
181.0002554974068
 21
109.971060114205
 31
0.0
  0
ARC
  5
579
330
1E
100
AcDbEntity
  8
0
100
AcDbCircle
 10
191.6502554974071
 20
111.021060114205
 30
0.0
 40
7.701460900374949
100
AcDbArc
 50
178.8839896085925
 51
203.7358753394444
  0
LINE
  5
57A
330
1E
100
AcDbEntity
  8
0
100
AcDbLine
 10
187.1502554974068
 20
105.871060114205
 30
0.0
 11
186.1502554974068
 21
105.871060114205
 31
0.0
  0
ARC
  5
57B
330
1E
100
AcDbEntity
  8
0
100
AcDbCircle
 10
180.1835029200885
 20
105.6372972276074
 30
0.0
 40
4.972250622348829
100
AcDbArc
 50
2.694668201517194
 51
27.34205306078431
  0
LINE
  5
57C
330
1E
100
AcDbEntity
  8
0
100
AcDbLine
 10
185.1502554974068
 20
105.871060114205
 30
0.0
 11
186.1502554974068
 21
105.871060114205
 31
0.0
  0
ARC
  5
57D
330
1E
100
AcDbEntity
  8
0
100
AcDbCircle
 10
187.0413571923224
 20
110.7375855379337
 30
0.0
 40
3.093297247709211
100
AcDbArc
 50
135.0998956786378
 51
182.1588597826762
  0
ARC
  5
57E
330
1E
100
AcDbEntity
  8
0
100
AcDbCircle
 10
180.6502554974065
 20
111.021060114205
 30
0.0
 40
7.701460900374949
100
AcDbArc
 50
336.2641246605564
 51
1.116010391407478
  0
ARC
  5
57F
330
1E
100
AcDbEntity
  8
0
100
AcDbCircle
 10
185.2591538024912
 20
110.7375855379337
 30
0.0
 40
3.093297247709211
100
AcDbArc
 50
357.8411402173236
 51
44.90010432136214
  0
ARC
  5
580
330
1E
100
AcDbEntity
  8
0
100
AcDbCircle
 10
188.2671909812775
 20
115.5089633400116
 30
0.0
 40
1.117000987947343
100
AcDbArc
 50
133.3617521865162
 51
179.3794923521725
  0
ARC
  5
581
330
1E
100
AcDbEntity
  8
0
100
AcDbCircle
 10
194.9107393683755
 20
120.6186407593666
 30
0.0
 40
10.98594936756885
100
AcDbArc
 50
183.9019242652698
 51
203.0284919243533
  0
LINE
  5
582
330
1E
100
AcDbEntity
  8
0
100
AcDbLine
 10
187.1502554974068
 20
113.971060114205
 30
0.0
 11
187.1502554974068
 21
115.521060114205
 31
0.0
  0
LINE
  5
583
330
1E
100
AcDbEntity
  8
0
100
AcDbLine
 10
186.1502554974068
 20
113.971060114205
 30
0.0
 11
187.1502554974068
 21
113.971060114205
 31
0.0
  0
LINE
  5
584
330
1E
100
AcDbEntity
  8
0
100
AcDbLine
 10
187.1502554974068
 20
115.521060114205
 30
0.0
 11
186.1502554974068
 21
115.521060114205
 31
0.0
  0
LINE
  5
585
330
1E
100
AcDbEntity
  8
0
100
AcDbLine
 10
185.1502554974068
 20
113.971060114205
 30
0.0
 11
185.1502554974068
 21
115.521060114205
 31
0.0
  0
ARC
  5
586
330
1E
100
AcDbEntity
  8
0
100
AcDbCircle
 10
184.0333200135361
 20
115.5089633400116
 30
0.0
 40
1.117000987947343
100
AcDbArc
 50
0.6205076478274638
 51
46.63824781348372
  0
LINE
  5
587
330
1E
100
AcDbEntity
  8
0
100
AcDbLine
 10
186.1502554974068
 20
113.971060114205
 30
0.0
 11
185.1502554974068
 21
113.971060114205
 31
0.0
  0
LINE
  5
588
330
1E
100
AcDbEntity
  8
0
100
AcDbLine
 10
185.1502554974068
 20
115.521060114205
 30
0.0
 11
186.1502554974068
 21
115.521060114205
 31
0.0
  0
ARC
  5
589
330
1E
100
AcDbEntity
  8
0
100
AcDbCircle
 10
177.389771626438
 20
120.6186407593666
 30
0.0
 40
10.98594936756885
100
AcDbArc
 50
336.9715080756475
 51
356.0980757347302
  0
LINE
  5
58A
330
1E
100
AcDbEntity
  8
2
100
AcDbLine
 10
191.1502554974068
 20
109.971060114205
 30
0.0
 11
192.1502554974068
 21
108.971060114205
 31
0.0
  0
LINE
  5
58C
330
1E
100
AcDbEntity
  8
2
100
AcDbLine
 10
181.0002554974068
 20
129.671060114205
 30
0.0
 11
191.1502554974068
 21
129.671060114205
 31
0.0
  0
ARC
  5
58D
330
1E
100
AcDbEntity
  8
0
100
AcDbCircle
 10
185.2591538024912
 20
128.9045346904764
 30
0.0
 40
3.093297247709211
100
AcDbArc
 50
315.0998956786378
 51
2.158859782676277
  0
ARC
  5
58E
330
1E
100
AcDbEntity
  8
0
100
AcDbCircle
 10
180.6502554974065
 20
128.621060114205
 30
0.0
 40
7.701460900374949
100
AcDbArc
 50
358.8839896085925
 51
23.73587533944459
  0
ARC
  5
58F
330
1E
100
AcDbEntity
  8
0
100
AcDbCircle
 10
187.0413571923224
 20
128.9045346904764
 30
0.0
 40
3.093297247709211
100
AcDbArc
 50
177.8411402173237
 51
224.9001043213621
  0
ARC
  5
590
330
1E
100
AcDbEntity
  8
0
100
AcDbCircle
 10
191.6502554974071
 20
128.621060114205
 30
0.0
 40
7.701460900374949
100
AcDbArc
 50
156.2641246605546
 51
181.1160103914074
  0
ARC
  5
591
330
1E
100
AcDbEntity
  8
0
100
AcDbCircle
 10
188.3042028658279
 20
125.9092180089418
 30
0.0
 40
1.178267249783152
100
AcDbArc
 50
136.4479262459904
 51
191.6612819521627
  0
ARC
  5
592
330
1E
100
AcDbEntity
  8
0
100
AcDbCircle
 10
188.2671909812775
 20
124.1331568883984
 30
0.0
 40
1.117000987947343
100
AcDbArc
 50
180.6205076478274
 51
226.6382478134837
  0
LINE
  5
593
330
1E
100
AcDbEntity
  8
0
100
AcDbLine
 10
187.1502554974068
 20
125.671060114205
 30
0.0
 11
187.1502554974068
 21
124.121060114205
 31
0.0
  0
LINE
  5
594
330
1E
100
AcDbEntity
  8
0
100
AcDbLine
 10
185.1502554974068
 20
125.671060114205
 30
0.0
 11
185.1502554974068
 21
124.121060114205
 31
0.0
  0
LINE
  5
595
330
1E
100
AcDbEntity
  8
0
100
AcDbLine
 10
187.1502554974068
 20
124.121060114205
 30
0.0
 11
186.1502554974068
 21
124.121060114205
 31
0.0
  0
ARC
  5
596
330
1E
100
AcDbEntity
  8
0
100
AcDbCircle
 10
184.0333200135361
 20
124.1331568883984
 30
0.0
 40
1.117000987947343
100
AcDbArc
 50
313.3617521865163
 51
359.3794923521725
  0
LINE
  5
597
330
1E
100
AcDbEntity
  8
0
100
AcDbLine
 10
185.1502554974068
 20
124.121060114205
 30
0.0
 11
186.1502554974068
 21
124.121060114205
 31
0.0
  0
LINE
  5
598
330
1E
100
AcDbEntity
  8
0
100
AcDbLine
 10
186.1502554974068
 20
125.671060114205
 30
0.0
 11
187.1502554974068
 21
125.671060114205
 31
0.0
  0
ARC
  5
599
330
1E
100
AcDbEntity
  8
0
100
AcDbCircle
 10
183.9963081289857
 20
125.9092180089418
 30
0.0
 40
1.178267249783152
100
AcDbArc
 50
348.3387180478373
 51
43.5520737540095
  0
LINE
  5
59A
330
1E
100
AcDbEntity
  8
0
100
AcDbLine
 10
186.1502554974068
 20
125.671060114205
 30
0.0
 11
185.1502554974068
 21
125.671060114205
 31
0.0
  0
LINE
  5
59B
330
1E
100
AcDbEntity
  8
2
100
AcDbLine
 10
180.1502554974068
 20
130.671060114205
 30
0.0
 11
181.0002554974068
 21
129.671060114205
 31
0.0
  0
ARC
  5
59D
330
1E
100
AcDbEntity
  8
0
100
AcDbCircle
 10
192.1170080747251
 20
134.0048230008026
 30
0.0
 40
4.972250622348829
100
AcDbArc
 50
182.6946682015172
 51
207.3420530607841
  0
ARC
  5
59E
330
1E
100
AcDbEntity
  8
0
100
AcDbCircle
 10
180.1835029200885
 20
134.0048230008026
 30
0.0
 40
4.972250622348829
100
AcDbArc
 50
332.6579469392157
 51
357.3053317984827
  0
LINE
  5
59F
330
1E
100
AcDbEntity
  8
0
100
AcDbLine
 10
187.1502554974068
 20
135.221060114205
 30
0.0
 11
187.1502554974068
 21
133.771060114205
 31
0.0
  0
LINE
  5
5A0
330
1E
100
AcDbEntity
  8
0
100
AcDbLine
 10
186.1502554974068
 20
135.221060114205
 30
0.0
 11
187.1502554974068
 21
135.221060114205
 31
0.0
  0
LINE
  5
5A1
330
1E
100
AcDbEntity
  8
0
100
AcDbLine
 10
187.1502554974068
 20
133.771060114205
 30
0.0
 11
186.1502554974068
 21
133.771060114205
 31
0.0
  0
LINE
  5
5A2
330
1E
100
AcDbEntity
  8
0
100
AcDbLine
 10
185.1502554974068
 20
133.771060114205
 30
0.0
 11
186.1502554974068
 21
133.771060114205
 31
0.0
  0
LINE
  5
5A3
330
1E
100
AcDbEntity
  8
0
100
AcDbLine
 10
185.1502554974068
 20
135.221060114205
 30
0.0
 11
185.1502554974068
 21
133.771060114205
 31
0.0
  0
LINE
  5
5A4
330
1E
100
AcDbEntity
  8
0
100
AcDbLine
 10
186.1502554974068
 20
135.221060114205
 30
0.0
 11
185.1502554974068
 21
135.221060114205
 31
0.0
  0
LINE
  5
5A5
330
1E
100
AcDbEntity
  8
2
100
AcDbLine
 10
191.1502554974068
 20
129.671060114205
 30
0.0
 11
192.1502554974068
 21
130.671060114205
 31
0.0
  0
LINE
  5
5A7
330
1E
100
AcDbEntity
  8
1
100
AcDbLine
 10
192.1433558738449
 20
152.3243216151708
 30
0.0
 11
179.9080813124106
 21
152.3243216151708
 31
0.0
  0
ARC
  5
5A8
330
1E
100
AcDbEntity
  8
0
100
AcDbCircle
 10
180.4233324204842
 20
151.117213960359
 30
0.0
 40
7.932453376354571
100
AcDbArc
 50
357.8603958868175
 51
32.00243846945793
  0
ARC
  5
5A9
330
1E
100
AcDbEntity
  8
0
100
AcDbCircle
 10
181.6153870763544
 20
150.3329022194683
 30
0.0
 40
6.735445379727551
100
AcDbArc
 50
0.7499458824890945
 51
34.73939736762376
  0
ARC
  5
5AA
330
1E
100
AcDbEntity
  8
0
100
AcDbCircle
 10
174.7890614675584
 20
148.3352392186829
 30
0.0
 40
13.56483291547984
100
AcDbArc
 50
358.6728368394166
 51
16.4260066971097
  0
ARC
  5
5AB
330
1E
100
AcDbEntity
  8
0
100
AcDbCircle
 10
197.5114495272552
 20
148.3352392186829
 30
0.0
 40
13.56483291547984
100
AcDbArc
 50
163.5739933028903
 51
181.3271631605833
  0
ARC
  5
5AC
330
1E
100
AcDbEntity
  8
0
100
AcDbCircle
 10
190.6851239184592
 20
150.3329022194683
 30
0.0
 40
6.735445379727551
100
AcDbArc
 50
145.2606026323762
 51
179.2500541175109
  0
ARC
  5
5AD
330
1E
100
AcDbEntity
  8
0
100
AcDbCircle
 10
191.8771785743293
 20
151.117213960359
 30
0.0
 40
7.932453376354571
100
AcDbArc
 50
147.997561530542
 51
182.1396041131824
  0
ARC
  5
5B0
330
1E
100
AcDbEntity
  8
0
100
AcDbCircle
 10
187.3593464064977
 20
143.5028782960233
 30
0.0
 40
0.2683358571480234
100
AcDbArc
 50
26.13100054490075
 51
141.1886159632552
  0
ARC
  5
5B1
330
1E
100
AcDbEntity
  8
0
100
AcDbCircle
 10
186.8801335461872
 20
143.326547919083
 30
0.0
 40
1.473901702433222
100
AcDbArc
 50
333.5939561284599
 51
15.52537980955344
  0
ARC
  5
5B2
330
1E
100
AcDbEntity
  8
0
100
AcDbCircle
 10
185.4203774486263
 20
143.326547919083
 30
0.0
 40
1.473901702433222
100
AcDbArc
 50
164.4746201904466
 51
206.4060438715502
  0
ARC
  5
5B3
330
1E
100
AcDbEntity
  8
0
100
AcDbCircle
 10
184.9411645883159
 20
143.5028782960233
 30
0.0
 40
0.2683358571480234
100
AcDbArc
 50
38.81138403674478
 51
153.8689994550912
  0
ARC
  5
5B6
330
1E
100
AcDbEntity
  8
0
100
AcDbCircle
 10
189.718112640263
 20
143.0103458284903
 30
0.0
 40
2.658760068534797
100
AcDbArc
 50
195.0256128024283
 51
215.3766344885224
  0
ARC
  5
5B7
330
1E
100
AcDbEntity
  8
0
100
AcDbCircle
 10
196.4640486008537
 20
137.0520945969639
 30
0.0
 40
12.51959284932726
100
AcDbArc
 50
159.3312861243552
 51
181.7440694595942
  0
ARC
  5
5B9
330
1E
100
AcDbEntity
  8
0
100
AcDbCircle
 10
178.0502554973986
 20
145.0710601142076
 30
0.0
 40
6.806247130402826
100
AcDbArc
 50
338.9020504110161
 51
347.6994611209957
  0
ARC
  5
5BA
330
1E
100
AcDbEntity
  8
0
100
AcDbCircle
 10
184.2696999418513
 20
142.7627267808716
 30
0.0
 40
0.1926504542710804
100
AcDbArc
 50
208.4126614430605
 51
312.6626941408738
  0
LINE
  5
5BE
330
1E
100
AcDbEntity
  8
0
100
AcDbLine
 10
187.1502554974068
 20
143.671060114205
 30
0.0
 11
187.1502554974068
 21
142.321060114205
 31
0.0
  0
LINE
  5
5BF
330
1E
100
AcDbEntity
  8
0
100
AcDbLine
 10
186.1502554974068
 20
143.671060114205
 30
0.0
 11
187.1502554974068
 21
143.671060114205
 31
0.0
  0
LINE
  5
5C0
330
1E
100
AcDbEntity
  8
0
100
AcDbLine
 10
187.1502554974068
 20
142.321060114205
 30
0.0
 11
186.1502554974068
 21
142.321060114205
 31
0.0
  0
ARC
  5
5C1
330
1E
100
AcDbEntity
  8
0
100
AcDbCircle
 10
182.5823983545507
 20
143.0103458284903
 30
0.0
 40
2.658760068534797
100
AcDbArc
 50
324.6233655114775
 51
344.9743871975715
  0
LINE
  5
5C2
330
1E
100
AcDbEntity
  8
0
100
AcDbLine
 10
185.1502554974068
 20
142.321060114205
 30
0.0
 11
186.1502554974068
 21
142.321060114205
 31
0.0
  0
LINE
  5
5C3
330
1E
100
AcDbEntity
  8
0
100
AcDbLine
 10
185.1502554974068
 20
143.671060114205
 30
0.0
 11
185.1502554974068
 21
142.321060114205
 31
0.0
  0
LINE
  5
5C4
330
1E
100
AcDbEntity
  8
0
100
AcDbLine
 10
186.1502554974068
 20
143.671060114205
 30
0.0
 11
185.1502554974068
 21
143.671060114205
 31
0.0
  0
ARC
  5
5C5
330
1E
100
AcDbEntity
  8
0
100
AcDbCircle
 10
175.8364623939599
 20
137.0520945969639
 30
0.0
 40
12.51959284932726
100
AcDbArc
 50
358.2559305404057
 51
20.66871387564489
  0
ARC
  5
5C6
330
1E
100
AcDbEntity
  8
0
100
AcDbCircle
 10
194.250255497415
 20
145.0710601142076
 30
0.0
 40
6.806247130402826
100
AcDbArc
 50
192.3005388790042
 51
201.0979495889838
  0
ARC
  5
5C7
330
1E
100
AcDbEntity
  8
0
100
AcDbCircle
 10
188.0308110529623
 20
142.7627267808716
 30
0.0
 40
0.1926504542710804
100
AcDbArc
 50
227.3373058591261
 51
331.5873385569393
  0
ARC
  5
5C8
330
1E
100
AcDbEntity
  8
0
100
AcDbCircle
 10
185.910255497407
 20
148.6810601142051
 30
0.0
 40
1.862713075059936
100
AcDbArc
 50
8.956635607910387
 51
48.26428372401969
  0
ARC
  5
5C9
330
1E
100
AcDbEntity
  8
0
100
AcDbCircle
 10
183.7788269259784
 20
147.3032029713481
 30
0.0
 40
3.80681618807557
100
AcDbArc
 50
7.818426118402426
 51
27.6709171317066
  0
ARC
  5
5CA
330
1E
100
AcDbEntity
  8
0
100
AcDbCircle
 10
-138.5929263218214
 20
204.8506055689424
 30
0.0
 40
328.3339493317078
100
AcDbArc
 50
349.2700045109657
 51
349.9973502821337
  0
ARC
  5
5CB
330
1E
100
AcDbEntity
  8
0
100
AcDbCircle
 10
181.4752554974059
 20
149.6210601142055
 30
0.0
 40
3.142948456466703
100
AcDbArc
 50
328.3327835705656
 51
348.0643974567282
  0
ARC
  5
5CC
330
1E
100
AcDbEntity
  8
0
100
AcDbCircle
 10
184.0585888307401
 20
148.0293934475383
 30
0.0
 40
0.1086533734200238
100
AcDbArc
 50
184.398705354991
 51
327.5288077091425
  0
LINE
  5
5CD
330
1E
100
AcDbEntity
  8
0
100
AcDbLine
 10
187.1502554974068
 20
150.071060114205
 30
0.0
 11
187.1502554974068
 21
149.071060114205
 31
0.0
  0
LINE
  5
5CE
330
1E
100
AcDbEntity
  8
0
100
AcDbLine
 10
186.1502554974068
 20
150.071060114205
 30
0.0
 11
187.1502554974068
 21
150.071060114205
 31
0.0
  0
LINE
  5
5CF
330
1E
100
AcDbEntity
  8
0
100
AcDbLine
 10
187.1502554974068
 20
149.071060114205
 30
0.0
 11
186.1502554974068
 21
149.071060114205
 31
0.0
  0
ARC
  5
5D0
330
1E
100
AcDbEntity
  8
0
100
AcDbCircle
 10
188.5216840688352
 20
147.3032029713481
 30
0.0
 40
3.80681618807557
100
AcDbArc
 50
152.3290828682925
 51
172.1815738815975
  0
ARC
  5
5D1
330
1E
100
AcDbEntity
  8
0
100
AcDbCircle
 10
186.3902554974066
 20
148.6810601142051
 30
0.0
 40
1.862713075059936
100
AcDbArc
 50
131.7357162759799
 51
171.0433643920896
  0
LINE
  5
5D2
330
1E
100
AcDbEntity
  8
0
100
AcDbLine
 10
185.1502554974068
 20
149.071060114205
 30
0.0
 11
186.1502554974068
 21
149.071060114205
 31
0.0
  0
LINE
  5
5D3
330
1E
100
AcDbEntity
  8
0
100
AcDbLine
 10
185.1502554974068
 20
150.071060114205
 30
0.0
 11
185.1502554974068
 21
149.071060114205
 31
0.0
  0
LINE
  5
5D4
330
1E
100
AcDbEntity
  8
0
100
AcDbLine
 10
186.1502554974068
 20
150.071060114205
 30
0.0
 11
185.1502554974068
 21
150.071060114205
 31
0.0
  0
ARC
  5
5D5
330
1E
100
AcDbEntity
  8
0
100
AcDbCircle
 10
510.8934373166351
 20
204.8506055689424
 30
0.0
 40
328.3339493317078
100
AcDbArc
 50
190.0026497178664
 51
190.7299954890342
  0
ARC
  5
5D6
330
1E
100
AcDbEntity
  8
0
100
AcDbCircle
 10
188.2419221640734
 20
148.0293934475383
 30
0.0
 40
0.1086533734200238
100
AcDbArc
 50
212.4711922908574
 51
355.6012946450089
  0
ARC
  5
5D7
330
1E
100
AcDbEntity
  8
0
100
AcDbCircle
 10
190.8252554974077
 20
149.6210601142055
 30
0.0
 40
3.142948456466703
100
AcDbArc
 50
191.9356025432718
 51
211.6672164294343
  0
ARC
  5
5DC
330
1E
100
AcDbEntity
  8
0
100
AcDbCircle
 10
181.0632554974125
 20
149.8940601142078
 30
0.0
 40
7.111392128121642
100
AcDbArc
 50
18.67444419408364
 51
31.13509342210543
  0
LINE
  5
5DD
330
1E
100
AcDbEntity
  8
0
100
AcDbLine
 10
187.1502554974068
 20
154.171060114205
 30
0.0
 11
187.1502554974068
 21
153.571060114205
 31
0.0
  0
LINE
  5
5DE
330
1E
100
AcDbEntity
  8
0
100
AcDbLine
 10
186.1502554974068
 20
154.171060114205
 30
0.0
 11
187.1502554974068
 21
154.171060114205
 31
0.0
  0
LINE
  5
5DF
330
1E
100
AcDbEntity
  8
0
100
AcDbLine
 10
187.1502554974068
 20
153.571060114205
 30
0.0
 11
186.1502554974068
 21
153.571060114205
 31
0.0
  0
ARC
  5
5E0
330
1E
100
AcDbEntity
  8
0
100
AcDbCircle
 10
191.2372554974011
 20
149.8940601142078
 30
0.0
 40
7.111392128121642
100
AcDbArc
 50
148.8649065778945
 51
161.3255558059165
  0
LINE
  5
5E1
330
1E
100
AcDbEntity
  8
0
100
AcDbLine
 10
185.1502554974068
 20
153.571060114205
 30
0.0
 11
186.1502554974068
 21
153.571060114205
 31
0.0
  0
LINE
  5
5E2
330
1E
100
AcDbEntity
  8
0
100
AcDbLine
 10
185.1502554974068
 20
154.171060114205
 30
0.0
 11
185.1502554974068
 21
153.571060114205
 31
0.0
  0
LINE
  5
5E3
330
1E
100
AcDbEntity
  8
0
100
AcDbLine
 10
186.1502554974068
 20
154.171060114205
 30
0.0
 11
185.1502554974068
 21
154.171060114205
 31
0.0
  0
LINE
  5
5E4
330
1E
100
AcDbEntity
  8
0
100
AcDbLine
 10
186.1502554974068
 20
155.321060114205
 30
0.0
 11
187.1502554974068
 21
155.321060114205
 31
0.0
  0
LINE
  5
5E5
330
1E
100
AcDbEntity
  8
0
100
AcDbLine
 10
186.1502554974068
 20
155.321060114205
 30
0.0
 11
185.1502554974068
 21
155.321060114205
 31
0.0
  0
LINE
  5
6BB
330
1E
100
AcDbEntity
  8
0
100
AcDbLine
 10
188.3502554974068
 20
140.671060114205
 30
0.0
 11
191.1502554974068
 21
140.671060114205
 31
0.0
  0
LINE
  5
6BC
330
1E
100
AcDbEntity
  8
0
100
AcDbLine
 10
191.1502554974068
 20
140.671060114205
 30
0.0
 11
192.1502554974068
 21
139.671060114205
 31
0.0
  0
LINE
  5
6BD
330
1E
100
AcDbEntity
  8
0
100
AcDbLine
 10
192.1502554974068
 20
139.671060114205
 30
0.0
 11
192.1502554974068
 21
99.97106011420507
 31
0.0
  0
LINE
  5
6BE
330
1E
100
AcDbEntity
  8
0
100
AcDbLine
 10
192.1502554974068
 20
99.97106011420507
 30
0.0
 11
191.1502554974068
 21
98.97106011420508
 31
0.0
  0
LINE
  5
6BF
330
1E
100
AcDbEntity
  8
0
100
AcDbLine
 10
191.1502554974068
 20
98.97106011420508
 30
0.0
 11
188.3502554974068
 21
98.97106011420508
 31
0.0
  0
LINE
  5
6C0
330
1E
100
AcDbEntity
  8
0
100
AcDbLine
 10
183.9502554974068
 20
98.97106011420508
 30
0.0
 11
181.2002554974068
 21
98.97106011420508
 31
0.0
  0
LINE
  5
6C1
330
1E
100
AcDbEntity
  8
0
100
AcDbLine
 10
181.2002554974068
 20
98.97106011420508
 30
0.0
 11
180.1502554974068
 21
99.97106011420507
 31
0.0
  0
LINE
  5
6C2
330
1E
100
AcDbEntity
  8
0
100
AcDbLine
 10
180.1502554974068
 20
99.97106011420507
 30
0.0
 11
180.1502554974068
 21
139.671060114205
 31
0.0
  0
LINE
  5
6C3
330
1E
100
AcDbEntity
  8
0
100
AcDbLine
 10
180.1502554974068
 20
139.671060114205
 30
0.0
 11
181.2002554974068
 21
140.671060114205
 31
0.0
  0
LINE
  5
6C4
330
1E
100
AcDbEntity
  8
0
100
AcDbLine
 10
181.2002554974068
 20
140.671060114205
 30
0.0
 11
183.9502554974068
 21
140.671060114205
 31
0.0
  0
ARC
  5
72D
330
1E
100
AcDbEntity
  8
3
100
AcDbCircle
 10
123.1369848315318
 20
135.5006306330883
 30
0.0
 40
2.359141037766345
100
AcDbArc
 50
130.893087364414
 51
289.106912635586
  0
ARC
  5
72E
330
1E
100
AcDbEntity
  8
3
100
AcDbCircle
 10
68.82135927240224
 20
135.5006306330882
 30
0.0
 40
2.359141037766345
100
AcDbArc
 50
250.8930873644137
 51
49.10691263558597
  0
CIRCLE
  5
72F
330
1E
100
AcDbEntity
  8
3
100
AcDbCircle
 10
95.97917205196706
 20
119.821060114205
 30
0.0
 40
17.5
  0
CIRCLE
  5
730
330
1E
100
AcDbEntity
  8
2
100
AcDbCircle
 10
95.97917205196706
 20
119.821060114205
 30
0.0
 40
21.0
  0
CIRCLE
  5
731
330
1E
100
AcDbEntity
  8
2
100
AcDbCircle
 10
95.97917205196706
 20
119.821060114205
 30
0.0
 40
22.0
  0
CIRCLE
  5
732
330
1E
100
AcDbEntity
  8
3
100
AcDbCircle
 10
95.97917205196706
 20
119.821060114205
 30
0.0
 40
27.0
  0
CIRCLE
  5
733
330
1E
100
AcDbEntity
  8
3
100
AcDbCircle
 10
95.97917205196706
 20
119.821060114205
 30
0.0
 40
19.0
  0
LINE
  5
734
330
1E
100
AcDbEntity
  8
1
100
AcDbLine
 10
95.97917205196706
 20
157.821060114205
 30
0.0
 11
95.97917205196706
 21
81.82106011420506
 31
0.0
  0
ARC
  5
735
330
1E
100
AcDbEntity
  8
3
100
AcDbCircle
 10
120.3599640439314
 20
103.4731440775651
 30
0.0
 40
9.368188714717147
100
AcDbArc
 50
237.3615023752191
 51
262.1233605865643
  0
ARC
  5
736
330
1E
100
AcDbEntity
  8
3
100
AcDbCircle
 10
113.6444052021868
 20
93.91092185955853
 30
0.0
 40
2.359141037766345
100
AcDbArc
 50
45.17880165012859
 51
203.3926269213004
  0
LINE
  5
737
330
1E
100
AcDbEntity
  8
1
100
AcDbLine
 10
57.97917205196705
 20
119.821060114205
 30
0.0
 11
134.479172051967
 21
119.821060114205
 31
0.0
  0
ARC
  5
738
330
1E
100
AcDbEntity
  8
3
100
AcDbCircle
 10
86.73590296600412
 20
89.85511772570339
 30
0.0
 40
2.359141037766345
100
AcDbArc
 50
353.7502302215568
 51
151.9640554927286
  0
CIRCLE
  5
739
330
1E
100
AcDbEntity
  8
3
100
AcDbCircle
 10
95.97917205196706
 20
119.821060114205
 30
0.0
 40
13.5
  0
CIRCLE
  5
73A
330
1E
100
AcDbEntity
  8
3
100
AcDbCircle
 10
95.97917205196706
 20
119.821060114205
 30
0.0
 40
10.0
  0
ARC
  5
73B
330
1E
100
AcDbEntity
  8
3
100
AcDbCircle
 10
89.66862968962766
 20
91.15305648664879
 30
0.0
 40
9.368188714717147
100
AcDbArc
 50
168.7900738037901
 51
193.5519320151353
  0
ARC
  5
73C
330
1E
100
AcDbEntity
  8
3
100
AcDbCircle
 10
77.50018308355198
 20
97.01307152244945
 30
0.0
 40
9.368188714717147
100
AcDbArc
 50
295.0194965562928
 51
319.7813547676383
  0
ARC
  5
73D
330
1E
100
AcDbEntity
  8
3
100
AcDbCircle
 10
95.97917205196706
 20
119.8210601142051
 30
0.0
 40
34.5
100
AcDbArc
 50
243.4553115982347
 51
245.1161169731933
  0
ARC
  5
73E
330
1E
100
AcDbEntity
  8
3
100
AcDbCircle
 10
71.46160832548622
 20
100.268955482108
 30
0.0
 40
2.359141037766345
100
AcDbArc
 50
319.4645159358421
 51
117.6783412070148
  0
ARC
  5
73F
330
1E
100
AcDbEntity
  8
3
100
AcDbCircle
 10
69.63106546931979
 20
106.8806329030996
 30
0.0
 40
9.368188714717147
100
AcDbArc
 50
117.3615023752188
 51
142.1233605865646
  0
ARC
  5
740
330
1E
100
AcDbEntity
  8
3
100
AcDbCircle
 10
66.62570734869404
 20
120.0479671660214
 30
0.0
 40
9.368188714717147
100
AcDbArc
 50
243.5909251277209
 51
268.3527833390666
  0
ARC
  5
741
330
1E
100
AcDbEntity
  8
3
100
AcDbCircle
 10
95.97917205196717
 20
119.8210601142051
 30
0.0
 40
34.5
100
AcDbArc
 50
192.0267401696638
 51
193.6875455446218
  0
ARC
  5
742
330
1E
100
AcDbEntity
  8
3
100
AcDbCircle
 10
95.97917205196708
 20
119.8210601142051
 30
0.0
 40
34.5
100
AcDbArc
 50
209.1695973125211
 51
210.8304026874786
  0
ARC
  5
743
330
1E
100
AcDbEntity
  8
3
100
AcDbCircle
 10
67.8629173982828
 20
111.3858007141843
 30
0.0
 40
9.368188714717147
100
AcDbArc
 50
260.7337822705781
 51
285.4956404819239
  0
ARC
  5
744
330
1E
100
AcDbEntity
  8
3
100
AcDbCircle
 10
66.78777087987928
 20
108.3642794042172
 30
0.0
 40
2.359141037766345
100
AcDbArc
 50
302.3216587929855
 51
100.535484064158
  0
ARC
  5
745
330
1E
100
AcDbEntity
  8
3
100
AcDbCircle
 10
74.61589579719547
 20
99.68929902485246
 30
0.0
 40
9.368188714717147
100
AcDbArc
 50
134.5043595180759
 51
159.2662177294212
  0
ARC
  5
746
330
1E
100
AcDbEntity
  8
3
100
AcDbCircle
 10
66.98738003807349
 20
115.221780527183
 30
0.0
 40
9.368188714717147
100
AcDbArc
 50
100.2186452323616
 51
124.9805034437076
  0
ARC
  5
747
330
1E
100
AcDbEntity
  8
3
100
AcDbCircle
 10
67.99668145354917
 20
128.6899719305394
 30
0.0
 40
9.368188714717147
100
AcDbArc
 50
226.4480679848646
 51
251.2099261962091
  0
ARC
  5
748
330
1E
100
AcDbEntity
  8
3
100
AcDbCircle
 10
66.91974255564537
 20
123.9715943261794
 30
0.0
 40
9.368188714717147
100
AcDbArc
 50
83.07578808950468
 51
107.8376463008505
  0
ARC
  5
749
330
1E
100
AcDbEntity
  8
3
100
AcDbCircle
 10
71.85402264721116
 20
136.5439349595977
 30
0.0
 40
9.368188714717147
100
AcDbArc
 50
209.3052108420067
 51
234.0670690533527
  0
ARC
  5
74A
330
1E
100
AcDbEntity
  8
3
100
AcDbCircle
 10
95.97917205196711
 20
119.821060114205
 30
0.0
 40
34.5
100
AcDbArc
 50
174.8838830268064
 51
176.5446884017646
  0
ARC
  5
74B
330
1E
100
AcDbEntity
  8
3
100
AcDbCircle
 10
95.97917205196711
 20
119.821060114205
 30
0.0
 40
34.5
100
AcDbArc
 50
157.7410258839499
 51
159.4018312589078
  0
ARC
  5
74C
330
1E
100
AcDbEntity
  8
3
100
AcDbCircle
 10
65.40627015220218
 20
126.7991254659965
 30
0.0
 40
2.359141037766345
100
AcDbArc
 50
268.0359445072707
 51
66.24976977844291
  0
ARC
  5
74D
330
1E
100
AcDbEntity
  8
3
100
AcDbCircle
 10
64.70771753276631
 20
117.4775885696628
 30
0.0
 40
2.359141037766345
100
AcDbArc
 50
285.1788016501286
 51
83.3926269213004
  0
ARC
  5
74E
330
1E
100
AcDbEntity
  8
3
100
AcDbCircle
 10
78.31393890174718
 20
93.91092185955853
 30
0.0
 40
2.359141037766345
100
AcDbArc
 50
336.6073730786995
 51
134.8211983498722
  0
ARC
  5
74F
330
1E
100
AcDbEntity
  8
3
100
AcDbCircle
 10
71.59838006000263
 20
103.4731440775651
 30
0.0
 40
9.368188714717147
100
AcDbArc
 50
277.8766394134356
 51
302.6384976247808
  0
ARC
  5
750
330
1E
100
AcDbEntity
  8
3
100
AcDbCircle
 10
81.49894697150125
 20
94.28676046617253
 30
0.0
 40
9.368188714717147
100
AcDbArc
 50
151.6472166609329
 51
176.4090748722788
  0
ARC
  5
751
330
1E
100
AcDbEntity
  8
3
100
AcDbCircle
 10
95.97917205196702
 20
119.821060114205
 30
0.0
 40
34.5
100
AcDbArc
 50
226.312454455378
 51
227.9732598303359
  0
ARC
  5
752
330
1E
100
AcDbEntity
  8
3
100
AcDbCircle
 10
102.2897144143064
 20
91.15305648664872
 30
0.0
 40
9.368188714717147
100
AcDbArc
 50
346.4480679848637
 51
11.2099261962099
  0
ARC
  5
753
330
1E
100
AcDbEntity
  8
3
100
AcDbCircle
 10
105.22244113793
 20
89.85511772570337
 30
0.0
 40
2.359141037766345
100
AcDbArc
 50
28.03594450727138
 51
186.249769778443
  0
ARC
  5
754
330
1E
100
AcDbEntity
  8
3
100
AcDbCircle
 10
95.97917205196706
 20
119.821060114205
 30
0.0
 40
34.5
100
AcDbArc
 50
277.7410258839498
 51
279.4018312589079
  0
ARC
  5
755
330
1E
100
AcDbEntity
  8
3
100
AcDbCircle
 10
85.04392537065234
 20
92.57958884492049
 30
0.0
 40
9.368188714717147
100
AcDbArc
 50
312.16235369915
 51
336.9242119104953
  0
ARC
  5
756
330
1E
100
AcDbEntity
  8
3
100
AcDbCircle
 10
98.39903179000684
 20
90.56663043689509
 30
0.0
 40
9.368188714717147
100
AcDbArc
 50
185.9329309466472
 51
210.6947891579927
  0
ARC
  5
757
330
1E
100
AcDbEntity
  8
3
100
AcDbCircle
 10
95.97917205196702
 20
119.8210601142051
 30
0.0
 40
34.5
100
AcDbArc
 50
260.598168741092
 51
262.2589741160501
  0
ARC
  5
758
330
1E
100
AcDbEntity
  8
3
100
AcDbCircle
 10
95.97917205196702
 20
88.46191907643873
 30
0.0
 40
2.359141037766345
100
AcDbArc
 50
10.89308736441384
 51
169.1069126355861
  0
ARC
  5
759
330
1E
100
AcDbEntity
  8
3
100
AcDbCircle
 10
106.9144187332817
 20
92.57958884492046
 30
0.0
 40
9.368188714717147
100
AcDbArc
 50
203.0757880895045
 51
227.83764630085
  0
ARC
  5
75A
330
1E
100
AcDbEntity
  8
3
100
AcDbCircle
 10
114.4581610203821
 20
97.01307152244936
 30
0.0
 40
9.368188714717147
100
AcDbArc
 50
220.2186452323616
 51
244.9805034437071
  0
ARC
  5
75B
330
1E
100
AcDbEntity
  8
3
100
AcDbCircle
 10
93.5593123139272
 20
90.56663043689507
 30
0.0
 40
9.368188714717147
100
AcDbArc
 50
329.3052108420072
 51
354.0670690533527
  0
ARC
  5
75C
330
1E
100
AcDbEntity
  8
3
100
AcDbCircle
 10
95.97917205196702
 20
119.821060114205
 30
0.0
 40
34.5
100
AcDbArc
 50
294.8838830268066
 51
296.5446884017645
  0
ARC
  5
75D
330
1E
100
AcDbEntity
  8
3
100
AcDbCircle
 10
123.9616626503849
 20
128.6899719305394
 30
0.0
 40
9.368188714717147
100
AcDbArc
 50
288.7900738037907
 51
313.5519320151354
  0
ARC
  5
75E
330
1E
100
AcDbEntity
  8
3
100
AcDbCircle
 10
124.9709640658606
 20
115.221780527183
 30
0.0
 40
9.368188714717147
100
AcDbArc
 50
55.01949655629232
 51
79.78135476763833
  0
ARC
  5
75F
330
1E
100
AcDbEntity
  8
3
100
AcDbCircle
 10
122.3272786346144
 20
106.8806329030996
 30
0.0
 40
9.368188714717147
100
AcDbArc
 50
37.87663941343533
 51
62.63849762478102
  0
ARC
  5
760
330
1E
100
AcDbEntity
  8
3
100
AcDbCircle
 10
124.0954267056513
 20
111.3858007141842
 30
0.0
 40
9.368188714717147
100
AcDbArc
 50
254.5043595180759
 51
279.2662177294218
  0
ARC
  5
761
330
1E
100
AcDbEntity
  8
3
100
AcDbCircle
 10
125.1705732240549
 20
108.3642794042172
 30
0.0
 40
2.359141037766345
100
AcDbArc
 50
79.46451593584271
 51
237.6783412070145
  0
ARC
  5
762
330
1E
100
AcDbEntity
  8
3
100
AcDbCircle
 10
120.4967357784479
 20
100.268955482108
 30
0.0
 40
2.359141037766345
100
AcDbArc
 50
62.32165879298514
 51
220.5354840641577
  0
ARC
  5
763
330
1E
100
AcDbEntity
  8
3
100
AcDbCircle
 10
110.4593971324328
 20
94.28676046617253
 30
0.0
 40
9.368188714717147
100
AcDbArc
 50
3.59092512772114
 51
28.35278333906614
  0
ARC
  5
764
330
1E
100
AcDbEntity
  8
3
100
AcDbCircle
 10
95.97917205196706
 20
119.821060114205
 30
0.0
 40
34.5
100
AcDbArc
 50
312.0267401696632
 51
313.6875455446219
  0
ARC
  5
765
330
1E
100
AcDbEntity
  8
3
100
AcDbCircle
 10
95.97917205196702
 20
119.821060114205
 30
0.0
 40
34.5
100
AcDbArc
 50
329.1695973125213
 51
330.8304026874788
  0
ARC
  5
766
330
1E
100
AcDbEntity
  8
3
100
AcDbCircle
 10
125.3326367552401
 20
120.0479671660214
 30
0.0
 40
9.368188714717147
100
AcDbArc
 50
271.6472166609333
 51
296.409074872279
  0
ARC
  5
767
330
1E
100
AcDbEntity
  8
3
100
AcDbCircle
 10
117.3424483067386
 20
99.68929902485237
 30
0.0
 40
9.368188714717147
100
AcDbArc
 50
20.73378227057872
 51
45.49564048192404
  0
ARC
  5
768
330
1E
100
AcDbEntity
  8
3
100
AcDbCircle
 10
95.97917205196706
 20
119.8210601142051
 30
0.0
 40
34.5
100
AcDbArc
 50
346.312454455378
 51
347.9732598303361
  0
ARC
  5
769
330
1E
100
AcDbEntity
  8
3
100
AcDbCircle
 10
126.5520739517319
 20
126.7991254659966
 30
0.0
 40
2.359141037766345
100
AcDbArc
 50
113.7502302215571
 51
271.9640554927292
  0
ARC
  5
76A
330
1E
100
AcDbEntity
  8
3
100
AcDbCircle
 10
127.2506265711678
 20
117.4775885696629
 30
0.0
 40
2.359141037766345
100
AcDbArc
 50
96.60737307869961
 51
254.8211983498719
  0
ARC
  5
76B
330
1E
100
AcDbEntity
  8
3
100
AcDbCircle
 10
120.104321456723
 20
136.5439349595977
 30
0.0
 40
9.368188714717147
100
AcDbArc
 50
305.9329309466472
 51
330.6947891579932
  0
ARC
  5
76C
330
1E
100
AcDbEntity
  8
3
100
AcDbCircle
 10
125.0386015482887
 20
123.9715943261794
 30
0.0
 40
9.368188714717147
100
AcDbArc
 50
72.16235369914946
 51
96.92421191049533
  0
ARC
  5
76D
330
1E
100
AcDbEntity
  8
3
100
AcDbCircle
 10
95.97917205196706
 20
119.821060114205
 30
0.0
 40
34.5
100
AcDbArc
 50
20.59816874109215
 51
22.25897411605007
  0
ARC
  5
76E
330
1E
100
AcDbEntity
  8
3
100
AcDbCircle
 10
95.97917205196706
 20
119.821060114205
 30
0.0
 40
34.5
100
AcDbArc
 50
3.455311598235343
 51
5.11611697319358
  0
ARC
  5
76F
330
1E
100
AcDbEntity
  8
3
100
AcDbCircle
 10
95.97917205196706
 20
119.821060114205
 30
0.0
 40
34.5
100
AcDbArc
 50
54.88388302680682
 51
56.54468840176492
  0
ARC
  5
770
330
1E
100
AcDbEntity
  8
3
100
AcDbCircle
 10
117.3088048657689
 20
142.8089371509152
 30
0.0
 40
2.359141037766345
100
AcDbArc
 50
148.0359445072714
 51
306.2497697784435
  0
ARC
  5
771
330
1E
100
AcDbEntity
  8
3
100
AcDbCircle
 10
81.10593242915971
 20
145.1284527104212
 30
0.0
 40
9.368188714717147
100
AcDbArc
 50
31.64721666093317
 51
56.40907487227871
  0
ARC
  5
772
330
1E
100
AcDbEntity
  8
3
100
AcDbCircle
 10
69.43416290917125
 20
132.3526149461224
 30
0.0
 40
9.368188714717147
100
AcDbArc
 50
65.93293094664729
 51
90.69478915799264
  0
ARC
  5
773
330
1E
100
AcDbEntity
  8
3
100
AcDbCircle
 10
77.85498923695996
 20
142.9119971715153
 30
0.0
 40
9.368188714717147
100
AcDbArc
 50
192.1623536991496
 51
216.9242119104952
  0
ARC
  5
774
330
1E
100
AcDbEntity
  8
3
100
AcDbCircle
 10
95.97917205196706
 20
119.821060114205
 30
0.0
 40
34.5
100
AcDbArc
 50
140.5981687410923
 51
142.2589741160506
  0
ARC
  5
775
330
1E
100
AcDbEntity
  8
3
100
AcDbCircle
 10
74.30722381588856
 20
139.620151925427
 30
0.0
 40
9.368188714717147
100
AcDbArc
 50
48.79007380379092
 51
73.55193201513563
  0
ARC
  5
776
330
1E
100
AcDbEntity
  8
3
100
AcDbCircle
 10
85.46636900648854
 20
147.2283282929827
 30
0.0
 40
9.368188714717147
100
AcDbArc
 50
175.0194965562923
 51
199.7813547676385
  0
ARC
  5
777
330
1E
100
AcDbEntity
  8
3
100
AcDbCircle
 10
74.64953923816509
 20
142.8089371509152
 30
0.0
 40
2.359141037766345
100
AcDbArc
 50
233.7502302215564
 51
31.96405549272945
  0
ARC
  5
778
330
1E
100
AcDbEntity
  8
3
100
AcDbCircle
 10
95.97917205196706
 20
119.821060114205
 30
0.0
 40
34.5
100
AcDbArc
 50
123.455311598235
 51
125.1161169731931
  0
ARC
  5
779
330
1E
100
AcDbEntity
  8
3
100
AcDbCircle
 10
82.3729506829861
 20
148.0746699133937
 30
0.0
 40
2.359141037766345
100
AcDbArc
 50
216.6073730786992
 51
14.82119834987191
  0
ARC
  5
77A
330
1E
100
AcDbEntity
  8
3
100
AcDbCircle
 10
94.01185746128405
 20
149.1094033619503
 30
0.0
 40
9.368188714717147
100
AcDbArc
 50
157.8766394134354
 51
182.6384976247807
  0
ARC
  5
77B
330
1E
100
AcDbEntity
  8
3
100
AcDbCircle
 10
95.97917205196702
 20
119.821060114205
 30
0.0
 40
34.5
100
AcDbArc
 50
106.312454455378
 51
107.9732598303363
  0
ARC
  5
77C
330
1E
100
AcDbEntity
  8
3
100
AcDbCircle
 10
100.6530094975739
 20
150.8299454562899
 30
0.0
 40
2.359141037766345
100
AcDbArc
 50
182.3216587929855
 51
340.535484064158
  0
ARC
  5
77D
330
1E
100
AcDbEntity
  8
3
100
AcDbCircle
 10
102.7321504508797
 20
148.3880806035785
 30
0.0
 40
9.368188714717147
100
AcDbArc
 50
140.7337822705781
 51
165.4956404819238
  0
ARC
  5
77E
330
1E
100
AcDbEntity
  8
3
100
AcDbCircle
 10
91.30533460636007
 20
150.8299454562899
 30
0.0
 40
2.359141037766345
100
AcDbArc
 50
199.4645159358428
 51
357.6783412070145
  0
ARC
  5
77F
330
1E
100
AcDbEntity
  8
3
100
AcDbCircle
 10
89.2261936530544
 20
148.3880806035785
 30
0.0
 40
9.368188714717147
100
AcDbArc
 50
14.50435951807612
 51
39.26621772942183
  0
ARC
  5
780
330
1E
100
AcDbEntity
  8
3
100
AcDbCircle
 10
95.97917205196706
 20
119.821060114205
 30
0.0
 40
34.5
100
AcDbArc
 50
89.16959731252097
 51
90.83040268747902
  0
ARC
  5
781
330
1E
100
AcDbEntity
  8
3
100
AcDbCircle
 10
109.5853934209479
 20
148.0746699133937
 30
0.0
 40
2.359141037766345
100
AcDbArc
 50
165.1788016501281
 51
323.3926269213008
  0
ARC
  5
782
330
1E
100
AcDbEntity
  8
3
100
AcDbCircle
 10
110.8524116747743
 20
145.1284527104212
 30
0.0
 40
9.368188714717147
100
AcDbArc
 50
123.5909251277212
 51
148.3527833390668
  0
ARC
  5
783
330
1E
100
AcDbEntity
  8
3
100
AcDbCircle
 10
95.97917205196706
 20
119.821060114205
 30
0.0
 40
34.5
100
AcDbArc
 50
72.02674016966362
 51
73.68754554462201
  0
ARC
  5
784
330
1E
100
AcDbEntity
  8
3
100
AcDbCircle
 10
97.94648664265
 20
149.1094033619503
 30
0.0
 40
9.368188714717147
100
AcDbArc
 50
357.3615023752191
 51
22.12336058656455
  0
ARC
  5
785
330
1E
100
AcDbEntity
  8
3
100
AcDbCircle
 10
117.6511202880455
 20
139.620151925427
 30
0.0
 40
9.368188714717147
100
AcDbArc
 50
106.4480679848643
 51
131.2099261962099
  0
ARC
  5
786
330
1E
100
AcDbEntity
  8
3
100
AcDbCircle
 10
114.103354866974
 20
142.9119971715153
 30
0.0
 40
9.368188714717147
100
AcDbArc
 50
323.0757880895047
 51
347.8376463008503
  0
ARC
  5
787
330
1E
100
AcDbEntity
  8
3
100
AcDbCircle
 10
122.5241811947628
 20
132.3526149461224
 30
0.0
 40
9.368188714717147
100
AcDbArc
 50
89.30521084200737
 51
114.0670690533527
  0
ARC
  5
788
330
1E
100
AcDbEntity
  8
3
100
AcDbCircle
 10
106.4919750974455
 20
147.2283282929828
 30
0.0
 40
9.368188714717147
100
AcDbArc
 50
340.2186452323623
 51
4.98050344370764
  0
ARC
  5
789
330
1E
100
AcDbEntity
  8
3
100
AcDbCircle
 10
95.97917205196706
 20
119.821060114205
 30
0.0
 40
34.5
100
AcDbArc
 50
37.74102588394934
 51
39.40183125890789
  0
ENDSEC
  0
SECTION
  2
OBJECTS
  0
DICTIONARY
  5
C
330
0
100
AcDbDictionary
281
     1
  3
ACAD_GROUP
350
D
  3
ACAD_LAYOUT
350
19
  3
ACAD_MLINESTYLE
350
16
  3
ACAD_PLOTSETTINGS
350
18
  3
ACAD_PLOTSTYLENAME
350
E
  3
AcDbVariableDictionary
350
2DA
  3
AcmDictionary
350
295
  3
AMG
350
1D9
  3
AMGSNAPSETTINGS
350
2DD
  3
DWGPROPS
350
6C8
  3
MAPISURF_MODULE
350
267
  0
DICTIONARY
  5
2D2
330
1E
100
AcDbDictionary
280
     1
281
     1
  3
ACAD_INDEX
360
2D3
  0
DICTIONARY
  5
D
102
{ACAD_REACTORS
330
C
102
}
330
C
100
AcDbDictionary
281
     1
  0
DICTIONARY
  5
19
102
{ACAD_REACTORS
330
C
102
}
330
C
100
AcDbDictionary
281
     1
  3
Model
350
21
  3
ﾚｲｱｳﾄ1
350
1D
  0
DICTIONARY
  5
16
102
{ACAD_REACTORS
330
C
102
}
330
C
100
AcDbDictionary
281
     1
  3
Standard
350
17
  0
DICTIONARY
  5
18
102
{ACAD_REACTORS
330
C
102
}
330
C
100
AcDbDictionary
281
     1
  0
ACDBDICTIONARYWDFLT
  5
E
102
{ACAD_REACTORS
330
C
102
}
330
C
100
AcDbDictionary
281
     1
  3
Normal
350
F
100
AcDbDictionaryWithDefault
340
F
  0
DICTIONARY
  5
2DA
102
{ACAD_REACTORS
330
C
102
}
330
C
100
AcDbDictionary
281
     1
  3
DIMASSOC
350
2DC
  3
INDEXCTL
350
2DB
  0
DICTIONARY
  5
295
102
{ACAD_REACTORS
330
C
102
}
330
C
100
AcDbDictionary
281
     1
  3
AcmBOMDATA
350
296
  3
AcmStdDictionary
350
2A4
  0
DICTIONARY
  5
1D9
102
{ACAD_REACTORS
330
C
102
}
330
C
100
AcDbDictionary
281
     1
  3
AcMgSettings
350
1DA
  3
AMGLAYCFG
350
2A6
  0
DICTIONARY
  5
2DD
102
{ACAD_REACTORS
330
C
102
}
330
C
100
AcDbDictionary
281
     1
  3
DIMENSION
350
2E2
  3
FEA
350
2E1
  3
HATCH (1)
350
2DE
  3
HATCH (2)
350
2DF
  3
SIMPLE WELD
350
2E3
  3
SYMBOLS
350
2E0
  0
XRECORD
  5
6C8
102
{ACAD_REACTORS
330
C
102
}
330
C
100
AcDbXrecord
280
     1
  1
DWGPROPS COOKIE
  2

  3

  4

  6

  7

  8

  9

300
AmdtFileType=84
301
=
302
=
303
=
304
=
305
=
306
=
307
=
308
=
309
=
 40
0.0136017013888889
 41
2450686.782511574
 42
2454699.710835312
  1

 90
        1
  0
DICTIONARY
  5
2D3
102
{ACAD_REACTORS
330
2D2
102
}
330
2D2
100
AcDbDictionary
281
     1
  3
*A1
350
2D4
  0
LAYOUT
  5
21
102
{ACAD_REACTORS
330
19
102
}
330
19
100
AcDbPlotSettings
  1

  2
EPSON PM-3700C
  4

  6

 40
0.0
 41
0.0
 42
0.0
 43
0.0
 44
0.0
 45
0.0
 46
0.0
 47
0.0
 48
0.0
 49
0.0
140
0.0
141
0.0
142
1.0
143
1.0
 70
  1712
 72
     0
 73
     0
 74
     0
  7

 75
     0
147
1.0
148
0.0
149
0.0
100
AcDbLayout
  1
Model
 70
     1
 71
     0
 10
0.0
 20
0.0
 11
12.0
 21
9.0
 12
0.0
 22
0.0
 32
0.0
 14
0.0
 24
0.0
 34
0.0
 15
0.0
 25
0.0
 35
0.0
146
0.0
 13
0.0
 23
0.0
 33
0.0
 16
1.0
 26
0.0
 36
0.0
 17
0.0
 27
1.0
 37
0.0
 76
     0
330
1E
  0
LAYOUT
  5
1D
102
{ACAD_REACTORS
330
19
102
}
330
19
100
AcDbPlotSettings
  1

  2
EPSON PM-3700C
  4

  6

 40
0.0
 41
0.0
 42
0.0
 43
0.0
 44
0.0
 45
0.0
 46
0.0
 47
0.0
 48
0.0
 49
0.0
140
0.0
141
0.0
142
1.0
143
1.0
 70
   688
 72
     0
 73
     0
 74
     5
  7

 75
    16
147
1.0
148
0.0
149
0.0
100
AcDbLayout
  1
ﾚｲｱｳﾄ1
 70
     1
 71
     1
 10
0.0
 20
0.0
 11
12.0
 21
9.0
 12
0.0
 22
0.0
 32
0.0
 14
1.000000000000000E+20
 24
1.000000000000000E+20
 34
1.000000000000000E+20
 15
-1.000000000000000E+20
 25
-1.000000000000000E+20
 35
-1.000000000000000E+20
146
0.0
 13
0.0
 23
0.0
 33
0.0
 16
1.0
 26
0.0
 36
0.0
 17
0.0
 27
1.0
 37
0.0
 76
     0
330
1A
  0
MLINESTYLE
  5
17
102
{ACAD_REACTORS
330
16
102
}
330
16
100
AcDbMlineStyle
  2
STANDARD
 70
     0
  3

 62
   256
 51
90.0
 52
90.0
 71
     2
 49
0.5
 62
   256
  6
BYLAYER
 49
-0.5
 62
   256
  6
BYLAYER
  0
ACDBPLACEHOLDER
  5
F
102
{ACAD_REACTORS
330
E
102
}
330
E
  0
DICTIONARYVAR
  5
2DC
102
{ACAD_REACTORS
330
2DA
102
}
330
2DA
100
DictionaryVariables
280
     0
  1
1
  0
DICTIONARYVAR
  5
2DB
102
{ACAD_REACTORS
330
2DA
102
}
330
2DA
100
DictionaryVariables
280
     0
  1
1
  0
ACMDATADICTIONARY
  5
296
102
{ACAD_REACTORS
330
295
102
}
330
295
100
AcDbDictionary
281
     1
  3
*A1
350
297
100
AcmDataDictionary
  0
DICTIONARY
  5
2A4
102
{ACAD_REACTORS
330
295
102
}
330
295
100
AcDbDictionary
281
     1
  3
ANSI
350
2A5
  0
DICTIONARY
  5
1DA
102
{ACAD_REACTORS
330
1D9
102
}
330
1D9
100
AcDbDictionary
281
     1
  3
DWGSETTINGS
350
1DB
  3
TRANSSETTINGS
350
1DF
  0
ACAMGFILTERDAT
  5
2E2
102
{ACAD_REACTORS
330
2DD
102
}
330
2DD
100
AcAmgFilterDat
 70
    15
  1
DIMENSION,AMDT_*_DIM
  2
*
  3
*
  4
*
  5
*
290
     1
  0
ACAMGFILTERDAT
  5
2E1
102
{ACAD_REACTORS
330
2DD
102
}
330
2DD
100
AcAmgFilterDat
 70
    15
  1
*
  2
AM_FEA-AM_*
  3
*
  4
*
  5
*
290
     1
  0
ACAMGFILTERDAT
  5
2DE
102
{ACAD_REACTORS
330
2DD
102
}
330
2DD
100
AcAmgFilterDat
 70
    15
  1
HATCH
  2
*
  3
*
  4
*
  5
*
290
     1
  0
ACAMGFILTERDAT
  5
2DF
102
{ACAD_REACTORS
330
2DD
102
}
330
2DD
100
AcAmgFilterDat
 70
    15
  1
LINE
  2
8,8N,*-8,*-8N,AM_8,AM_8N,*-AM_8,*-AM_8N
  3
*
  4
*
  5
INSERT,STDPART2D
290
     1
  0
ACAMGFILTERDAT
  5
2E3
102
{ACAD_REACTORS
330
2DD
102
}
330
2DD
100
AcAmgFilterDat
 70
    15
  1
ARC
  2
AM_5
  3
*
  4
2
  5
INSERT
290
     0
  0
ACAMGFILTERDAT
  5
2E0
102
{ACAD_REACTORS
330
2DD
102
}
330
2DD
100
AcAmgFilterDat
 70
    15
  1
ACMFCFRAME,ACMDATUMTARGET,ACMDATUMID,ACMWELDSYM,ACMSURFSYM,ACMFEATID,ACMPARTREF,ACMBALLOON,AMDTEDGESYM,AMGSCREWCALCTABLE
  2
*
  3
*
  4
*
  5
*
290
     1
  0
LAYER_INDEX
  5
2D4
102
{ACAD_REACTORS
330
2D3
102
}
330
2D3
100
AcDbIndex
 40
2454699.712685544
100
AcDbLayerIndex
  8
0
360
2D5
 90
      170
  8
1
360
2D6
 90
        7
  8
2
360
2D7
 90
        8
  8
3
360
2D8
 90
       89
  8
DEFPOINTS
360
6C5
 90
        0
  0
ACMDATAENTRYBLOCK
  5
297
102
{ACAD_REACTORS
330
296
102
}
330
296
100
AcmDataEntry
100
AcmDataEntryBlock
  0
IDBUFFER
  5
2D5
330
0
100
AcDbIdBuffer
330
513
330
515
330
517
330
518
330
51E
330
51F
330
520
330
521
330
522
330
523
330
524
330
525
330
526
330
527
330
528
330
529
330
52A
330
52B
330
52C
330
52D
330
52E
330
52F
330
530
330
531
330
532
330
533
330
536
330
538
330
53A
330
53B
330
53C
330
53D
330
53E
330
53F
330
540
330
541
330
542
330
543
330
544
330
545
330
546
330
547
330
548
330
549
330
54A
330
54B
330
54D
330
54E
330
54F
330
550
330
551
330
552
330
553
330
556
330
558
330
559
330
55A
330
55B
330
55C
330
55D
330
569
330
56A
330
56B
330
56C
330
56D
330
56E
330
571
330
572
330
574
330
575
330
576
330
579
330
57A
330
57B
330
57C
330
57D
330
57E
330
57F
330
580
330
581
330
582
330
583
330
584
330
585
330
586
330
587
330
588
330
589
330
58D
330
58E
330
58F
330
590
330
591
330
592
330
593
330
594
330
595
330
596
330
597
330
598
330
599
330
59A
330
59D
330
59E
330
59F
330
5A0
330
5A1
330
5A2
330
5A3
330
5A4
330
5A8
330
5A9
330
5AA
330
5AB
330
5AC
330
5AD
330
5B0
330
5B1
330
5B2
330
5B3
330
5B6
330
5B7
330
5B9
330
5BA
330
5BE
330
5BF
330
5C0
330
5C1
330
5C2
330
5C3
330
5C4
330
5C5
330
5C6
330
5C7
330
5C8
330
5C9
330
5CA
330
5CB
330
5CC
330
5CD
330
5CE
330
5CF
330
5D0
330
5D1
330
5D2
330
5D3
330
5D4
330
5D5
330
5D6
330
5D7
330
5DC
330
5DD
330
5DE
330
5DF
330
5E0
330
5E1
330
5E2
330
5E3
330
5E4
330
5E5
330
6BB
330
6BC
330
6BD
330
6BE
330
6BF
330
6C0
330
6C1
330
6C2
330
6C3
330
6C4
  0
IDBUFFER
  5
2D6
330
0
100
AcDbIdBuffer
330
516
330
51D
330
562
330
56F
330
5A7
330
734
330
737
  0
IDBUFFER
  5
2D7
330
0
100
AcDbIdBuffer
330
730
330
731
330
573
330
578
330
58A
330
58C
330
59B
330
5A5
  0
IDBUFFER
  5
2D8
330
0
100
AcDbIdBuffer
330
75E
330
75F
330
760
330
761
330
762
330
763
330
764
330
765
330
766
330
767
330
768
330
769
330
76A
330
76B
330
76C
330
76D
330
76E
330
76F
330
770
330
771
330
772
330
773
330
774
330
775
330
776
330
777
330
778
330
779
330
77A
330
77B
330
77C
330
77D
330
77E
330
77F
330
780
330
781
330
782
330
783
330
784
330
785
330
786
330
787
330
788
330
789
330
72D
330
72E
330
72F
330
732
330
733
330
735
330
736
330
738
330
739
330
73A
330
73B
330
73C
330
73D
330
73E
330
73F
330
740
330
741
330
742
330
743
330
744
330
745
330
746
330
747
330
748
330
749
330
74A
330
74B
330
74C
330
74D
330
74E
330
74F
330
750
330
751
330
752
330
753
330
754
330
755
330
756
330
757
330
758
330
759
330
75A
330
75B
330
75C
330
75D
  0
IDBUFFER
  5
6C5
330
0
100
AcDbIdBuffer
  0
ENDSEC
  0
EOF
