  0
SECTION
  2
HEADER
  9
$ACADVER
  1
AC1009
  9
$INSBASE
 10
0.0
 20
0.0
 30
0.0
  9
$EXTMIN
 10
6.0
 20
0.0
 30
0.0
  9
$EXTMAX
 10
372.0
 20
264.0
 30
0.0
  9
$LIMMIN
 10
0.0
 20
0.0
  9
$LIMMAX
 10
375.0
 20
265.0
  9
$ORTHOMODE
 70
     0
  9
$REGENMODE
 70
     1
  9
$FILLMODE
 70
     1
  9
$QTEXTMODE
 70
     0
  9
$MIRRTEXT
 70
     1
  9
$DRAGMODE
 70
     2
  9
$LTSCALE
 40
1.0
  9
$OSMODE
 70
     0
  9
$ATTMODE
 70
     1
  9
$TEXTSIZE
 40
5.0
  9
$TRACEWID
 40
0.05
  9
$TEXTSTYLE
  7
BIGFONT
  9
$CLAYER
  8
0
  9
$CELTYPE
  6
BYLAYER
  9
$CECOLOR
 62
   256
  9
$DIMSCALE
 40
1.0
  9
$DIMASZ
 40
0.18
  9
$DIMEXO
 40
0.0625
  9
$DIMDLI
 40
0.38
  9
$DIMRND
 40
0.0
  9
$DIMDLE
 40
0.0
  9
$DIMEXE
 40
0.18
  9
$DIMTP
 40
0.0
  9
$DIMTM
 40
0.0
  9
$DIMTXT
 40
0.18
  9
$DIMCEN
 40
0.09
  9
$DIMTSZ
 40
0.0
  9
$DIMTOL
 70
     0
  9
$DIMLIM
 70
     0
  9
$DIMTIH
 70
     1
  9
$DIMTOH
 70
     1
  9
$DIMSE1
 70
     0
  9
$DIMSE2
 70
     0
  9
$DIMTAD
 70
     0
  9
$DIMZIN
 70
     0
  9
$DIMBLK
  1

  9
$DIMASO
 70
     1
  9
$DIMSHO
 70
     1
  9
$DIMPOST
  1

  9
$DIMAPOST
  1

  9
$DIMALT
 70
     0
  9
$DIMALTD
 70
     2
  9
$DIMALTF
 40
25.4
  9
$DIMLFAC
 40
1.0
  9
$DIMTOFL
 70
     0
  9
$DIMTVP
 40
0.0
  9
$DIMTIX
 70
     0
  9
$DIMSOXD
 70
     0
  9
$DIMSAH
 70
     0
  9
$DIMBLK1
  1

  9
$DIMBLK2
  1

  9
$DIMSTYLE
  2
STANDARD
  9
$DIMCLRD
 70
     0
  9
$DIMCLRE
 70
     0
  9
$DIMCLRT
 70
     0
  9
$DIMTFAC
 40
1.0
  9
$DIMGAP
 40
0.09
  9
$LUNITS
 70
     2
  9
$LUPREC
 70
     4
  9
$SKETCHINC
 40
0.1
  9
$FILLETRAD
 40
0.0
  9
$AUNITS
 70
     0
  9
$AUPREC
 70
     0
  9
$MENU
  1
acad
  9
$ELEVATION
 40
0.0
  9
$PELEVATION
 40
0.0
  9
$THICKNESS
 40
0.0
  9
$LIMCHECK
 70
     0
  9
$BLIPMODE
 70
     1
  9
$CHAMFERA
 40
0.0
  9
$CHAMFERB
 40
0.0
  9
$SKPOLY
 70
     0
  9
$TDCREATE
 40
2450686.78588
  9
$TDUPDATE
 40
2450686.78588
  9
$TDINDWG
 40
0.0
  9
$TDUSRTIMER
 40
0.0
  9
$USRTIMER
 70
     1
  9
$ANGBASE
 50
0.0
  9
$ANGDIR
 70
     0
  9
$PDMODE
 70
     0
  9
$PDSIZE
 40
0.0
  9
$PLINEWID
 40
0.0
  9
$COORDS
 70
     2
  9
$SPLFRAME
 70
     0
  9
$SPLINETYPE
 70
     6
  9
$SPLINESEGS
 70
     8
  9
$ATTDIA
 70
     0
  9
$ATTREQ
 70
     1
  9
$HANDLING
 70
     1
  9
$HANDSEED
  5
32B
  9
$SURFTAB1
 70
     6
  9
$SURFTAB2
 70
     6
  9
$SURFTYPE
 70
     6
  9
$SURFU
 70
     6
  9
$SURFV
 70
     6
  9
$UCSNAME
  2

  9
$UCSORG
 10
0.0
 20
0.0
 30
0.0
  9
$UCSXDIR
 10
1.0
 20
0.0
 30
0.0
  9
$UCSYDIR
 10
0.0
 20
1.0
 30
0.0
  9
$PUCSNAME
  2

  9
$PUCSORG
 10
0.0
 20
0.0
 30
0.0
  9
$PUCSXDIR
 10
1.0
 20
0.0
 30
0.0
  9
$PUCSYDIR
 10
0.0
 20
1.0
 30
0.0
  9
$USERI1
 70
     0
  9
$USERI2
 70
     0
  9
$USERI3
 70
     0
  9
$USERI4
 70
     0
  9
$USERI5
 70
     0
  9
$USERR1
 40
0.0
  9
$USERR2
 40
0.0
  9
$USERR3
 40
0.0
  9
$USERR4
 40
0.0
  9
$USERR5
 40
0.0
  9
$WORLDVIEW
 70
     1
  9
$SHADEDGE
 70
     3
  9
$SHADEDIF
 70
    70
  9
$TILEMODE
 70
     1
  9
$MAXACTVP
 70
    16
  9
$PLIMCHECK
 70
     0
  9
$PEXTMIN
 10
1.000000E+020
 20
1.000000E+020
 30
1.000000E+020
  9
$PEXTMAX
 10
-1.000000E+020
 20
-1.000000E+020
 30
-1.000000E+020
  9
$PLIMMIN
 10
0.0
 20
0.0
  9
$PLIMMAX
 10
12.0
 20
9.0
  9
$UNITMODE
 70
     0
  9
$VISRETAIN
 70
     0
  9
$PLINEGEN
 70
     0
  9
$PSLTSCALE
 70
     1
  0
ENDSEC
  0
SECTION
  2
TABLES
  0
TABLE
  2
VPORT
 70
     2
  0
VPORT
  2
*ACTIVE
 70
     0
 10
0.0
 20
0.0
 11
1.0
 21
1.0
 12
190.130112
 22
132.5
 13
0.0
 23
0.0
 14
0.1
 24
0.1
 15
0.5
 25
0.5
 16
0.0
 26
0.0
 36
1.0
 17
0.0
 27
0.0
 37
0.0
 40
265.0
 41
1.434944
 42
50.0
 43
0.0
 44
0.0
 50
0.0
 51
0.0
 71
     0
 72
   100
 73
     1
 74
     1
 75
     0
 76
     0
 77
     0
 78
     0
  0
ENDTAB
  0
TABLE
  2
LTYPE
 70
     4
  0
LTYPE
  2
CONTINUOUS
 70
     0
  3
Solid line
 72
    65
 73
     0
 40
0.0
  0
LTYPE
  2
ITTEN1
 70
     0
  3

 72
    65
 73
     4
 40
8.2
 49
5.0
 49
-1.0
 49
1.2
 49
-1.0
  0
LTYPE
  2
TENSEN2
 70
     0
  3

 72
    65
 73
     2
 40
2.1
 49
1.5
 49
-0.6
  0
ENDTAB
  0
TABLE
  2
LAYER
 70
     4
  0
LAYER
  2
0
 70
     0
 62
     7
  6
CONTINUOUS
  0
LAYER
  2
1
 70
     0
 62
     1
  6
ITTEN1
  0
LAYER
  2
2
 70
     0
 62
     2
  6
TENSEN2
  0
LAYER
  2
3
 70
     0
 62
     3
  6
CONTINUOUS
  0
ENDTAB
  0
TABLE
  2
STYLE
 70
     2
  0
STYLE
  2
STANDARD
 70
     0
 40
0.0
 41
1.0
 50
0.0
 71
     0
 42
0.2
  3
txt
  4

  0
STYLE
  2
BIGFONT
 70
     0
 40
5.0
 41
1.0
 50
0.0
 71
     0
 42
5.0
  3

  4
bigfont
  0
ENDTAB
  0
TABLE
  2
VIEW
 70
     0
  0
ENDTAB
  0
TABLE
  2
UCS
 70
     0
  0
ENDTAB
  0
TABLE
  2
APPID
 70
     1
  0
APPID
  2
ACAD
 70
     0
  0
ENDTAB
  0
TABLE
  2
DIMSTYLE
 70
     1
  0
DIMSTYLE
  2
STANDARD
 70
     0
  3

  4

  5

  6

  7

 40
1.0
 41
0.18
 42
0.0625
 43
0.38
 44
0.18
 45
0.0
 46
0.0
 47
0.0
 48
0.0
140
0.18
141
0.09
142
0.0
143
25.4
144
1.0
145
0.0
146
1.0
147
0.09
 71
     0
 72
     0
 73
     1
 74
     1
 75
     0
 76
     0
 77
     0
 78
     0
170
     0
171
     2
172
     0
173
     0
174
     0
175
     0
176
     0
177
     0
178
     0
  0
ENDTAB
  0
ENDSEC
  0
SECTION
  2
BLOCKS
  0
BLOCK
  8
0
  2
$MODEL_SPACE
 70
     0
 10
0.0
 20
0.0
 30
0.0
  3
$MODEL_SPACE
  1

  0
ENDBLK
  5
1A
  8
0
  0
BLOCK
 67
     1
  8
0
  2
$PAPER_SPACE
 70
     0
 10
0.0
 20
0.0
 30
0.0
  3
$PAPER_SPACE
  1

  0
ENDBLK
  5
17
 67
     1
  8
0
  0
ENDSEC
  0
SECTION
  2
ENTITIES
  0
POLYLINE
  5
28
  8
0
 66
     1
 10
0.0
 20
0.0
 30
0.0
 70
     1
  0
VERTEX
  5
29
  8
0
 10
6.0
 20
264.0
 30
0.0
  0
VERTEX
  5
2A
  8
0
 10
6.0
 20
0.0
 30
0.0
  0
VERTEX
  5
2B
  8
0
 10
372.0
 20
0.0
 30
0.0
  0
VERTEX
  5
2C
  8
0
 10
372.0
 20
264.0
 30
0.0
  0
SEQEND
  5
2D
  8
0
  0
LINE
  5
2E
  8
3
 10
372.0
 20
12.0
 30
0.0
 11
276.0
 21
12.0
 31
0.0
  0
LINE
  5
2F
  8
3
 10
372.0
 20
24.0
 30
0.0
 11
276.0
 21
24.0
 31
0.0
  0
LINE
  5
30
  8
3
 10
372.0
 20
36.0
 30
0.0
 11
276.0
 21
36.0
 31
0.0
  0
LINE
  5
31
  8
3
 10
276.0
 20
36.0
 30
0.0
 11
276.0
 21
0.0
 31
0.0
  0
LINE
  5
32
  8
3
 10
276.0
 20
0.0
 30
0.0
 11
276.0
 21
0.0
 31
0.0
  0
LINE
  5
33
  8
3
 10
300.0
 20
12.0
 30
0.0
 11
300.0
 21
0.0
 31
0.0
  0
TEXT
  5
34
  8
3
 10
279.315428
 20
31.851352
 30
0.0
 40
3.0
  1
部品名称
  7
BIGFONT
  0
TEXT
  5
35
  8
3
 10
278.85565
 20
19.905405
 30
0.0
 40
3.0
  1
品番
  7
BIGFONT
  0
TEXT
  5
36
  8
3
 10
278.395872
 20
7.959458
 30
0.0
 40
3.0
  1
尺度
  7
BIGFONT
  0
TEXT
  5
37
  8
3
 10
302.304353
 20
7.959459
 30
0.0
 40
3.0
  1
図番
  7
BIGFONT
  0
TEXT
  5
38
  8
3
 10
282.0741
 20
1.527026
 30
0.0
 40
5.0
  1
１
  7
BIGFONT
  0
TEXT
  5
39
  8
3
 10
288.051219
 20
1.959458
 30
0.0
 40
5.0
  1
／
  7
BIGFONT
  0
TEXT
  5
3A
  8
3
 10
294.028341
 20
1.472972
 30
0.0
 40
5.0
  1
１
  7
BIGFONT
  0
TEXT
  5
3B
  8
3
 10
284.686614
 20
25.641891
 30
0.0
 40
5.0
  1
スプロケット・アイドラーＡ型
  7
BIGFONT
  0
TEXT
  5
3C
  8
3
 10
285.579125
 20
13.844595
 30
0.0
 40
5.0
  1
ＳＰＢ－３５－１８
  7
BIGFONT
  0
CIRCLE
  5
3D
  8
0
 10
113.0
 20
135.2
 30
0.0
 40
10.0
  0
CIRCLE
  5
3E
  8
0
 10
113.0
 20
135.2
 30
0.0
 40
10.5
  0
CIRCLE
  5
3F
  8
0
 10
113.0
 20
135.2
 30
0.0
 40
21.0
  0
CIRCLE
  5
40
  8
0
 10
113.0
 20
135.2
 30
0.0
 40
20.5
  0
CIRCLE
  5
41
  8
0
 10
113.0
 20
135.2
 30
0.0
 40
18.5
  0
CIRCLE
  5
42
  8
0
 10
113.0
 20
135.2
 30
0.0
 40
13.5
  0
ARC
  5
43
  8
0
 10
112.998432
 20
158.587048
 30
0.0
 40
6.613797
 50
81.208598
 51
98.791402
  0
ARC
  5
44
  8
0
 10
108.792609
 20
161.692292
 30
0.0
 40
6.243738
 50
7.618843
 51
33.331791
  0
ARC
  5
45
  8
0
 10
117.204255
 20
161.692292
 30
0.0
 40
6.243738
 50
146.668209
 51
172.381157
  0
ARC
  5
46
  8
0
 10
121.825428
 20
162.750114
 30
0.0
 40
6.848065
 50
181.924817
 51
198.496984
  0
ARC
  5
47
  8
0
 10
117.507115
 20
161.769635
 30
0.0
 40
2.475913
 50
208.277306
 51
251.44757
  0
LINE
  5
48
  8
1
 10
113.0
 20
113.2
 30
0.0
 11
113.0
 21
101.2
 31
0.0
  0
ARC
  5
49
  8
0
 10
117.617885
 20
161.922562
 30
0.0
 40
2.660126
 50
250.233632
 51
308.320834
  0
ARC
  5
4A
  8
0
 10
109.301223
 20
168.140955
 30
0.0
 40
12.992003
 50
320.262598
 51
329.264698
  0
ARC
  5
4B
  8
0
 10
108.199738
 20
161.890405
 30
0.0
 40
2.660126
 50
270.233632
 51
328.320834
  0
ARC
  5
4C
  8
0
 10
108.147952
 20
161.708814
 30
0.0
 40
2.475913
 50
228.277306
 51
271.44757
  0
ARC
  5
4D
  8
0
 10
99.985448
 20
158.655598
 30
0.0
 40
6.243738
 50
27.618843
 51
53.331791
  0
ARC
  5
4E
  8
0
 10
107.88981
 20
161.532551
 30
0.0
 40
6.243738
 50
166.668209
 51
192.381157
  0
ARC
  5
4F
  8
0
 10
104.999685
 20
157.1761
 30
0.0
 40
6.613797
 50
101.208598
 51
118.791402
  0
ARC
  5
50
  8
0
 10
111.870495
 20
164.107113
 30
0.0
 40
6.848065
 50
201.924817
 51
218.496984
  0
ARC
  5
51
  8
0
 10
98.257816
 20
164.889316
 30
0.0
 40
12.992003
 50
340.262598
 51
349.264698
  0
ARC
  5
52
  8
0
 10
99.360573
 20
158.63899
 30
0.0
 40
2.660126
 50
290.233632
 51
348.320834
  0
ARC
  5
53
  8
0
 10
99.374018
 20
158.450638
 30
0.0
 40
2.475913
 50
248.277306
 51
291.44757
  0
ARC
  5
54
  8
0
 10
92.748035
 20
152.789814
 30
0.0
 40
6.243738
 50
47.618843
 51
73.331791
  0
ARC
  5
55
  8
0
 10
99.191729
 20
158.196716
 30
0.0
 40
6.243738
 50
186.668209
 51
212.381157
  0
ARC
  5
56
  8
0
 10
97.965894
 20
153.11451
 30
0.0
 40
6.613797
 50
121.208598
 51
138.791402
  0
ARC
  5
57
  8
0
 10
102.051798
 20
161.977488
 30
0.0
 40
6.848065
 50
221.924817
 51
238.496984
  0
ARC
  5
58
  8
0
 10
88.992535
 20
158.056707
 30
0.0
 40
12.992003
 50
0.262598
 51
9.264698
  0
ARC
  5
59
  8
0
 10
92.166525
 20
152.560487
 30
0.0
 40
2.660126
 50
310.233632
 51
8.320834
  0
ARC
  5
5A
  8
0
 10
92.243579
 20
152.388093
 30
0.0
 40
2.475913
 50
268.277306
 51
311.44757
  0
ARC
  5
5B
  8
0
 10
87.953307
 20
144.802438
 30
0.0
 40
6.243738
 50
67.618843
 51
93.331791
  0
ARC
  5
5C
  8
0
 10
92.15913
 20
152.087137
 30
0.0
 40
6.243738
 50
206.668209
 51
232.381157
  0
ARC
  5
5D
  8
0
 10
92.745438
 20
146.892166
 30
0.0
 40
6.613797
 50
141.208598
 51
158.791402
  0
ARC
  5
5E
  8
0
 10
93.553615
 20
156.618102
 30
0.0
 40
6.848065
 50
241.924817
 51
258.496984
  0
ARC
  5
5F
  8
0
 10
82.622908
 20
148.467243
 30
0.0
 40
12.992003
 50
20.262598
 51
29.264698
  0
ARC
  5
60
  8
0
 10
87.485301
 20
144.388053
 30
0.0
 40
2.660126
 50
330.233632
 51
28.320834
  0
ARC
  5
61
  8
0
 10
87.61667
 20
144.25241
 30
0.0
 40
2.475913
 50
288.277306
 51
331.44757
  0
ARC
  5
62
  8
0
 10
86.17958
 20
135.656867
 30
0.0
 40
6.243738
 50
87.618843
 51
113.331791
  0
ARC
  5
63
  8
0
 10
87.640247
 20
143.940721
 30
0.0
 40
6.243738
 50
226.668209
 51
252.381157
  0
ARC
  5
64
  8
0
 10
89.967982
 20
139.259574
 30
0.0
 40
6.613797
 50
161.208598
 51
178.791402
  0
ARC
  5
65
  8
0
 10
87.400953
 20
148.675377
 30
0.0
 40
6.848065
 50
261.924817
 51
278.496984
  0
ARC
  5
66
  8
0
 10
79.917206
 20
137.277552
 30
0.0
 40
12.992003
 50
40.262598
 51
49.264698
  0
ARC
  5
67
  8
0
 10
85.881526
 20
135.107405
 30
0.0
 40
2.660126
 50
350.233632
 51
48.320834
  0
ARC
  5
68
  8
0
 10
86.051366
 20
135.024873
 30
0.0
 40
2.475913
 50
308.277306
 51
351.44757
  0
ARC
  5
69
  8
0
 10
87.640792
 20
126.45619
 30
0.0
 40
6.243738
 50
107.618843
 51
133.331791
  0
ARC
  5
6A
  8
0
 10
86.180125
 20
134.740045
 30
0.0
 40
6.243738
 50
246.668209
 51
272.381157
  0
ARC
  5
6B
  8
0
 10
89.968526
 20
131.137337
 30
0.0
 40
6.613797
 50
181.208598
 51
198.791402
  0
ARC
  5
6C
  8
0
 10
84.335914
 20
139.107323
 30
0.0
 40
6.848065
 50
281.924817
 51
298.496984
  0
ARC
  5
6D
  8
0
 10
81.201778
 20
125.837279
 30
0.0
 40
12.992003
 50
60.262598
 51
69.264698
  0
ARC
  5
6E
  8
0
 10
87.548639
 20
125.837925
 30
0.0
 40
2.660126
 50
10.233632
 51
68.320834
  0
ARC
  5
6F
  8
0
 10
87.736464
 20
125.818459
 30
0.0
 40
2.475913
 50
328.277306
 51
11.44757
  0
ARC
  5
70
  8
0
 10
92.160698
 20
118.310147
 30
0.0
 40
6.243738
 50
127.618843
 51
153.331791
  0
ARC
  5
71
  8
0
 10
87.954875
 20
125.594846
 30
0.0
 40
6.243738
 50
266.668209
 51
292.381157
  0
ARC
  5
72
  8
0
 10
92.747006
 20
123.505118
 30
0.0
 40
6.613797
 50
201.208598
 51
218.791402
  0
ARC
  5
73
  8
0
 10
84.728187
 20
129.067987
 30
0.0
 40
6.848065
 50
301.924817
 51
318.496984
  0
ARC
  5
74
  8
0
 10
86.321685
 20
115.526288
 30
0.0
 40
12.992003
 50
80.262598
 51
89.264698
  0
ARC
  5
75
  8
0
 10
92.285563
 20
117.697649
 30
0.0
 40
2.660126
 50
30.233632
 51
88.320834
  0
ARC
  5
76
  8
0
 10
92.468718
 20
117.743597
 30
0.0
 40
2.475913
 50
348.277306
 51
31.44757
  0
ARC
  5
77
  8
0
 10
99.194132
 20
112.201268
 30
0.0
 40
6.243738
 50
147.618843
 51
173.331791
  0
ARC
  5
78
  8
0
 10
92.750437
 20
117.60817
 30
0.0
 40
6.243738
 50
286.668209
 51
312.381157
  0
ARC
  5
79
  8
0
 10
97.968297
 20
117.283474
 30
0.0
 40
6.613797
 50
221.208598
 51
238.791402
  0
ARC
  5
7A
  8
0
 10
88.530458
 20
119.768264
 30
0.0
 40
6.848065
 50
321.924817
 51
338.496984
  0
ARC
  5
7B
  8
0
 10
94.65939
 20
107.588237
 30
0.0
 40
12.992003
 50
100.262598
 51
109.264698
  0
ARC
  5
7C
  8
0
 10
99.520953
 20
111.668415
 30
0.0
 40
2.660126
 50
50.233632
 51
108.320834
  0
ARC
  5
7D
  8
0
 10
99.677347
 20
111.774235
 30
0.0
 40
2.475913
 50
8.277306
 51
51.44757
  0
ARC
  5
7E
  8
0
 10
107.892757
 20
108.866377
 30
0.0
 40
6.243738
 50
167.618843
 51
193.331791
  0
ARC
  5
7F
  8
0
 10
99.988395
 20
111.743329
 30
0.0
 40
6.243738
 50
306.668209
 51
332.381157
  0
ARC
  5
80
  8
0
 10
105.002632
 20
113.222827
 30
0.0
 40
6.613797
 50
241.208598
 51
258.791402
  0
ARC
  5
81
  8
0
 10
95.284117
 20
112.329835
 30
0.0
 40
6.848065
 50
341.924817
 51
358.496984
  0
ARC
  5
82
  8
0
 10
105.209243
 20
102.980572
 30
0.0
 40
12.992003
 50
120.262598
 51
129.264698
  0
ARC
  5
83
  8
0
 10
108.382115
 20
108.477438
 30
0.0
 40
2.660126
 50
70.233632
 51
128.320834
  0
ARC
  5
84
  8
0
 10
108.492885
 20
108.630365
 30
0.0
 40
2.475913
 50
28.277306
 51
71.44757
  0
ARC
  5
85
  8
0
 10
117.207391
 20
108.707708
 30
0.0
 40
6.243738
 50
187.618843
 51
213.331791
  0
ARC
  5
86
  8
0
 10
108.795745
 20
108.707708
 30
0.0
 40
6.243738
 50
326.668209
 51
352.381157
  0
ARC
  5
87
  8
0
 10
113.001568
 20
111.812952
 30
0.0
 40
6.613797
 50
261.208598
 51
278.791402
  0
ARC
  5
88
  8
0
 10
104.174572
 20
107.649886
 30
0.0
 40
6.848065
 50
1.924817
 51
18.496984
  0
ARC
  5
89
  8
0
 10
116.698777
 20
102.259045
 30
0.0
 40
12.992003
 50
140.262598
 51
149.264698
  0
ARC
  5
8A
  8
0
 10
117.800262
 20
108.509595
 30
0.0
 40
2.660126
 50
90.233632
 51
148.320834
  0
ARC
  5
8B
  8
0
 10
117.852048
 20
108.691186
 30
0.0
 40
2.475913
 50
48.277306
 51
91.44757
  0
ARC
  5
8C
  8
0
 10
126.014552
 20
111.744402
 30
0.0
 40
6.243738
 50
207.618843
 51
233.331791
  0
ARC
  5
8D
  8
0
 10
118.11019
 20
108.867449
 30
0.0
 40
6.243738
 50
346.668209
 51
12.381157
  0
ARC
  5
8E
  8
0
 10
121.000315
 20
113.2239
 30
0.0
 40
6.613797
 50
281.208598
 51
298.791402
  0
ARC
  5
8F
  8
0
 10
114.129505
 20
106.292887
 30
0.0
 40
6.848065
 50
21.924817
 51
38.496984
  0
ARC
  5
90
  8
0
 10
127.742184
 20
105.510684
 30
0.0
 40
12.992003
 50
160.262598
 51
169.264698
  0
ARC
  5
91
  8
0
 10
126.639427
 20
111.76101
 30
0.0
 40
2.660126
 50
110.233632
 51
168.320834
  0
ARC
  5
92
  8
0
 10
126.625982
 20
111.949362
 30
0.0
 40
2.475913
 50
68.277306
 51
111.44757
  0
ARC
  5
93
  8
0
 10
133.251965
 20
117.610186
 30
0.0
 40
6.243738
 50
227.618843
 51
253.331791
  0
ARC
  5
94
  8
0
 10
126.808271
 20
112.203284
 30
0.0
 40
6.243738
 50
6.668209
 51
32.381157
  0
ARC
  5
95
  8
0
 10
128.034106
 20
117.28549
 30
0.0
 40
6.613797
 50
301.208598
 51
318.791402
  0
ARC
  5
96
  8
0
 10
123.948202
 20
108.422512
 30
0.0
 40
6.848065
 50
41.924817
 51
58.496984
  0
ARC
  5
97
  8
0
 10
137.007465
 20
112.343293
 30
0.0
 40
12.992003
 50
180.262598
 51
189.264698
  0
ARC
  5
98
  8
0
 10
133.833475
 20
117.839513
 30
0.0
 40
2.660126
 50
130.233632
 51
188.320834
  0
ARC
  5
99
  8
0
 10
133.756421
 20
118.011907
 30
0.0
 40
2.475913
 50
88.277306
 51
131.44757
  0
ARC
  5
9A
  8
0
 10
138.046693
 20
125.597562
 30
0.0
 40
6.243738
 50
247.618843
 51
273.331791
  0
ARC
  5
9B
  8
0
 10
133.84087
 20
118.312863
 30
0.0
 40
6.243738
 50
26.668209
 51
52.381157
  0
ARC
  5
9C
  8
0
 10
133.254562
 20
123.507834
 30
0.0
 40
6.613797
 50
321.208598
 51
338.791402
  0
ARC
  5
9D
  8
0
 10
132.446385
 20
113.781898
 30
0.0
 40
6.848065
 50
61.924817
 51
78.496984
  0
ARC
  5
9E
  8
0
 10
143.377092
 20
121.932757
 30
0.0
 40
12.992003
 50
200.262598
 51
209.264698
  0
ARC
  5
9F
  8
0
 10
138.514699
 20
126.011947
 30
0.0
 40
2.660126
 50
150.233632
 51
208.320834
  0
ARC
  5
A0
  8
0
 10
138.38333
 20
126.14759
 30
0.0
 40
2.475913
 50
108.277306
 51
151.44757
  0
ARC
  5
A1
  8
0
 10
139.82042
 20
134.743133
 30
0.0
 40
6.243738
 50
267.618843
 51
293.331791
  0
ARC
  5
A2
  8
0
 10
138.359753
 20
126.459279
 30
0.0
 40
6.243738
 50
46.668209
 51
72.381157
  0
ARC
  5
A3
  8
0
 10
136.032018
 20
131.140426
 30
0.0
 40
6.613797
 50
341.208598
 51
358.791402
  0
ARC
  5
A4
  8
0
 10
138.599047
 20
121.724623
 30
0.0
 40
6.848065
 50
81.924817
 51
98.496984
  0
ARC
  5
A5
  8
0
 10
146.082794
 20
133.122448
 30
0.0
 40
12.992003
 50
220.262598
 51
229.264698
  0
ARC
  5
A6
  8
0
 10
140.118474
 20
135.292595
 30
0.0
 40
2.660126
 50
170.233632
 51
228.320834
  0
ARC
  5
A7
  8
0
 10
139.948634
 20
135.375127
 30
0.0
 40
2.475913
 50
128.277306
 51
171.44757
  0
ARC
  5
A8
  8
0
 10
138.359208
 20
143.94381
 30
0.0
 40
6.243738
 50
287.618843
 51
313.331791
  0
ARC
  5
A9
  8
0
 10
139.819875
 20
135.659955
 30
0.0
 40
6.243738
 50
66.668209
 51
92.381157
  0
ARC
  5
AA
  8
0
 10
136.031474
 20
139.262663
 30
0.0
 40
6.613797
 50
1.208598
 51
18.791402
  0
ARC
  5
AB
  8
0
 10
141.664086
 20
131.292677
 30
0.0
 40
6.848065
 50
101.924817
 51
118.496984
  0
ARC
  5
AC
  8
0
 10
144.798222
 20
144.562721
 30
0.0
 40
12.992003
 50
240.262598
 51
249.264698
  0
ARC
  5
AD
  8
0
 10
138.451361
 20
144.562075
 30
0.0
 40
2.660126
 50
190.233632
 51
248.320834
  0
ARC
  5
AE
  8
0
 10
138.263536
 20
144.581541
 30
0.0
 40
2.475913
 50
148.277306
 51
191.44757
  0
ARC
  5
AF
  8
0
 10
133.839302
 20
152.089853
 30
0.0
 40
6.243738
 50
307.618843
 51
333.331791
  0
ARC
  5
B0
  8
0
 10
138.045125
 20
144.805154
 30
0.0
 40
6.243738
 50
86.668209
 51
112.381157
  0
ARC
  5
B1
  8
0
 10
133.252994
 20
146.894882
 30
0.0
 40
6.613797
 50
21.208598
 51
38.791402
  0
ARC
  5
B2
  8
0
 10
141.271813
 20
141.332013
 30
0.0
 40
6.848065
 50
121.924817
 51
138.496984
  0
ARC
  5
B3
  8
0
 10
139.678315
 20
154.873712
 30
0.0
 40
12.992003
 50
260.262598
 51
269.264698
  0
ARC
  5
B4
  8
0
 10
133.714437
 20
152.702351
 30
0.0
 40
2.660126
 50
210.233632
 51
268.320834
  0
ARC
  5
B5
  8
0
 10
133.531282
 20
152.656403
 30
0.0
 40
2.475913
 50
168.277306
 51
211.44757
  0
ARC
  5
B6
  8
0
 10
126.805868
 20
158.198732
 30
0.0
 40
6.243738
 50
327.618843
 51
353.331791
  0
ARC
  5
B7
  8
0
 10
133.249563
 20
152.79183
 30
0.0
 40
6.243738
 50
106.668209
 51
132.381157
  0
ARC
  5
B8
  8
0
 10
128.031703
 20
153.116526
 30
0.0
 40
6.613797
 50
41.208598
 51
58.791402
  0
ARC
  5
B9
  8
0
 10
137.469542
 20
150.631736
 30
0.0
 40
6.848065
 50
141.924817
 51
158.496984
  0
ARC
  5
BA
  8
0
 10
131.34061
 20
162.811763
 30
0.0
 40
12.992003
 50
280.262598
 51
289.264698
  0
ARC
  5
BB
  8
0
 10
126.479047
 20
158.731585
 30
0.0
 40
2.660126
 50
230.233632
 51
288.320834
  0
ARC
  5
BC
  8
0
 10
126.322653
 20
158.625765
 30
0.0
 40
2.475913
 50
188.277306
 51
231.44757
  0
ARC
  5
BD
  8
0
 10
118.107243
 20
161.533623
 30
0.0
 40
6.243738
 50
347.618843
 51
13.331791
  0
ARC
  5
BE
  8
0
 10
126.011605
 20
158.656671
 30
0.0
 40
6.243738
 50
126.668209
 51
152.381157
  0
ARC
  5
BF
  8
0
 10
120.997368
 20
157.177173
 30
0.0
 40
6.613797
 50
61.208598
 51
78.791402
  0
ARC
  5
C0
  8
0
 10
130.715883
 20
158.070165
 30
0.0
 40
6.848065
 50
161.924817
 51
178.496984
  0
ARC
  5
C1
  8
0
 10
120.790757
 20
167.419428
 30
0.0
 40
12.992003
 50
300.262598
 51
309.264698
  0
LINE
  5
C2
  8
1
 10
113.0
 20
100.7
 30
0.0
 11
113.0
 21
172.2
 31
0.0
  0
LINE
  5
C3
  8
1
 10
73.5
 20
135.2
 30
0.0
 11
151.5
 21
135.2
 31
0.0
  0
ARC
  5
C4
  8
0
 10
327.014699
 20
126.011947
 30
0.0
 40
2.660126
 50
150.233632
 51
208.320834
  0
ARC
  5
C5
  8
0
 10
276.048639
 20
125.837925
 30
0.0
 40
2.660126
 50
10.233632
 51
68.320834
  0
CIRCLE
  5
C6
  8
0
 10
301.5
 20
135.2
 30
0.0
 40
10.0
  0
CIRCLE
  5
C7
  8
0
 10
301.5
 20
135.2
 30
0.0
 40
10.5
  0
CIRCLE
  5
C8
  8
0
 10
301.5
 20
135.2
 30
0.0
 40
21.0
  0
CIRCLE
  5
C9
  8
0
 10
301.5
 20
135.2
 30
0.0
 40
20.5
  0
CIRCLE
  5
CA
  8
0
 10
301.5
 20
135.2
 30
0.0
 40
18.5
  0
CIRCLE
  5
CB
  8
0
 10
301.5
 20
135.2
 30
0.0
 40
13.5
  0
LINE
  5
CC
  8
1
 10
301.5
 20
100.7
 30
0.0
 11
301.5
 21
172.2
 31
0.0
  0
ARC
  5
CD
  8
0
 10
312.448202
 20
108.422512
 30
0.0
 40
6.848065
 50
41.924817
 51
58.496984
  0
ARC
  5
CE
  8
0
 10
288.020953
 20
111.668415
 30
0.0
 40
2.660126
 50
50.233632
 51
108.320834
  0
ARC
  5
CF
  8
0
 10
277.030458
 20
119.768264
 30
0.0
 40
6.848065
 50
321.924817
 51
338.496984
  0
ARC
  5
D0
  8
0
 10
281.250437
 20
117.60817
 30
0.0
 40
6.243738
 50
286.668209
 51
312.381157
  0
ARC
  5
D1
  8
0
 10
287.694132
 20
112.201268
 30
0.0
 40
6.243738
 50
147.618843
 51
173.331791
  0
ARC
  5
D2
  8
0
 10
286.468297
 20
117.283474
 30
0.0
 40
6.613797
 50
221.208598
 51
238.791402
  0
ARC
  5
D3
  8
0
 10
293.709243
 20
102.980572
 30
0.0
 40
12.992003
 50
120.262598
 51
129.264698
  0
ARC
  5
D4
  8
0
 10
283.15939
 20
107.588237
 30
0.0
 40
12.992003
 50
100.262598
 51
109.264698
  0
ARC
  5
D5
  8
0
 10
280.660698
 20
118.310147
 30
0.0
 40
6.243738
 50
127.618843
 51
153.331791
  0
ARC
  5
D6
  8
0
 10
276.454875
 20
125.594846
 30
0.0
 40
6.243738
 50
266.668209
 51
292.381157
  0
ARC
  5
D7
  8
0
 10
281.247006
 20
123.505118
 30
0.0
 40
6.613797
 50
201.208598
 51
218.791402
  0
ARC
  5
D8
  8
0
 10
273.228187
 20
129.067987
 30
0.0
 40
6.848065
 50
301.924817
 51
318.496984
  0
ARC
  5
D9
  8
0
 10
276.236464
 20
125.818459
 30
0.0
 40
2.475913
 50
328.277306
 51
11.44757
  0
ARC
  5
DA
  8
0
 10
280.785563
 20
117.697649
 30
0.0
 40
2.660126
 50
30.233632
 51
88.320834
  0
ARC
  5
DB
  8
0
 10
280.968718
 20
117.743597
 30
0.0
 40
2.475913
 50
348.277306
 51
31.44757
  0
LINE
  5
DC
  8
1
 10
301.5
 20
113.2
 30
0.0
 11
301.5
 21
101.2
 31
0.0
  0
ARC
  5
DD
  8
0
 10
305.707391
 20
108.707708
 30
0.0
 40
6.243738
 50
187.618843
 51
213.331791
  0
ARC
  5
DE
  8
0
 10
297.295745
 20
108.707708
 30
0.0
 40
6.243738
 50
326.668209
 51
352.381157
  0
ARC
  5
DF
  8
0
 10
301.501568
 20
111.812952
 30
0.0
 40
6.613797
 50
261.208598
 51
278.791402
  0
ARC
  5
E0
  8
0
 10
296.882115
 20
108.477438
 30
0.0
 40
2.660126
 50
70.233632
 51
128.320834
  0
ARC
  5
E1
  8
0
 10
283.784117
 20
112.329835
 30
0.0
 40
6.848065
 50
341.924817
 51
358.496984
  0
ARC
  5
E2
  8
0
 10
293.502632
 20
113.222827
 30
0.0
 40
6.613797
 50
241.208598
 51
258.791402
  0
ARC
  5
E3
  8
0
 10
296.392757
 20
108.866377
 30
0.0
 40
6.243738
 50
167.618843
 51
193.331791
  0
ARC
  5
E4
  8
0
 10
305.198777
 20
102.259045
 30
0.0
 40
12.992003
 50
140.262598
 51
149.264698
  0
ARC
  5
E5
  8
0
 10
288.488395
 20
111.743329
 30
0.0
 40
6.243738
 50
306.668209
 51
332.381157
  0
ARC
  5
E6
  8
0
 10
288.177347
 20
111.774235
 30
0.0
 40
2.475913
 50
8.277306
 51
51.44757
  0
ARC
  5
E7
  8
0
 10
296.992885
 20
108.630365
 30
0.0
 40
2.475913
 50
28.277306
 51
71.44757
  0
ARC
  5
E8
  8
0
 10
292.674572
 20
107.649886
 30
0.0
 40
6.848065
 50
1.924817
 51
18.496984
  0
ARC
  5
E9
  8
0
 10
314.514552
 20
111.744402
 30
0.0
 40
6.243738
 50
207.618843
 51
233.331791
  0
ARC
  5
EA
  8
0
 10
306.300262
 20
108.509595
 30
0.0
 40
2.660126
 50
90.233632
 51
148.320834
  0
ARC
  5
EB
  8
0
 10
306.352048
 20
108.691186
 30
0.0
 40
2.475913
 50
48.277306
 51
91.44757
  0
ARC
  5
EC
  8
0
 10
316.242184
 20
105.510684
 30
0.0
 40
12.992003
 50
160.262598
 51
169.264698
  0
ARC
  5
ED
  8
0
 10
302.629505
 20
106.292887
 30
0.0
 40
6.848065
 50
21.924817
 51
38.496984
  0
ARC
  5
EE
  8
0
 10
325.507465
 20
112.343293
 30
0.0
 40
12.992003
 50
180.262598
 51
189.264698
  0
ARC
  5
EF
  8
0
 10
309.500315
 20
113.2239
 30
0.0
 40
6.613797
 50
281.208598
 51
298.791402
  0
ARC
  5
F0
  8
0
 10
306.61019
 20
108.867449
 30
0.0
 40
6.243738
 50
346.668209
 51
12.381157
  0
ARC
  5
F1
  8
0
 10
315.139427
 20
111.76101
 30
0.0
 40
2.660126
 50
110.233632
 51
168.320834
  0
ARC
  5
F2
  8
0
 10
315.125982
 20
111.949362
 30
0.0
 40
2.475913
 50
68.277306
 51
111.44757
  0
ARC
  5
F3
  8
0
 10
331.877092
 20
121.932757
 30
0.0
 40
12.992003
 50
200.262598
 51
209.264698
  0
ARC
  5
F4
  8
0
 10
315.308271
 20
112.203284
 30
0.0
 40
6.243738
 50
6.668209
 51
32.381157
  0
ARC
  5
F5
  8
0
 10
316.534106
 20
117.28549
 30
0.0
 40
6.613797
 50
301.208598
 51
318.791402
  0
ARC
  5
F6
  8
0
 10
321.751965
 20
117.610186
 30
0.0
 40
6.243738
 50
227.618843
 51
253.331791
  0
ARC
  5
F7
  8
0
 10
326.546693
 20
125.597562
 30
0.0
 40
6.243738
 50
247.618843
 51
273.331791
  0
ARC
  5
F8
  8
0
 10
334.582794
 20
133.122448
 30
0.0
 40
12.992003
 50
220.262598
 51
229.264698
  0
ARC
  5
F9
  8
0
 10
322.256421
 20
118.011907
 30
0.0
 40
2.475913
 50
88.277306
 51
131.44757
  0
ARC
  5
FA
  8
0
 10
322.333475
 20
117.839513
 30
0.0
 40
2.660126
 50
130.233632
 51
188.320834
  0
ARC
  5
FB
  8
0
 10
320.946385
 20
113.781898
 30
0.0
 40
6.848065
 50
61.924817
 51
78.496984
  0
ARC
  5
FC
  8
0
 10
322.34087
 20
118.312863
 30
0.0
 40
6.243738
 50
26.668209
 51
52.381157
  0
ARC
  5
FD
  8
0
 10
321.754562
 20
123.507834
 30
0.0
 40
6.613797
 50
321.208598
 51
338.791402
  0
ARC
  5
FE
  8
0
 10
309.290757
 20
167.419428
 30
0.0
 40
12.992003
 50
300.262598
 51
309.264698
  0
LINE
  5
FF
  8
1
 10
262.0
 20
135.2
 30
0.0
 11
340.0
 21
135.2
 31
0.0
  0
ARC
  5
100
  8
0
 10
287.874018
 20
158.450638
 30
0.0
 40
2.475913
 50
248.277306
 51
291.44757
  0
ARC
  5
101
  8
0
 10
280.65913
 20
152.087137
 30
0.0
 40
6.243738
 50
206.668209
 51
232.381157
  0
ARC
  5
102
  8
0
 10
274.67958
 20
135.656867
 30
0.0
 40
6.243738
 50
87.618843
 51
113.331791
  0
ARC
  5
103
  8
0
 10
276.140792
 20
126.45619
 30
0.0
 40
6.243738
 50
107.618843
 51
133.331791
  0
ARC
  5
104
  8
0
 10
274.680125
 20
134.740045
 30
0.0
 40
6.243738
 50
246.668209
 51
272.381157
  0
ARC
  5
105
  8
0
 10
276.140247
 20
143.940721
 30
0.0
 40
6.243738
 50
226.668209
 51
252.381157
  0
ARC
  5
106
  8
0
 10
278.468526
 20
131.137337
 30
0.0
 40
6.613797
 50
181.208598
 51
198.791402
  0
ARC
  5
107
  8
0
 10
278.467982
 20
139.259574
 30
0.0
 40
6.613797
 50
161.208598
 51
178.791402
  0
ARC
  5
108
  8
0
 10
274.381526
 20
135.107405
 30
0.0
 40
2.660126
 50
350.233632
 51
48.320834
  0
ARC
  5
109
  8
0
 10
274.821685
 20
115.526288
 30
0.0
 40
12.992003
 50
80.262598
 51
89.264698
  0
ARC
  5
10A
  8
0
 10
274.551366
 20
135.024873
 30
0.0
 40
2.475913
 50
308.277306
 51
351.44757
  0
ARC
  5
10B
  8
0
 10
272.835914
 20
139.107323
 30
0.0
 40
6.848065
 50
281.924817
 51
298.496984
  0
ARC
  5
10C
  8
0
 10
276.11667
 20
144.25241
 30
0.0
 40
2.475913
 50
288.277306
 51
331.44757
  0
ARC
  5
10D
  8
0
 10
275.900953
 20
148.675377
 30
0.0
 40
6.848065
 50
261.924817
 51
278.496984
  0
ARC
  5
10E
  8
0
 10
269.701778
 20
125.837279
 30
0.0
 40
12.992003
 50
60.262598
 51
69.264698
  0
ARC
  5
10F
  8
0
 10
268.417206
 20
137.277552
 30
0.0
 40
12.992003
 50
40.262598
 51
49.264698
  0
ARC
  5
110
  8
0
 10
275.985301
 20
144.388053
 30
0.0
 40
2.660126
 50
330.233632
 51
28.320834
  0
ARC
  5
111
  8
0
 10
286.465894
 20
153.11451
 30
0.0
 40
6.613797
 50
121.208598
 51
138.791402
  0
ARC
  5
112
  8
0
 10
281.248035
 20
152.789814
 30
0.0
 40
6.243738
 50
47.618843
 51
73.331791
  0
ARC
  5
113
  8
0
 10
280.743579
 20
152.388093
 30
0.0
 40
2.475913
 50
268.277306
 51
311.44757
  0
ARC
  5
114
  8
0
 10
276.453307
 20
144.802438
 30
0.0
 40
6.243738
 50
67.618843
 51
93.331791
  0
ARC
  5
115
  8
0
 10
281.245438
 20
146.892166
 30
0.0
 40
6.613797
 50
141.208598
 51
158.791402
  0
ARC
  5
116
  8
0
 10
282.053615
 20
156.618102
 30
0.0
 40
6.848065
 50
241.924817
 51
258.496984
  0
ARC
  5
117
  8
0
 10
280.666525
 20
152.560487
 30
0.0
 40
2.660126
 50
310.233632
 51
8.320834
  0
ARC
  5
118
  8
0
 10
287.691729
 20
158.196716
 30
0.0
 40
6.243738
 50
186.668209
 51
212.381157
  0
ARC
  5
119
  8
0
 10
271.122908
 20
148.467243
 30
0.0
 40
12.992003
 50
20.262598
 51
29.264698
  0
ARC
  5
11A
  8
0
 10
290.551798
 20
161.977488
 30
0.0
 40
6.848065
 50
221.924817
 51
238.496984
  0
ARC
  5
11B
  8
0
 10
297.292609
 20
161.692292
 30
0.0
 40
6.243738
 50
7.618843
 51
33.331791
  0
ARC
  5
11C
  8
0
 10
287.860573
 20
158.63899
 30
0.0
 40
2.660126
 50
290.233632
 51
348.320834
  0
ARC
  5
11D
  8
0
 10
296.647952
 20
161.708814
 30
0.0
 40
2.475913
 50
228.277306
 51
271.44757
  0
ARC
  5
11E
  8
0
 10
288.485448
 20
158.655598
 30
0.0
 40
6.243738
 50
27.618843
 51
53.331791
  0
ARC
  5
11F
  8
0
 10
296.38981
 20
161.532551
 30
0.0
 40
6.243738
 50
166.668209
 51
192.381157
  0
ARC
  5
120
  8
0
 10
277.492535
 20
158.056707
 30
0.0
 40
12.992003
 50
0.262598
 51
9.264698
  0
ARC
  5
121
  8
0
 10
300.370495
 20
164.107113
 30
0.0
 40
6.848065
 50
201.924817
 51
218.496984
  0
ARC
  5
122
  8
0
 10
293.499685
 20
157.1761
 30
0.0
 40
6.613797
 50
101.208598
 51
118.791402
  0
ARC
  5
123
  8
0
 10
305.704255
 20
161.692292
 30
0.0
 40
6.243738
 50
146.668209
 51
172.381157
  0
ARC
  5
124
  8
0
 10
286.757816
 20
164.889316
 30
0.0
 40
12.992003
 50
340.262598
 51
349.264698
  0
ARC
  5
125
  8
0
 10
296.699738
 20
161.890405
 30
0.0
 40
2.660126
 50
270.233632
 51
328.320834
  0
ARC
  5
126
  8
0
 10
301.498432
 20
158.587048
 30
0.0
 40
6.613797
 50
81.208598
 51
98.791402
  0
ARC
  5
127
  8
0
 10
314.822653
 20
158.625765
 30
0.0
 40
2.475913
 50
188.277306
 51
231.44757
  0
ARC
  5
128
  8
0
 10
314.979047
 20
158.731585
 30
0.0
 40
2.660126
 50
230.233632
 51
288.320834
  0
ARC
  5
129
  8
0
 10
314.511605
 20
158.656671
 30
0.0
 40
6.243738
 50
126.668209
 51
152.381157
  0
ARC
  5
12A
  8
0
 10
306.117885
 20
161.922562
 30
0.0
 40
2.660126
 50
250.233632
 51
308.320834
  0
ARC
  5
12B
  8
0
 10
310.325428
 20
162.750114
 30
0.0
 40
6.848065
 50
181.924817
 51
198.496984
  0
ARC
  5
12C
  8
0
 10
306.007115
 20
161.769635
 30
0.0
 40
2.475913
 50
208.277306
 51
251.44757
  0
ARC
  5
12D
  8
0
 10
297.801223
 20
168.140955
 30
0.0
 40
12.992003
 50
320.262598
 51
329.264698
  0
ARC
  5
12E
  8
0
 10
306.607243
 20
161.533623
 30
0.0
 40
6.243738
 50
347.618843
 51
13.331791
  0
ARC
  5
12F
  8
0
 10
319.215883
 20
158.070165
 30
0.0
 40
6.848065
 50
161.924817
 51
178.496984
  0
ARC
  5
130
  8
0
 10
309.497368
 20
157.177173
 30
0.0
 40
6.613797
 50
61.208598
 51
78.791402
  0
ARC
  5
131
  8
0
 10
322.339302
 20
152.089853
 30
0.0
 40
6.243738
 50
307.618843
 51
333.331791
  0
ARC
  5
132
  8
0
 10
328.448634
 20
135.375127
 30
0.0
 40
2.475913
 50
128.277306
 51
171.44757
  0
ARC
  5
133
  8
0
 10
326.88333
 20
126.14759
 30
0.0
 40
2.475913
 50
108.277306
 51
151.44757
  0
ARC
  5
134
  8
0
 10
326.859753
 20
126.459279
 30
0.0
 40
6.243738
 50
46.668209
 51
72.381157
  0
ARC
  5
135
  8
0
 10
328.32042
 20
134.743133
 30
0.0
 40
6.243738
 50
267.618843
 51
293.331791
  0
ARC
  5
136
  8
0
 10
327.099047
 20
121.724623
 30
0.0
 40
6.848065
 50
81.924817
 51
98.496984
  0
ARC
  5
137
  8
0
 10
324.532018
 20
131.140426
 30
0.0
 40
6.613797
 50
341.208598
 51
358.791402
  0
ARC
  5
138
  8
0
 10
333.298222
 20
144.562721
 30
0.0
 40
12.992003
 50
240.262598
 51
249.264698
  0
ARC
  5
139
  8
0
 10
328.618474
 20
135.292595
 30
0.0
 40
2.660126
 50
170.233632
 51
228.320834
  0
ARC
  5
13A
  8
0
 10
326.951361
 20
144.562075
 30
0.0
 40
2.660126
 50
190.233632
 51
248.320834
  0
ARC
  5
13B
  8
0
 10
329.771813
 20
141.332013
 30
0.0
 40
6.848065
 50
121.924817
 51
138.496984
  0
ARC
  5
13C
  8
0
 10
326.763536
 20
144.581541
 30
0.0
 40
2.475913
 50
148.277306
 51
191.44757
  0
ARC
  5
13D
  8
0
 10
328.319875
 20
135.659955
 30
0.0
 40
6.243738
 50
66.668209
 51
92.381157
  0
ARC
  5
13E
  8
0
 10
330.164086
 20
131.292677
 30
0.0
 40
6.848065
 50
101.924817
 51
118.496984
  0
ARC
  5
13F
  8
0
 10
328.178315
 20
154.873712
 30
0.0
 40
12.992003
 50
260.262598
 51
269.264698
  0
ARC
  5
140
  8
0
 10
324.531474
 20
139.262663
 30
0.0
 40
6.613797
 50
1.208598
 51
18.791402
  0
ARC
  5
141
  8
0
 10
326.859208
 20
143.94381
 30
0.0
 40
6.243738
 50
287.618843
 51
313.331791
  0
ARC
  5
142
  8
0
 10
321.749563
 20
152.79183
 30
0.0
 40
6.243738
 50
106.668209
 51
132.381157
  0
ARC
  5
143
  8
0
 10
316.531703
 20
153.116526
 30
0.0
 40
6.613797
 50
41.208598
 51
58.791402
  0
ARC
  5
144
  8
0
 10
326.545125
 20
144.805154
 30
0.0
 40
6.243738
 50
86.668209
 51
112.381157
  0
ARC
  5
145
  8
0
 10
322.031282
 20
152.656403
 30
0.0
 40
2.475913
 50
168.277306
 51
211.44757
  0
ARC
  5
146
  8
0
 10
322.214437
 20
152.702351
 30
0.0
 40
2.660126
 50
210.233632
 51
268.320834
  0
ARC
  5
147
  8
0
 10
319.84061
 20
162.811763
 30
0.0
 40
12.992003
 50
280.262598
 51
289.264698
  0
ARC
  5
148
  8
0
 10
315.305868
 20
158.198732
 30
0.0
 40
6.243738
 50
327.618843
 51
353.331791
  0
ARC
  5
149
  8
0
 10
325.969542
 20
150.631736
 30
0.0
 40
6.848065
 50
141.924817
 51
158.496984
  0
ARC
  5
14A
  8
0
 10
321.752994
 20
146.894882
 30
0.0
 40
6.613797
 50
21.208598
 51
38.791402
  0
LINE
  5
14B
  8
1
 10
206.2
 20
172.7
 30
0.0
 11
206.2
 21
135.2
 31
0.0
  0
LINE
  5
14C
  8
1
 10
190.2
 20
135.2
 30
0.0
 11
206.2
 21
135.2
 31
0.0
  0
LINE
  5
14D
  8
0
 10
200.2
 20
135.2
 30
0.0
 11
200.2
 21
155.2
 31
0.0
  0
LINE
  5
14E
  8
0
 10
201.2
 20
156.2
 30
0.0
 11
204.0
 21
156.2
 31
0.0
  0
LINE
  5
14F
  8
0
 10
204.0
 20
135.2
 30
0.0
 11
204.0
 21
160.7
 31
0.0
  0
LINE
  5
150
  8
2
 10
201.2
 20
145.2
 30
0.0
 11
206.2
 21
145.2
 31
0.0
  0
ARC
  5
151
  8
2
 10
201.362933
 20
146.362933
 30
0.0
 40
1.174291
 50
187.975518
 51
262.024482
  0
ARC
  5
152
  8
0
 10
201.292724
 20
155.107276
 30
0.0
 40
1.096651
 50
94.850266
 51
175.149734
  0
ARC
  5
153
  8
0
 10
211.503846
 20
161.108974
 30
0.0
 40
7.514983
 50
147.01752
 51
183.119646
  0
LINE
  5
154
  8
0
 10
205.2
 20
163.7
 30
0.0
 11
206.2
 21
163.7
 31
0.0
  0
LINE
  5
155
  8
0
 10
205.2
 20
163.2
 30
0.0
 11
206.2
 21
163.2
 31
0.0
  0
LINE
  5
156
  8
0
 10
205.2
 20
158.7
 30
0.0
 11
206.2
 21
158.7
 31
0.0
  0
LINE
  5
157
  8
0
 10
205.2
 20
156.7
 30
0.0
 11
206.2
 21
156.7
 31
0.0
  0
LINE
  5
158
  8
0
 10
205.2
 20
151.2
 30
0.0
 11
206.2
 21
151.2
 31
0.0
  0
LINE
  5
159
  8
0
 10
205.2
 20
149.2
 30
0.0
 11
206.2
 21
149.2
 31
0.0
  0
LINE
  5
15A
  8
0
 10
205.2
 20
141.7
 30
0.0
 11
206.2
 21
141.7
 31
0.0
  0
LINE
  5
15B
  8
0
 10
205.2
 20
139.2
 30
0.0
 11
206.2
 21
139.2
 31
0.0
  0
LINE
  5
15C
  8
0
 10
206.2
 20
165.2
 30
0.0
 11
205.2
 21
165.2
 31
0.0
  0
ARC
  5
15D
  8
0
 10
212.883333
 20
159.233333
 30
0.0
 40
8.887335
 50
149.82864
 51
178.280568
  0
ARC
  5
15E
  8
0
 10
217.488333
 20
159.636667
 30
0.0
 40
13.489026
 50
155.642171
 51
180.580513
  0
ARC
  5
15F
  8
0
 10
209.196429
 20
155.092857
 30
0.0
 40
5.383579
 50
137.930856
 51
164.848225
  0
ARC
  5
160
  8
0
 10
226.336932
 20
155.956818
 30
0.0
 40
22.343535
 50
161.084491
 51
178.606976
  0
ARC
  5
161
  8
0
 10
204.69375
 20
150.025
 30
0.0
 40
1.279419
 50
66.691155
 51
122.836129
  0
ARC
  5
162
  8
0
 10
217.744444
 20
151.083333
 30
0.0
 40
13.744455
 50
155.879963
 51
179.930523
  0
LINE
  5
163
  8
0
 10
205.2
 20
163.7
 30
0.0
 11
205.2
 21
163.2
 31
0.0
  0
LINE
  5
164
  8
0
 10
205.2
 20
158.7
 30
0.0
 11
205.2
 21
156.7
 31
0.0
  0
LINE
  5
165
  8
0
 10
205.2
 20
151.2
 30
0.0
 11
205.2
 21
149.2
 31
0.0
  0
ARC
  5
166
  8
0
 10
203.65
 20
140.45
 30
0.0
 40
1.991231
 50
38.884496
 51
61.504361
  0
ARC
  5
167
  8
0
 10
205.321429
 20
143.321429
 30
0.0
 40
1.33344
 50
172.303948
 51
237.246333
  0
ARC
  5
168
  8
0
 10
216.322222
 20
142.772222
 30
0.0
 40
12.343696
 50
158.979152
 51
176.619911
  0
ARC
  5
169
  8
0
 10
193.25
 20
150.55
 30
0.0
 40
12.026013
 50
343.825553
 51
353.554582
  0
LINE
  5
16A
  8
0
 10
205.2
 20
141.7
 30
0.0
 11
205.2
 21
139.2
 31
0.0
  0
ARC
  5
16B
  8
0
 10
202.05
 20
141.25
 30
0.0
 40
3.758324
 50
310.683972
 51
326.944177
  0
ARC
  5
16C
  8
0
 10
204.95
 20
137.75
 30
0.0
 40
0.790569
 50
124.695154
 51
161.565051
  0
ARC
  5
16D
  8
0
 10
218.9
 20
135.542857
 30
0.0
 40
14.903944
 50
170.510592
 51
181.318175
  0
ARC
  5
16E
  8
0
 10
219.15
 20
150.55
 30
0.0
 40
12.026013
 50
186.445418
 51
196.174447
  0
LINE
  5
16F
  8
0
 10
208.4
 20
135.2
 30
0.0
 11
208.4
 21
160.7
 31
0.0
  0
LINE
  5
170
  8
0
 10
212.2
 20
135.2
 30
0.0
 11
212.2
 21
155.2
 31
0.0
  0
LINE
  5
171
  8
1
 10
222.2
 20
135.2
 30
0.0
 11
206.2
 21
135.2
 31
0.0
  0
LINE
  5
172
  8
2
 10
211.2
 20
145.2
 30
0.0
 11
206.2
 21
145.2
 31
0.0
  0
ARC
  5
173
  8
2
 10
211.037067
 20
146.362933
 30
0.0
 40
1.174291
 50
277.975518
 51
352.024482
  0
ARC
  5
174
  8
0
 10
193.5
 20
135.542857
 30
0.0
 40
14.903944
 50
358.681825
 51
9.489408
  0
ARC
  5
175
  8
0
 10
207.078571
 20
143.321429
 30
0.0
 40
1.33344
 50
302.753667
 51
7.696052
  0
ARC
  5
176
  8
0
 10
208.75
 20
140.45
 30
0.0
 40
1.991231
 50
118.495639
 51
141.115504
  0
ARC
  5
177
  8
0
 10
207.45
 20
137.75
 30
0.0
 40
0.790569
 50
18.434949
 51
55.304846
  0
ARC
  5
178
  8
0
 10
210.35
 20
141.25
 30
0.0
 40
3.758324
 50
213.055823
 51
229.316028
  0
LINE
  5
179
  8
0
 10
207.2
 20
141.7
 30
0.0
 11
207.2
 21
139.2
 31
0.0
  0
LINE
  5
17A
  8
0
 10
207.2
 20
139.2
 30
0.0
 11
206.2
 21
139.2
 31
0.0
  0
LINE
  5
17B
  8
0
 10
207.2
 20
141.7
 30
0.0
 11
206.2
 21
141.7
 31
0.0
  0
ARC
  5
17C
  8
0
 10
196.077778
 20
142.772222
 30
0.0
 40
12.343696
 50
3.380089
 51
21.020848
  0
LINE
  5
17D
  8
0
 10
211.2
 20
156.2
 30
0.0
 11
208.4
 21
156.2
 31
0.0
  0
ARC
  5
17E
  8
0
 10
211.107276
 20
155.107276
 30
0.0
 40
1.096651
 50
4.850266
 51
85.149734
  0
LINE
  5
17F
  8
0
 10
207.2
 20
158.7
 30
0.0
 11
207.2
 21
156.7
 31
0.0
  0
ARC
  5
180
  8
0
 10
186.063068
 20
155.956818
 30
0.0
 40
22.343535
 50
1.393024
 51
18.915509
  0
ARC
  5
181
  8
0
 10
203.203571
 20
155.092857
 30
0.0
 40
5.383579
 50
15.151775
 51
42.069144
  0
ARC
  5
182
  8
0
 10
194.655556
 20
151.083333
 30
0.0
 40
13.744455
 50
0.069477
 51
24.120037
  0
LINE
  5
183
  8
0
 10
207.2
 20
151.2
 30
0.0
 11
207.2
 21
149.2
 31
0.0
  0
ARC
  5
184
  8
0
 10
207.70625
 20
150.025
 30
0.0
 40
1.279419
 50
57.163871
 51
113.308845
  0
LINE
  5
185
  8
0
 10
207.2
 20
149.2
 30
0.0
 11
206.2
 21
149.2
 31
0.0
  0
LINE
  5
186
  8
0
 10
207.2
 20
151.2
 30
0.0
 11
206.2
 21
151.2
 31
0.0
  0
LINE
  5
187
  8
0
 10
207.2
 20
156.7
 30
0.0
 11
206.2
 21
156.7
 31
0.0
  0
ARC
  5
188
  8
0
 10
194.911667
 20
159.636667
 30
0.0
 40
13.489026
 50
359.419487
 51
24.357829
  0
ARC
  5
189
  8
0
 10
199.516667
 20
159.233333
 30
0.0
 40
8.887335
 50
1.719432
 51
30.17136
  0
ARC
  5
18A
  8
0
 10
200.896154
 20
161.108974
 30
0.0
 40
7.514983
 50
356.880354
 51
32.98248
  0
LINE
  5
18B
  8
0
 10
207.2
 20
158.7
 30
0.0
 11
206.2
 21
158.7
 31
0.0
  0
LINE
  5
18C
  8
0
 10
207.2
 20
163.7
 30
0.0
 11
207.2
 21
163.2
 31
0.0
  0
LINE
  5
18D
  8
0
 10
207.2
 20
163.2
 30
0.0
 11
206.2
 21
163.2
 31
0.0
  0
LINE
  5
18E
  8
0
 10
207.2
 20
163.7
 30
0.0
 11
206.2
 21
163.7
 31
0.0
  0
LINE
  5
18F
  8
0
 10
206.2
 20
165.2
 30
0.0
 11
207.2
 21
165.2
 31
0.0
  0
LINE
  5
190
  8
1
 10
206.2
 20
97.7
 30
0.0
 11
206.2
 21
135.2
 31
0.0
  0
LINE
  5
191
  8
0
 10
212.2
 20
135.2
 30
0.0
 11
212.2
 21
115.2
 31
0.0
  0
LINE
  5
192
  8
0
 10
208.4
 20
135.2
 30
0.0
 11
208.4
 21
109.7
 31
0.0
  0
ARC
  5
193
  8
0
 10
219.15
 20
119.85
 30
0.0
 40
12.026013
 50
163.825553
 51
173.554582
  0
ARC
  5
194
  8
0
 10
193.25
 20
119.85
 30
0.0
 40
12.026013
 50
6.445418
 51
16.174447
  0
LINE
  5
195
  8
0
 10
204.0
 20
135.2
 30
0.0
 11
204.0
 21
109.7
 31
0.0
  0
LINE
  5
196
  8
0
 10
200.2
 20
135.2
 30
0.0
 11
200.2
 21
115.2
 31
0.0
  0
LINE
  5
197
  8
2
 10
201.2
 20
125.2
 30
0.0
 11
206.2
 21
125.2
 31
0.0
  0
ARC
  5
198
  8
2
 10
201.362933
 20
124.037067
 30
0.0
 40
1.174291
 50
97.975518
 51
172.024482
  0
ARC
  5
199
  8
0
 10
193.5
 20
134.857143
 30
0.0
 40
14.903944
 50
350.510592
 51
1.318175
  0
ARC
  5
19A
  8
0
 10
218.9
 20
134.857143
 30
0.0
 40
14.903944
 50
178.681825
 51
189.489408
  0
LINE
  5
19B
  8
2
 10
211.2
 20
125.2
 30
0.0
 11
206.2
 21
125.2
 31
0.0
  0
ARC
  5
19C
  8
0
 10
208.75
 20
129.95
 30
0.0
 40
1.991231
 50
218.884496
 51
241.504361
  0
ARC
  5
19D
  8
0
 10
207.078571
 20
127.078571
 30
0.0
 40
1.33344
 50
352.303948
 51
57.246333
  0
ARC
  5
19E
  8
0
 10
205.321429
 20
127.078571
 30
0.0
 40
1.33344
 50
122.753667
 51
187.696052
  0
ARC
  5
19F
  8
0
 10
203.65
 20
129.95
 30
0.0
 40
1.991231
 50
298.495639
 51
321.115504
  0
ARC
  5
1A0
  8
0
 10
210.35
 20
129.15
 30
0.0
 40
3.758324
 50
130.683972
 51
146.944177
  0
LINE
  5
1A1
  8
0
 10
207.2
 20
128.7
 30
0.0
 11
206.2
 21
128.7
 31
0.0
  0
LINE
  5
1A2
  8
0
 10
207.2
 20
131.2
 30
0.0
 11
206.2
 21
131.2
 31
0.0
  0
LINE
  5
1A3
  8
0
 10
207.2
 20
128.7
 30
0.0
 11
207.2
 21
131.2
 31
0.0
  0
ARC
  5
1A4
  8
0
 10
204.95
 20
132.65
 30
0.0
 40
0.790569
 50
198.434949
 51
235.304846
  0
ARC
  5
1A5
  8
0
 10
202.05
 20
129.15
 30
0.0
 40
3.758324
 50
33.055823
 51
49.316028
  0
LINE
  5
1A6
  8
0
 10
205.2
 20
128.7
 30
0.0
 11
205.2
 21
131.2
 31
0.0
  0
LINE
  5
1A7
  8
0
 10
205.2
 20
131.2
 30
0.0
 11
206.2
 21
131.2
 31
0.0
  0
LINE
  5
1A8
  8
0
 10
205.2
 20
128.7
 30
0.0
 11
206.2
 21
128.7
 31
0.0
  0
ARC
  5
1A9
  8
0
 10
207.45
 20
132.65
 30
0.0
 40
0.790569
 50
304.695154
 51
341.565051
  0
ARC
  5
1AA
  8
0
 10
216.322222
 20
127.627778
 30
0.0
 40
12.343696
 50
183.380089
 51
201.020848
  0
ARC
  5
1AB
  8
0
 10
196.077778
 20
127.627778
 30
0.0
 40
12.343696
 50
338.979152
 51
356.619911
  0
ARC
  5
1AC
  8
2
 10
211.037067
 20
124.037067
 30
0.0
 40
1.174291
 50
7.975518
 51
82.024482
  0
LINE
  5
1AD
  8
0
 10
201.2
 20
114.2
 30
0.0
 11
204.0
 21
114.2
 31
0.0
  0
ARC
  5
1AE
  8
0
 10
201.292724
 20
115.292724
 30
0.0
 40
1.096651
 50
184.850266
 51
265.149734
  0
ARC
  5
1AF
  8
0
 10
203.203571
 20
115.307143
 30
0.0
 40
5.383579
 50
317.930856
 51
344.848225
  0
ARC
  5
1B0
  8
0
 10
186.063068
 20
114.443182
 30
0.0
 40
22.343535
 50
341.084491
 51
358.606976
  0
LINE
  5
1B1
  8
0
 10
207.2
 20
111.7
 30
0.0
 11
207.2
 21
113.7
 31
0.0
  0
LINE
  5
1B2
  8
0
 10
205.2
 20
111.7
 30
0.0
 11
205.2
 21
113.7
 31
0.0
  0
ARC
  5
1B3
  8
0
 10
226.336932
 20
114.443182
 30
0.0
 40
22.343535
 50
181.393024
 51
198.915509
  0
ARC
  5
1B4
  8
0
 10
209.196429
 20
115.307143
 30
0.0
 40
5.383579
 50
195.151775
 51
222.069144
  0
LINE
  5
1B5
  8
0
 10
211.2
 20
114.2
 30
0.0
 11
208.4
 21
114.2
 31
0.0
  0
ARC
  5
1B6
  8
0
 10
194.655556
 20
119.316667
 30
0.0
 40
13.744455
 50
335.879963
 51
359.930523
  0
ARC
  5
1B7
  8
0
 10
217.744444
 20
119.316667
 30
0.0
 40
13.744455
 50
180.069477
 51
204.120037
  0
ARC
  5
1B8
  8
0
 10
207.70625
 20
120.375
 30
0.0
 40
1.279419
 50
246.691155
 51
302.836129
  0
LINE
  5
1B9
  8
0
 10
207.2
 20
119.2
 30
0.0
 11
206.2
 21
119.2
 31
0.0
  0
LINE
  5
1BA
  8
0
 10
207.2
 20
121.2
 30
0.0
 11
206.2
 21
121.2
 31
0.0
  0
LINE
  5
1BB
  8
0
 10
207.2
 20
119.2
 30
0.0
 11
207.2
 21
121.2
 31
0.0
  0
LINE
  5
1BC
  8
0
 10
205.2
 20
119.2
 30
0.0
 11
205.2
 21
121.2
 31
0.0
  0
ARC
  5
1BD
  8
0
 10
204.69375
 20
120.375
 30
0.0
 40
1.279419
 50
237.163871
 51
293.308845
  0
LINE
  5
1BE
  8
0
 10
205.2
 20
121.2
 30
0.0
 11
206.2
 21
121.2
 31
0.0
  0
LINE
  5
1BF
  8
0
 10
205.2
 20
119.2
 30
0.0
 11
206.2
 21
119.2
 31
0.0
  0
LINE
  5
1C0
  8
0
 10
207.2
 20
113.7
 30
0.0
 11
206.2
 21
113.7
 31
0.0
  0
LINE
  5
1C1
  8
0
 10
205.2
 20
113.7
 30
0.0
 11
206.2
 21
113.7
 31
0.0
  0
ARC
  5
1C2
  8
0
 10
211.107276
 20
115.292724
 30
0.0
 40
1.096651
 50
274.850266
 51
355.149734
  0
ARC
  5
1C3
  8
0
 10
200.896154
 20
109.291026
 30
0.0
 40
7.514983
 50
327.01752
 51
3.119646
  0
ARC
  5
1C4
  8
0
 10
199.516667
 20
111.166667
 30
0.0
 40
8.887335
 50
329.82864
 51
358.280568
  0
ARC
  5
1C5
  8
0
 10
194.911667
 20
110.763333
 30
0.0
 40
13.489026
 50
335.642171
 51
0.580513
  0
ARC
  5
1C6
  8
0
 10
217.488333
 20
110.763333
 30
0.0
 40
13.489026
 50
179.419487
 51
204.357829
  0
ARC
  5
1C7
  8
0
 10
212.883333
 20
111.166667
 30
0.0
 40
8.887335
 50
181.719432
 51
210.17136
  0
ARC
  5
1C8
  8
0
 10
211.503846
 20
109.291026
 30
0.0
 40
7.514983
 50
176.880354
 51
212.98248
  0
LINE
  5
1C9
  8
0
 10
207.2
 20
111.7
 30
0.0
 11
206.2
 21
111.7
 31
0.0
  0
LINE
  5
1CA
  8
0
 10
205.2
 20
111.7
 30
0.0
 11
206.2
 21
111.7
 31
0.0
  0
LINE
  5
1CB
  8
0
 10
206.2
 20
105.2
 30
0.0
 11
207.2
 21
105.2
 31
0.0
  0
LINE
  5
1CC
  8
0
 10
207.2
 20
106.7
 30
0.0
 11
206.2
 21
106.7
 31
0.0
  0
LINE
  5
1CD
  8
0
 10
207.2
 20
107.2
 30
0.0
 11
206.2
 21
107.2
 31
0.0
  0
LINE
  5
1CE
  8
0
 10
207.2
 20
106.7
 30
0.0
 11
207.2
 21
107.2
 31
0.0
  0
LINE
  5
1CF
  8
0
 10
205.2
 20
106.7
 30
0.0
 11
205.2
 21
107.2
 31
0.0
  0
LINE
  5
1D0
  8
0
 10
205.2
 20
107.2
 30
0.0
 11
206.2
 21
107.2
 31
0.0
  0
LINE
  5
1D1
  8
0
 10
205.2
 20
106.7
 30
0.0
 11
206.2
 21
106.7
 31
0.0
  0
LINE
  5
1D2
  8
0
 10
206.2
 20
105.2
 30
0.0
 11
205.2
 21
105.2
 31
0.0
  0
LINE
  5
1D3
  8
1
 10
206.1
 20
258.8
 30
0.0
 11
206.1
 21
221.3
 31
0.0
  0
LINE
  5
1D4
  8
1
 10
206.1
 20
258.8
 30
0.0
 11
206.1
 21
221.3
 31
0.0
  0
LINE
  5
1D5
  8
1
 10
206.1
 20
13.5
 30
0.0
 11
206.1
 21
51.0
 31
0.0
  0
LINE
  5
1D6
  8
1
 10
206.1
 20
13.5
 30
0.0
 11
206.1
 21
51.0
 31
0.0
  0
LINE
  5
1D7
  8
1
 10
206.1
 20
13.5
 30
0.0
 11
206.1
 21
51.0
 31
0.0
  0
LINE
  5
1D8
  8
1
 10
206.1
 20
13.5
 30
0.0
 11
206.1
 21
51.0
 31
0.0
  0
LINE
  5
1D9
  8
0
 10
212.1
 20
51.2
 30
0.0
 11
212.1
 21
31.2
 31
0.0
  0
LINE
  5
1DA
  8
0
 10
208.3
 20
51.2
 30
0.0
 11
208.3
 21
26.7
 31
0.0
  0
LINE
  5
1DB
  8
0
 10
203.9
 20
51.2
 30
0.0
 11
203.9
 21
26.7
 31
0.0
  0
LINE
  5
1DC
  8
0
 10
200.1
 20
51.2
 30
0.0
 11
200.1
 21
31.2
 31
0.0
  0
ARC
  5
1DD
  8
0
 10
211.885593
 20
46.372034
 30
0.0
 40
7.986618
 50
179.081935
 51
204.185333
  0
ARC
  5
1DE
  8
0
 10
200.314407
 20
46.372034
 30
0.0
 40
7.986618
 50
335.814667
 51
0.918065
  0
ARC
  5
1DF
  8
0
 10
192.896429
 20
27.989286
 30
0.0
 40
15.403969
 50
340.313113
 51
0.41181
  0
ARC
  5
1E0
  8
0
 10
196.794231
 20
26.519231
 30
0.0
 40
11.507189
 50
333.584825
 51
0.90011
  0
ARC
  5
1E1
  8
0
 10
215.405769
 20
26.519231
 30
0.0
 40
11.507189
 50
179.09989
 51
206.415175
  0
ARC
  5
1E2
  8
0
 10
219.303571
 20
27.989286
 30
0.0
 40
15.403969
 50
179.58819
 51
199.686887
  0
LINE
  5
1E3
  8
0
 10
205.1
 20
21.9
 30
0.0
 11
206.1
 21
21.9
 31
0.0
  0
LINE
  5
1E4
  8
0
 10
206.1
 20
21.4
 30
0.0
 11
205.1
 21
21.4
 31
0.0
  0
LINE
  5
1E5
  8
0
 10
205.1
 20
21.4
 30
0.0
 11
205.1
 21
21.5
 31
0.0
  0
ARC
  5
1E6
  8
0
 10
201.65
 20
21.25
 30
0.0
 40
3.510698
 50
10.669783
 51
26.200115
  0
LINE
  5
1E7
  8
0
 10
205.1
 20
21.9
 30
0.0
 11
205.1
 21
21.4
 31
0.0
  0
LINE
  5
1E8
  8
0
 10
206.1
 20
21.4
 30
0.0
 11
207.1
 21
21.4
 31
0.0
  0
LINE
  5
1E9
  8
0
 10
207.1
 20
21.9
 30
0.0
 11
206.1
 21
21.9
 31
0.0
  0
LINE
  5
1EA
  8
0
 10
207.1
 20
21.9
 30
0.0
 11
207.1
 21
21.4
 31
0.0
  0
ARC
  5
1EB
  8
0
 10
210.55
 20
21.25
 30
0.0
 40
3.510698
 50
153.799885
 51
169.330217
  0
LINE
  5
1EC
  8
0
 10
207.1
 20
21.4
 30
0.0
 11
207.1
 21
21.5
 31
0.0
  0
LINE
  5
1ED
  8
2
 10
201.1
 20
41.2
 30
0.0
 11
206.1
 21
41.2
 31
0.0
  0
LINE
  5
1EE
  8
0
 10
201.1
 20
30.2
 30
0.0
 11
203.9
 21
30.2
 31
0.0
  0
ARC
  5
1EF
  8
0
 10
201.192724
 20
31.292724
 30
0.0
 40
1.096651
 50
184.850266
 51
265.149734
  0
ARC
  5
1F0
  8
2
 10
201.262933
 20
40.037067
 30
0.0
 40
1.174291
 50
97.975518
 51
172.024482
  0
ARC
  5
1F1
  8
0
 10
194.5
 20
38.625
 30
0.0
 40
13.808172
 50
339.103997
 51
1.971359
  0
ARC
  5
1F2
  8
0
 10
217.7
 20
38.625
 30
0.0
 40
13.808172
 50
178.028641
 51
200.896003
  0
LINE
  5
1F3
  8
0
 10
211.1
 20
30.2
 30
0.0
 11
208.3
 21
30.2
 31
0.0
  0
ARC
  5
1F4
  8
0
 10
191.768182
 20
32.095455
 30
0.0
 40
16.536767
 50
340.957452
 51
1.401789
  0
ARC
  5
1F5
  8
0
 10
220.431818
 20
32.095455
 30
0.0
 40
16.536767
 50
178.598211
 51
199.042548
  0
LINE
  5
1F6
  8
0
 10
205.1
 20
25.8
 30
0.0
 11
206.1
 21
25.8
 31
0.0
  0
LINE
  5
1F7
  8
0
 10
205.1
 20
24.8
 30
0.0
 11
206.1
 21
24.8
 31
0.0
  0
ARC
  5
1F8
  8
0
 10
201.65
 20
25.15
 30
0.0
 40
3.510698
 50
10.669783
 51
26.200115
  0
LINE
  5
1F9
  8
0
 10
205.1
 20
25.8
 30
0.0
 11
205.1
 21
24.8
 31
0.0
  0
ARC
  5
1FA
  8
0
 10
214.266667
 20
29.416667
 30
0.0
 40
10.449947
 50
187.238361
 51
200.834126
  0
ARC
  5
1FB
  8
0
 10
206.45
 20
26.35
 30
0.0
 40
2.05548
 50
198.434949
 51
228.945186
  0
ARC
  5
1FC
  8
0
 10
210.55
 20
25.15
 30
0.0
 40
3.510698
 50
153.799885
 51
169.330217
  0
ARC
  5
1FD
  8
0
 10
197.933333
 20
29.416667
 30
0.0
 40
10.449947
 50
339.165874
 51
352.761639
  0
LINE
  5
1FE
  8
0
 10
207.1
 20
24.8
 30
0.0
 11
206.1
 21
24.8
 31
0.0
  0
LINE
  5
1FF
  8
0
 10
207.1
 20
25.8
 30
0.0
 11
206.1
 21
25.8
 31
0.0
  0
LINE
  5
200
  8
0
 10
207.1
 20
25.8
 30
0.0
 11
207.1
 21
24.8
 31
0.0
  0
ARC
  5
201
  8
0
 10
205.75
 20
26.35
 30
0.0
 40
2.05548
 50
311.054814
 51
341.565051
  0
LINE
  5
202
  8
0
 10
205.1
 20
32.7
 30
0.0
 11
206.1
 21
32.7
 31
0.0
  0
LINE
  5
203
  8
0
 10
205.1
 20
31.1
 30
0.0
 11
206.1
 21
31.1
 31
0.0
  0
LINE
  5
204
  8
0
 10
205.1
 20
31.1
 30
0.0
 11
205.1
 21
32.7
 31
0.0
  0
ARC
  5
205
  8
0
 10
198.45
 20
31.25
 30
0.0
 40
6.806247
 50
12.300539
 51
21.09795
  0
ARC
  5
206
  8
0
 10
202.65
 20
31.25
 30
0.0
 40
1.767767
 50
8.130102
 51
45.0
  0
ARC
  5
207
  8
0
 10
205.0
 20
31.7375
 30
0.0
 40
0.645295
 50
201.59531
 51
278.914927
  0
LINE
  5
208
  8
0
 10
207.1
 20
31.1
 30
0.0
 11
207.1
 21
32.7
 31
0.0
  0
ARC
  5
209
  8
0
 10
207.2
 20
31.7375
 30
0.0
 40
0.645295
 50
261.085073
 51
338.40469
  0
LINE
  5
20A
  8
0
 10
207.1
 20
32.7
 30
0.0
 11
206.1
 21
32.7
 31
0.0
  0
ARC
  5
20B
  8
0
 10
213.75
 20
31.25
 30
0.0
 40
6.806247
 50
158.90205
 51
167.699461
  0
ARC
  5
20C
  8
0
 10
209.55
 20
31.25
 30
0.0
 40
1.767767
 50
135.0
 51
171.869898
  0
LINE
  5
20D
  8
0
 10
207.1
 20
31.1
 30
0.0
 11
206.1
 21
31.1
 31
0.0
  0
ARC
  5
20E
  8
0
 10
211.007276
 20
31.292724
 30
0.0
 40
1.096651
 50
274.850266
 51
355.149734
  0
LINE
  5
20F
  8
2
 10
211.1
 20
41.2
 30
0.0
 11
206.1
 21
41.2
 31
0.0
  0
LINE
  5
210
  8
0
 10
207.1
 20
41.9
 30
0.0
 11
207.1
 21
40.0
 31
0.0
  0
LINE
  5
211
  8
0
 10
205.1
 20
41.9
 30
0.0
 11
205.1
 21
40.0
 31
0.0
  0
LINE
  5
212
  8
0
 10
205.1
 20
40.0
 30
0.0
 11
206.1
 21
40.0
 31
0.0
  0
ARC
  5
213
  8
0
 10
204.583333
 20
38.716667
 30
0.0
 40
0.783511
 50
88.781125
 51
150.708638
  0
ARC
  5
214
  8
0
 10
204.25
 20
40.35
 30
0.0
 40
0.919239
 50
292.380135
 51
337.619865
  0
LINE
  5
215
  8
0
 10
207.1
 20
40.0
 30
0.0
 11
206.1
 21
40.0
 31
0.0
  0
ARC
  5
216
  8
0
 10
207.616667
 20
38.716667
 30
0.0
 40
0.783511
 50
29.291362
 51
91.218875
  0
ARC
  5
217
  8
0
 10
207.95
 20
40.35
 30
0.0
 40
0.919239
 50
202.380135
 51
247.619865
  0
LINE
  5
218
  8
0
 10
205.1
 20
41.9
 30
0.0
 11
206.1
 21
41.9
 31
0.0
  0
ARC
  5
219
  8
0
 10
200.65
 20
40.75
 30
0.0
 40
4.596194
 50
14.489763
 51
30.749967
  0
LINE
  5
21A
  8
0
 10
207.1
 20
41.9
 30
0.0
 11
206.1
 21
41.9
 31
0.0
  0
ARC
  5
21B
  8
0
 10
211.55
 20
40.75
 30
0.0
 40
4.596194
 50
149.250033
 51
165.510237
  0
ARC
  5
21C
  8
2
 10
210.937067
 20
40.037067
 30
0.0
 40
1.174291
 50
7.975518
 51
82.024482
  0
LINE
  5
21D
  8
1
 10
206.1
 20
88.5
 30
0.0
 11
206.1
 21
51.0
 31
0.0
  0
LINE
  5
21E
  8
1
 10
206.1
 20
88.5
 30
0.0
 11
206.1
 21
51.0
 31
0.0
  0
LINE
  5
21F
  8
1
 10
206.1
 20
88.5
 30
0.0
 11
206.1
 21
51.0
 31
0.0
  0
LINE
  5
220
  8
1
 10
222.1
 20
51.2
 30
0.0
 11
206.1
 21
51.2
 31
0.0
  0
LINE
  5
221
  8
0
 10
200.1
 20
51.2
 30
0.0
 11
200.1
 21
71.2
 31
0.0
  0
ARC
  5
222
  8
0
 10
217.7
 20
63.775
 30
0.0
 40
13.808172
 50
159.103997
 51
181.971359
  0
LINE
  5
223
  8
0
 10
203.9
 20
51.2
 30
0.0
 11
203.9
 21
75.7
 31
0.0
  0
LINE
  5
224
  8
0
 10
208.3
 20
51.2
 30
0.0
 11
208.3
 21
75.7
 31
0.0
  0
ARC
  5
225
  8
0
 10
194.5
 20
63.775
 30
0.0
 40
13.808172
 50
358.028641
 51
20.896003
  0
LINE
  5
226
  8
0
 10
212.1
 20
51.2
 30
0.0
 11
212.1
 21
71.2
 31
0.0
  0
LINE
  5
227
  8
2
 10
201.1
 20
61.2
 30
0.0
 11
206.1
 21
61.2
 31
0.0
  0
LINE
  5
228
  8
1
 10
190.1
 20
51.2
 30
0.0
 11
206.1
 21
51.2
 31
0.0
  0
ARC
  5
229
  8
2
 10
201.262933
 20
62.362933
 30
0.0
 40
1.174291
 50
187.975518
 51
262.024482
  0
ARC
  5
22A
  8
0
 10
210.690323
 20
55.616129
 30
0.0
 40
6.796254
 50
177.606131
 51
206.346134
  0
ARC
  5
22B
  8
0
 10
201.509677
 20
55.616129
 30
0.0
 40
6.796254
 50
333.653866
 51
2.393869
  0
LINE
  5
22C
  8
0
 10
207.1
 20
51.2
 30
0.0
 11
207.1
 21
50.2
 31
0.0
  0
LINE
  5
22D
  8
0
 10
205.1
 20
51.2
 30
0.0
 11
205.1
 21
50.2
 31
0.0
  0
LINE
  5
22E
  8
0
 10
205.1
 20
50.2
 30
0.0
 11
206.1
 21
50.2
 31
0.0
  0
ARC
  5
22F
  8
0
 10
210.690323
 20
46.783871
 30
0.0
 40
6.796254
 50
153.653866
 51
182.393869
  0
ARC
  5
230
  8
0
 10
203.85
 20
51.25
 30
0.0
 40
1.632483
 50
297.349876
 51
319.969741
  0
LINE
  5
231
  8
0
 10
207.1
 20
50.2
 30
0.0
 11
206.1
 21
50.2
 31
0.0
  0
ARC
  5
232
  8
0
 10
208.35
 20
51.25
 30
0.0
 40
1.632483
 50
220.030259
 51
242.650124
  0
ARC
  5
233
  8
0
 10
201.509677
 20
46.783871
 30
0.0
 40
6.796254
 50
357.606131
 51
26.346134
  0
LINE
  5
234
  8
0
 10
205.1
 20
52.2
 30
0.0
 11
206.1
 21
52.2
 31
0.0
  0
LINE
  5
235
  8
0
 10
205.1
 20
51.2
 30
0.0
 11
205.1
 21
52.2
 31
0.0
  0
ARC
  5
236
  8
0
 10
203.85
 20
51.15
 30
0.0
 40
1.632483
 50
40.030259
 51
62.650124
  0
ARC
  5
237
  8
0
 10
208.35
 20
51.15
 30
0.0
 40
1.632483
 50
117.349876
 51
139.969741
  0
LINE
  5
238
  8
0
 10
207.1
 20
51.2
 30
0.0
 11
207.1
 21
52.2
 31
0.0
  0
LINE
  5
239
  8
0
 10
207.1
 20
52.2
 30
0.0
 11
206.1
 21
52.2
 31
0.0
  0
LINE
  5
23A
  8
2
 10
211.1
 20
61.2
 30
0.0
 11
206.1
 21
61.2
 31
0.0
  0
LINE
  5
23B
  8
0
 10
205.1
 20
60.5
 30
0.0
 11
205.1
 21
62.4
 31
0.0
  0
LINE
  5
23C
  8
0
 10
207.1
 20
60.5
 30
0.0
 11
207.1
 21
62.4
 31
0.0
  0
LINE
  5
23D
  8
0
 10
205.1
 20
60.5
 30
0.0
 11
206.1
 21
60.5
 31
0.0
  0
ARC
  5
23E
  8
0
 10
211.885593
 20
56.027966
 30
0.0
 40
7.986618
 50
155.814667
 51
180.918065
  0
ARC
  5
23F
  8
0
 10
200.65
 20
61.65
 30
0.0
 40
4.596194
 50
329.250033
 51
345.510237
  0
ARC
  5
240
  8
0
 10
211.55
 20
61.65
 30
0.0
 40
4.596194
 50
194.489763
 51
210.749967
  0
LINE
  5
241
  8
0
 10
207.1
 20
60.5
 30
0.0
 11
206.1
 21
60.5
 31
0.0
  0
ARC
  5
242
  8
0
 10
200.314407
 20
56.027966
 30
0.0
 40
7.986618
 50
359.081935
 51
24.185333
  0
LINE
  5
243
  8
0
 10
205.1
 20
62.4
 30
0.0
 11
206.1
 21
62.4
 31
0.0
  0
ARC
  5
244
  8
0
 10
204.583333
 20
63.683333
 30
0.0
 40
0.783511
 50
209.291362
 51
271.218875
  0
ARC
  5
245
  8
0
 10
204.25
 20
62.05
 30
0.0
 40
0.919239
 50
22.380135
 51
67.619865
  0
ARC
  5
246
  8
0
 10
207.95
 20
62.05
 30
0.0
 40
0.919239
 50
112.380135
 51
157.619865
  0
ARC
  5
247
  8
0
 10
207.616667
 20
63.683333
 30
0.0
 40
0.783511
 50
268.781125
 51
330.708638
  0
LINE
  5
248
  8
0
 10
207.1
 20
62.4
 30
0.0
 11
206.1
 21
62.4
 31
0.0
  0
ARC
  5
249
  8
2
 10
210.937067
 20
62.362933
 30
0.0
 40
1.174291
 50
277.975518
 51
352.024482
  0
LINE
  5
24A
  8
0
 10
201.1
 20
72.2
 30
0.0
 11
203.9
 21
72.2
 31
0.0
  0
ARC
  5
24B
  8
0
 10
201.192724
 20
71.107276
 30
0.0
 40
1.096651
 50
94.850266
 51
175.149734
  0
ARC
  5
24C
  8
0
 10
201.65
 20
77.25
 30
0.0
 40
3.510698
 50
333.799885
 51
349.330217
  0
ARC
  5
24D
  8
0
 10
214.266667
 20
72.983333
 30
0.0
 40
10.449947
 50
159.165874
 51
172.761639
  0
ARC
  5
24E
  8
0
 10
219.303571
 20
74.410714
 30
0.0
 40
15.403969
 50
160.313113
 51
180.41181
  0
ARC
  5
24F
  8
0
 10
215.405769
 20
75.880769
 30
0.0
 40
11.507189
 50
153.584825
 51
180.90011
  0
ARC
  5
250
  8
0
 10
196.794231
 20
75.880769
 30
0.0
 40
11.507189
 50
359.09989
 51
26.415175
  0
ARC
  5
251
  8
0
 10
192.896429
 20
74.410714
 30
0.0
 40
15.403969
 50
359.58819
 51
19.686887
  0
ARC
  5
252
  8
0
 10
197.933333
 20
72.983333
 30
0.0
 40
10.449947
 50
7.238361
 51
20.834126
  0
ARC
  5
253
  8
0
 10
210.55
 20
77.25
 30
0.0
 40
3.510698
 50
190.669783
 51
206.200115
  0
LINE
  5
254
  8
0
 10
211.1
 20
72.2
 30
0.0
 11
208.3
 21
72.2
 31
0.0
  0
LINE
  5
255
  8
0
 10
205.1
 20
71.3
 30
0.0
 11
205.1
 21
69.7
 31
0.0
  0
ARC
  5
256
  8
0
 10
191.768182
 20
70.304545
 30
0.0
 40
16.536767
 50
358.598211
 51
19.042548
  0
ARC
  5
257
  8
0
 10
207.2
 20
70.6625
 30
0.0
 40
0.645295
 50
21.59531
 51
98.914927
  0
LINE
  5
258
  8
0
 10
207.1
 20
71.3
 30
0.0
 11
207.1
 21
69.7
 31
0.0
  0
ARC
  5
259
  8
0
 10
205.0
 20
70.6625
 30
0.0
 40
0.645295
 50
81.085073
 51
158.40469
  0
ARC
  5
25A
  8
0
 10
220.431818
 20
70.304545
 30
0.0
 40
16.536767
 50
160.957452
 51
181.401789
  0
LINE
  5
25B
  8
0
 10
205.1
 20
69.7
 30
0.0
 11
206.1
 21
69.7
 31
0.0
  0
ARC
  5
25C
  8
0
 10
198.45
 20
71.15
 30
0.0
 40
6.806247
 50
338.90205
 51
347.699461
  0
ARC
  5
25D
  8
0
 10
202.65
 20
71.15
 30
0.0
 40
1.767767
 50
315.0
 51
351.869898
  0
ARC
  5
25E
  8
0
 10
209.55
 20
71.15
 30
0.0
 40
1.767767
 50
188.130102
 51
225.0
  0
ARC
  5
25F
  8
0
 10
213.75
 20
71.15
 30
0.0
 40
6.806247
 50
192.300539
 51
201.09795
  0
LINE
  5
260
  8
0
 10
207.1
 20
69.7
 30
0.0
 11
206.1
 21
69.7
 31
0.0
  0
LINE
  5
261
  8
0
 10
205.1
 20
71.3
 30
0.0
 11
206.1
 21
71.3
 31
0.0
  0
LINE
  5
262
  8
0
 10
207.1
 20
71.3
 30
0.0
 11
206.1
 21
71.3
 31
0.0
  0
ARC
  5
263
  8
0
 10
211.007276
 20
71.107276
 30
0.0
 40
1.096651
 50
4.850266
 51
85.149734
  0
LINE
  5
264
  8
0
 10
206.1
 20
81.0
 30
0.0
 11
205.1
 21
81.0
 31
0.0
  0
LINE
  5
265
  8
0
 10
205.1
 20
80.5
 30
0.0
 11
206.1
 21
80.5
 31
0.0
  0
LINE
  5
266
  8
0
 10
205.1
 20
77.6
 30
0.0
 11
206.1
 21
77.6
 31
0.0
  0
LINE
  5
267
  8
0
 10
205.1
 20
76.6
 30
0.0
 11
206.1
 21
76.6
 31
0.0
  0
LINE
  5
268
  8
0
 10
205.1
 20
76.6
 30
0.0
 11
205.1
 21
77.6
 31
0.0
  0
LINE
  5
269
  8
0
 10
205.1
 20
80.5
 30
0.0
 11
205.1
 21
81.0
 31
0.0
  0
ARC
  5
26A
  8
0
 10
201.65
 20
81.15
 30
0.0
 40
3.510698
 50
333.799885
 51
349.330217
  0
LINE
  5
26B
  8
0
 10
205.1
 20
81.0
 30
0.0
 11
205.1
 21
80.9
 31
0.0
  0
ARC
  5
26C
  8
0
 10
206.45
 20
76.05
 30
0.0
 40
2.05548
 50
131.054814
 51
161.565051
  0
ARC
  5
26D
  8
0
 10
205.75
 20
76.05
 30
0.0
 40
2.05548
 50
18.434949
 51
48.945186
  0
LINE
  5
26E
  8
0
 10
207.1
 20
81.0
 30
0.0
 11
207.1
 21
80.9
 31
0.0
  0
ARC
  5
26F
  8
0
 10
210.55
 20
81.15
 30
0.0
 40
3.510698
 50
190.669783
 51
206.200115
  0
LINE
  5
270
  8
0
 10
207.1
 20
80.5
 30
0.0
 11
207.1
 21
81.0
 31
0.0
  0
LINE
  5
271
  8
0
 10
207.1
 20
76.6
 30
0.0
 11
207.1
 21
77.6
 31
0.0
  0
LINE
  5
272
  8
0
 10
207.1
 20
76.6
 30
0.0
 11
206.1
 21
76.6
 31
0.0
  0
LINE
  5
273
  8
0
 10
207.1
 20
77.6
 30
0.0
 11
206.1
 21
77.6
 31
0.0
  0
LINE
  5
274
  8
0
 10
207.1
 20
80.5
 30
0.0
 11
206.1
 21
80.5
 31
0.0
  0
LINE
  5
275
  8
0
 10
206.1
 20
81.0
 30
0.0
 11
207.1
 21
81.0
 31
0.0
  0
LINE
  5
276
  8
2
 10
200.6
 20
153.9
 30
0.0
 11
211.8
 21
153.9
 31
0.0
  0
LINE
  5
277
  8
2
 10
200.6
 20
148.9
 30
0.0
 11
211.8
 21
148.9
 31
0.0
  0
LINE
  5
278
  8
2
 10
200.6
 20
121.5
 30
0.0
 11
211.8
 21
121.5
 31
0.0
  0
LINE
  5
279
  8
2
 10
200.6
 20
116.5
 30
0.0
 11
211.8
 21
116.5
 31
0.0
  0
LINE
  5
27A
  8
2
 10
200.4
 20
69.9
 30
0.0
 11
211.8
 21
69.9
 31
0.0
  0
LINE
  5
27B
  8
2
 10
200.4
 20
64.9
 30
0.0
 11
211.8
 21
64.9
 31
0.0
  0
LINE
  5
27C
  8
2
 10
200.4
 20
37.5
 30
0.0
 11
211.8
 21
37.5
 31
0.0
  0
LINE
  5
27D
  8
2
 10
200.4
 20
32.5
 30
0.0
 11
211.8
 21
32.5
 31
0.0
  0
CIRCLE
  5
27E
  8
2
 10
206.1
 20
67.4
 30
0.0
 40
2.5
  0
CIRCLE
  5
27F
  8
2
 10
206.1
 20
35.0
 30
0.0
 40
2.5
  0
CIRCLE
  5
280
  8
2
 10
206.2
 20
151.4
 30
0.0
 40
2.5
  0
CIRCLE
  5
281
  8
2
 10
206.2
 20
119.0
 30
0.0
 40
2.5
  0
ARC
  5
282
  8
0
 10
201.509677
 20
213.583871
 30
0.0
 40
6.796254
 50
357.606131
 51
26.346134
  0
ARC
  5
283
  8
0
 10
210.690323
 20
213.583871
 30
0.0
 40
6.796254
 50
153.653866
 51
182.393869
  0
LINE
  5
284
  8
0
 10
212.1
 20
218.0
 30
0.0
 11
212.1
 21
198.0
 31
0.0
  0
LINE
  5
285
  8
0
 10
208.3
 20
218.0
 30
0.0
 11
208.3
 21
193.5
 31
0.0
  0
LINE
  5
286
  8
0
 10
203.9
 20
218.0
 30
0.0
 11
203.9
 21
193.5
 31
0.0
  0
LINE
  5
287
  8
0
 10
200.1
 20
218.0
 30
0.0
 11
200.1
 21
198.0
 31
0.0
  0
LINE
  5
288
  8
1
 10
206.1
 20
180.3
 30
0.0
 11
206.1
 21
217.8
 31
0.0
  0
LINE
  5
289
  8
1
 10
206.1
 20
180.3
 30
0.0
 11
206.1
 21
217.8
 31
0.0
  0
LINE
  5
28A
  8
1
 10
206.1
 20
180.3
 30
0.0
 11
206.1
 21
217.8
 31
0.0
  0
LINE
  5
28B
  8
1
 10
206.1
 20
180.3
 30
0.0
 11
206.1
 21
217.8
 31
0.0
  0
ARC
  5
28C
  8
0
 10
191.768182
 20
198.895455
 30
0.0
 40
16.536767
 50
340.957452
 51
1.401789
  0
ARC
  5
28D
  8
0
 10
220.431818
 20
198.895455
 30
0.0
 40
16.536767
 50
178.598211
 51
199.042548
  0
ARC
  5
28E
  8
0
 10
192.896429
 20
194.789286
 30
0.0
 40
15.403969
 50
340.313113
 51
0.41181
  0
ARC
  5
28F
  8
0
 10
196.794231
 20
193.319231
 30
0.0
 40
11.507189
 50
333.584825
 51
0.90011
  0
ARC
  5
290
  8
0
 10
215.405769
 20
193.319231
 30
0.0
 40
11.507189
 50
179.09989
 51
206.415175
  0
ARC
  5
291
  8
0
 10
219.303571
 20
194.789286
 30
0.0
 40
15.403969
 50
179.58819
 51
199.686887
  0
LINE
  5
292
  8
0
 10
205.1
 20
188.7
 30
0.0
 11
206.1
 21
188.7
 31
0.0
  0
LINE
  5
293
  8
0
 10
206.1
 20
188.2
 30
0.0
 11
205.1
 21
188.2
 31
0.0
  0
LINE
  5
294
  8
0
 10
205.1
 20
188.2
 30
0.0
 11
205.1
 21
188.3
 31
0.0
  0
ARC
  5
295
  8
0
 10
201.65
 20
188.05
 30
0.0
 40
3.510698
 50
10.669783
 51
26.200115
  0
LINE
  5
296
  8
0
 10
205.1
 20
188.7
 30
0.0
 11
205.1
 21
188.2
 31
0.0
  0
LINE
  5
297
  8
0
 10
206.1
 20
188.2
 30
0.0
 11
207.1
 21
188.2
 31
0.0
  0
LINE
  5
298
  8
0
 10
207.1
 20
188.7
 30
0.0
 11
206.1
 21
188.7
 31
0.0
  0
LINE
  5
299
  8
0
 10
207.1
 20
188.7
 30
0.0
 11
207.1
 21
188.2
 31
0.0
  0
ARC
  5
29A
  8
0
 10
210.55
 20
188.05
 30
0.0
 40
3.510698
 50
153.799885
 51
169.330217
  0
LINE
  5
29B
  8
0
 10
207.1
 20
188.2
 30
0.0
 11
207.1
 21
188.3
 31
0.0
  0
LINE
  5
29C
  8
0
 10
205.1
 20
192.6
 30
0.0
 11
206.1
 21
192.6
 31
0.0
  0
LINE
  5
29D
  8
0
 10
205.1
 20
191.6
 30
0.0
 11
206.1
 21
191.6
 31
0.0
  0
ARC
  5
29E
  8
0
 10
201.65
 20
191.95
 30
0.0
 40
3.510698
 50
10.669783
 51
26.200115
  0
LINE
  5
29F
  8
0
 10
205.1
 20
192.6
 30
0.0
 11
205.1
 21
191.6
 31
0.0
  0
ARC
  5
2A0
  8
0
 10
214.266667
 20
196.216667
 30
0.0
 40
10.449947
 50
187.238361
 51
200.834126
  0
ARC
  5
2A1
  8
0
 10
206.45
 20
193.15
 30
0.0
 40
2.05548
 50
198.434949
 51
228.945186
  0
ARC
  5
2A2
  8
0
 10
210.55
 20
191.95
 30
0.0
 40
3.510698
 50
153.799885
 51
169.330217
  0
ARC
  5
2A3
  8
0
 10
197.933333
 20
196.216667
 30
0.0
 40
10.449947
 50
339.165874
 51
352.761639
  0
LINE
  5
2A4
  8
0
 10
207.1
 20
191.6
 30
0.0
 11
206.1
 21
191.6
 31
0.0
  0
LINE
  5
2A5
  8
0
 10
207.1
 20
192.6
 30
0.0
 11
206.1
 21
192.6
 31
0.0
  0
LINE
  5
2A6
  8
0
 10
207.1
 20
192.6
 30
0.0
 11
207.1
 21
191.6
 31
0.0
  0
ARC
  5
2A7
  8
0
 10
205.75
 20
193.15
 30
0.0
 40
2.05548
 50
311.054814
 51
341.565051
  0
LINE
  5
2A8
  8
2
 10
200.4
 20
199.3
 30
0.0
 11
211.8
 21
199.3
 31
0.0
  0
LINE
  5
2A9
  8
2
 10
200.4
 20
204.3
 30
0.0
 11
211.8
 21
204.3
 31
0.0
  0
LINE
  5
2AA
  8
2
 10
201.1
 20
208.0
 30
0.0
 11
206.1
 21
208.0
 31
0.0
  0
LINE
  5
2AB
  8
0
 10
201.1
 20
197.0
 30
0.0
 11
203.9
 21
197.0
 31
0.0
  0
ARC
  5
2AC
  8
0
 10
201.192724
 20
198.092724
 30
0.0
 40
1.096651
 50
184.850266
 51
265.149734
  0
ARC
  5
2AD
  8
2
 10
201.262933
 20
206.837067
 30
0.0
 40
1.174291
 50
97.975518
 51
172.024482
  0
ARC
  5
2AE
  8
0
 10
204.583333
 20
205.516667
 30
0.0
 40
0.783511
 50
88.781125
 51
150.708638
  0
ARC
  5
2AF
  8
0
 10
207.616667
 20
205.516667
 30
0.0
 40
0.783511
 50
29.291362
 51
91.218875
  0
LINE
  5
2B0
  8
0
 10
211.1
 20
197.0
 30
0.0
 11
208.3
 21
197.0
 31
0.0
  0
CIRCLE
  5
2B1
  8
2
 10
206.1
 20
201.8
 30
0.0
 40
2.5
  0
ARC
  5
2B2
  8
0
 10
194.5
 20
205.425
 30
0.0
 40
13.808172
 50
339.103997
 51
1.971359
  0
ARC
  5
2B3
  8
0
 10
217.7
 20
205.425
 30
0.0
 40
13.808172
 50
178.028641
 51
200.896003
  0
LINE
  5
2B4
  8
0
 10
205.1
 20
199.5
 30
0.0
 11
206.1
 21
199.5
 31
0.0
  0
LINE
  5
2B5
  8
0
 10
205.1
 20
197.9
 30
0.0
 11
206.1
 21
197.9
 31
0.0
  0
LINE
  5
2B6
  8
0
 10
205.1
 20
197.9
 30
0.0
 11
205.1
 21
199.5
 31
0.0
  0
ARC
  5
2B7
  8
0
 10
198.45
 20
198.05
 30
0.0
 40
6.806247
 50
12.300539
 51
21.09795
  0
ARC
  5
2B8
  8
0
 10
202.65
 20
198.05
 30
0.0
 40
1.767767
 50
8.130102
 51
45.0
  0
ARC
  5
2B9
  8
0
 10
205.0
 20
198.5375
 30
0.0
 40
0.645295
 50
201.59531
 51
278.914927
  0
LINE
  5
2BA
  8
0
 10
207.1
 20
197.9
 30
0.0
 11
207.1
 21
199.5
 31
0.0
  0
ARC
  5
2BB
  8
0
 10
207.2
 20
198.5375
 30
0.0
 40
0.645295
 50
261.085073
 51
338.40469
  0
LINE
  5
2BC
  8
0
 10
207.1
 20
199.5
 30
0.0
 11
206.1
 21
199.5
 31
0.0
  0
ARC
  5
2BD
  8
0
 10
213.75
 20
198.05
 30
0.0
 40
6.806247
 50
158.90205
 51
167.699461
  0
ARC
  5
2BE
  8
0
 10
209.55
 20
198.05
 30
0.0
 40
1.767767
 50
135.0
 51
171.869898
  0
LINE
  5
2BF
  8
0
 10
207.1
 20
197.9
 30
0.0
 11
206.1
 21
197.9
 31
0.0
  0
ARC
  5
2C0
  8
0
 10
211.007276
 20
198.092724
 30
0.0
 40
1.096651
 50
274.850266
 51
355.149734
  0
LINE
  5
2C1
  8
2
 10
211.1
 20
208.0
 30
0.0
 11
206.1
 21
208.0
 31
0.0
  0
ARC
  5
2C2
  8
0
 10
211.885593
 20
213.172034
 30
0.0
 40
7.986618
 50
179.081935
 51
204.185333
  0
ARC
  5
2C3
  8
0
 10
200.314407
 20
213.172034
 30
0.0
 40
7.986618
 50
335.814667
 51
0.918065
  0
LINE
  5
2C4
  8
0
 10
205.1
 20
206.8
 30
0.0
 11
206.1
 21
206.8
 31
0.0
  0
LINE
  5
2C5
  8
0
 10
205.1
 20
208.7
 30
0.0
 11
206.1
 21
208.7
 31
0.0
  0
LINE
  5
2C6
  8
0
 10
205.1
 20
208.7
 30
0.0
 11
205.1
 21
206.8
 31
0.0
  0
ARC
  5
2C7
  8
0
 10
200.65
 20
207.55
 30
0.0
 40
4.596194
 50
14.489763
 51
30.749967
  0
ARC
  5
2C8
  8
0
 10
204.25
 20
207.15
 30
0.0
 40
0.919239
 50
292.380135
 51
337.619865
  0
LINE
  5
2C9
  8
0
 10
207.1
 20
208.7
 30
0.0
 11
207.1
 21
206.8
 31
0.0
  0
LINE
  5
2CA
  8
0
 10
207.1
 20
206.8
 30
0.0
 11
206.1
 21
206.8
 31
0.0
  0
LINE
  5
2CB
  8
0
 10
207.1
 20
208.7
 30
0.0
 11
206.1
 21
208.7
 31
0.0
  0
ARC
  5
2CC
  8
0
 10
211.55
 20
207.55
 30
0.0
 40
4.596194
 50
149.250033
 51
165.510237
  0
ARC
  5
2CD
  8
0
 10
207.95
 20
207.15
 30
0.0
 40
0.919239
 50
202.380135
 51
247.619865
  0
ARC
  5
2CE
  8
2
 10
210.937067
 20
206.837067
 30
0.0
 40
1.174291
 50
7.975518
 51
82.024482
  0
LINE
  5
2CF
  8
1
 10
222.1
 20
218.0
 30
0.0
 11
206.1
 21
218.0
 31
0.0
  0
LINE
  5
2D0
  8
0
 10
200.1
 20
218.0
 30
0.0
 11
200.1
 21
238.0
 31
0.0
  0
LINE
  5
2D1
  8
0
 10
203.9
 20
218.0
 30
0.0
 11
203.9
 21
242.5
 31
0.0
  0
LINE
  5
2D2
  8
0
 10
208.3
 20
218.0
 30
0.0
 11
208.3
 21
242.5
 31
0.0
  0
LINE
  5
2D3
  8
0
 10
212.1
 20
218.0
 30
0.0
 11
212.1
 21
238.0
 31
0.0
  0
LINE
  5
2D4
  8
0
 10
205.1
 20
238.1
 30
0.0
 11
205.1
 21
236.5
 31
0.0
  0
ARC
  5
2D5
  8
0
 10
191.768182
 20
237.104545
 30
0.0
 40
16.536767
 50
358.598211
 51
19.042548
  0
LINE
  5
2D6
  8
0
 10
207.1
 20
238.1
 30
0.0
 11
207.1
 21
236.5
 31
0.0
  0
ARC
  5
2D7
  8
0
 10
220.431818
 20
237.104545
 30
0.0
 40
16.536767
 50
160.957452
 51
181.401789
  0
ARC
  5
2D8
  8
0
 10
202.65
 20
237.95
 30
0.0
 40
1.767767
 50
315.0
 51
351.869898
  0
ARC
  5
2D9
  8
0
 10
209.55
 20
237.95
 30
0.0
 40
1.767767
 50
188.130102
 51
225.0
  0
LINE
  5
2DA
  8
1
 10
206.1
 20
255.3
 30
0.0
 11
206.1
 21
217.8
 31
0.0
  0
LINE
  5
2DB
  8
1
 10
206.1
 20
255.3
 30
0.0
 11
206.1
 21
217.8
 31
0.0
  0
LINE
  5
2DC
  8
1
 10
206.1
 20
255.3
 30
0.0
 11
206.1
 21
217.8
 31
0.0
  0
LINE
  5
2DD
  8
2
 10
200.4
 20
231.7
 30
0.0
 11
211.8
 21
231.7
 31
0.0
  0
LINE
  5
2DE
  8
2
 10
200.4
 20
236.7
 30
0.0
 11
211.8
 21
236.7
 31
0.0
  0
LINE
  5
2DF
  8
2
 10
201.1
 20
228.0
 30
0.0
 11
206.1
 21
228.0
 31
0.0
  0
LINE
  5
2E0
  8
1
 10
190.1
 20
218.0
 30
0.0
 11
206.1
 21
218.0
 31
0.0
  0
ARC
  5
2E1
  8
2
 10
201.262933
 20
229.162933
 30
0.0
 40
1.174291
 50
187.975518
 51
262.024482
  0
ARC
  5
2E2
  8
0
 10
200.65
 20
228.45
 30
0.0
 40
4.596194
 50
329.250033
 51
345.510237
  0
ARC
  5
2E3
  8
0
 10
211.55
 20
228.45
 30
0.0
 40
4.596194
 50
194.489763
 51
210.749967
  0
ARC
  5
2E4
  8
0
 10
210.690323
 20
222.416129
 30
0.0
 40
6.796254
 50
177.606131
 51
206.346134
  0
ARC
  5
2E5
  8
0
 10
201.509677
 20
222.416129
 30
0.0
 40
6.796254
 50
333.653866
 51
2.393869
  0
LINE
  5
2E6
  8
0
 10
205.1
 20
217.0
 30
0.0
 11
206.1
 21
217.0
 31
0.0
  0
LINE
  5
2E7
  8
0
 10
205.1
 20
219.0
 30
0.0
 11
206.1
 21
219.0
 31
0.0
  0
LINE
  5
2E8
  8
0
 10
205.1
 20
218.0
 30
0.0
 11
205.1
 21
217.0
 31
0.0
  0
LINE
  5
2E9
  8
0
 10
205.1
 20
218.0
 30
0.0
 11
205.1
 21
219.0
 31
0.0
  0
ARC
  5
2EA
  8
0
 10
203.85
 20
217.95
 30
0.0
 40
1.632483
 50
40.030259
 51
62.650124
  0
ARC
  5
2EB
  8
0
 10
203.85
 20
218.05
 30
0.0
 40
1.632483
 50
297.349876
 51
319.969741
  0
LINE
  5
2EC
  8
0
 10
207.1
 20
218.0
 30
0.0
 11
207.1
 21
217.0
 31
0.0
  0
LINE
  5
2ED
  8
0
 10
207.1
 20
217.0
 30
0.0
 11
206.1
 21
217.0
 31
0.0
  0
ARC
  5
2EE
  8
0
 10
208.35
 20
217.95
 30
0.0
 40
1.632483
 50
117.349876
 51
139.969741
  0
LINE
  5
2EF
  8
0
 10
207.1
 20
218.0
 30
0.0
 11
207.1
 21
219.0
 31
0.0
  0
LINE
  5
2F0
  8
0
 10
207.1
 20
219.0
 30
0.0
 11
206.1
 21
219.0
 31
0.0
  0
ARC
  5
2F1
  8
0
 10
208.35
 20
218.05
 30
0.0
 40
1.632483
 50
220.030259
 51
242.650124
  0
ARC
  5
2F2
  8
0
 10
211.885593
 20
222.827966
 30
0.0
 40
7.986618
 50
155.814667
 51
180.918065
  0
ARC
  5
2F3
  8
0
 10
200.314407
 20
222.827966
 30
0.0
 40
7.986618
 50
359.081935
 51
24.185333
  0
LINE
  5
2F4
  8
2
 10
211.1
 20
228.0
 30
0.0
 11
206.1
 21
228.0
 31
0.0
  0
CIRCLE
  5
2F5
  8
2
 10
206.1
 20
234.2
 30
0.0
 40
2.5
  0
ARC
  5
2F6
  8
0
 10
217.7
 20
230.575
 30
0.0
 40
13.808172
 50
159.103997
 51
181.971359
  0
ARC
  5
2F7
  8
0
 10
194.5
 20
230.575
 30
0.0
 40
13.808172
 50
358.028641
 51
20.896003
  0
LINE
  5
2F8
  8
0
 10
205.1
 20
227.3
 30
0.0
 11
206.1
 21
227.3
 31
0.0
  0
LINE
  5
2F9
  8
0
 10
205.1
 20
229.2
 30
0.0
 11
206.1
 21
229.2
 31
0.0
  0
LINE
  5
2FA
  8
0
 10
205.1
 20
227.3
 30
0.0
 11
205.1
 21
229.2
 31
0.0
  0
ARC
  5
2FB
  8
0
 10
204.583333
 20
230.483333
 30
0.0
 40
0.783511
 50
209.291362
 51
271.218875
  0
ARC
  5
2FC
  8
0
 10
204.25
 20
228.85
 30
0.0
 40
0.919239
 50
22.380135
 51
67.619865
  0
LINE
  5
2FD
  8
0
 10
207.1
 20
227.3
 30
0.0
 11
207.1
 21
229.2
 31
0.0
  0
LINE
  5
2FE
  8
0
 10
207.1
 20
227.3
 30
0.0
 11
206.1
 21
227.3
 31
0.0
  0
ARC
  5
2FF
  8
0
 10
207.95
 20
228.85
 30
0.0
 40
0.919239
 50
112.380135
 51
157.619865
  0
ARC
  5
300
  8
0
 10
207.616667
 20
230.483333
 30
0.0
 40
0.783511
 50
268.781125
 51
330.708638
  0
LINE
  5
301
  8
0
 10
207.1
 20
229.2
 30
0.0
 11
206.1
 21
229.2
 31
0.0
  0
LINE
  5
302
  8
0
 10
205.1
 20
236.5
 30
0.0
 11
206.1
 21
236.5
 31
0.0
  0
ARC
  5
303
  8
0
 10
198.45
 20
237.95
 30
0.0
 40
6.806247
 50
338.90205
 51
347.699461
  0
ARC
  5
304
  8
0
 10
213.75
 20
237.95
 30
0.0
 40
6.806247
 50
192.300539
 51
201.09795
  0
LINE
  5
305
  8
0
 10
207.1
 20
236.5
 30
0.0
 11
206.1
 21
236.5
 31
0.0
  0
ARC
  5
306
  8
2
 10
210.937067
 20
229.162933
 30
0.0
 40
1.174291
 50
277.975518
 51
352.024482
  0
LINE
  5
307
  8
0
 10
201.1
 20
239.0
 30
0.0
 11
203.9
 21
239.0
 31
0.0
  0
ARC
  5
308
  8
0
 10
201.192724
 20
237.907276
 30
0.0
 40
1.096651
 50
94.850266
 51
175.149734
  0
ARC
  5
309
  8
0
 10
215.405769
 20
242.680769
 30
0.0
 40
11.507189
 50
153.584825
 51
180.90011
  0
ARC
  5
30A
  8
0
 10
196.794231
 20
242.680769
 30
0.0
 40
11.507189
 50
359.09989
 51
26.415175
  0
LINE
  5
30B
  8
0
 10
205.1
 20
247.3
 30
0.0
 11
205.1
 21
247.8
 31
0.0
  0
LINE
  5
30C
  8
0
 10
207.1
 20
247.3
 30
0.0
 11
207.1
 21
247.8
 31
0.0
  0
LINE
  5
30D
  8
0
 10
211.1
 20
239.0
 30
0.0
 11
208.3
 21
239.0
 31
0.0
  0
ARC
  5
30E
  8
0
 10
214.266667
 20
239.783333
 30
0.0
 40
10.449947
 50
159.165874
 51
172.761639
  0
ARC
  5
30F
  8
0
 10
219.303571
 20
241.210714
 30
0.0
 40
15.403969
 50
160.313113
 51
180.41181
  0
ARC
  5
310
  8
0
 10
192.896429
 20
241.210714
 30
0.0
 40
15.403969
 50
359.58819
 51
19.686887
  0
ARC
  5
311
  8
0
 10
197.933333
 20
239.783333
 30
0.0
 40
10.449947
 50
7.238361
 51
20.834126
  0
LINE
  5
312
  8
0
 10
205.1
 20
238.1
 30
0.0
 11
206.1
 21
238.1
 31
0.0
  0
ARC
  5
313
  8
0
 10
205.0
 20
237.4625
 30
0.0
 40
0.645295
 50
81.085073
 51
158.40469
  0
ARC
  5
314
  8
0
 10
207.2
 20
237.4625
 30
0.0
 40
0.645295
 50
21.59531
 51
98.914927
  0
LINE
  5
315
  8
0
 10
207.1
 20
238.1
 30
0.0
 11
206.1
 21
238.1
 31
0.0
  0
LINE
  5
316
  8
0
 10
205.1
 20
247.3
 30
0.0
 11
206.1
 21
247.3
 31
0.0
  0
LINE
  5
317
  8
0
 10
205.1
 20
244.4
 30
0.0
 11
206.1
 21
244.4
 31
0.0
  0
LINE
  5
318
  8
0
 10
205.1
 20
243.4
 30
0.0
 11
206.1
 21
243.4
 31
0.0
  0
LINE
  5
319
  8
0
 10
205.1
 20
243.4
 30
0.0
 11
205.1
 21
244.4
 31
0.0
  0
ARC
  5
31A
  8
0
 10
201.65
 20
247.95
 30
0.0
 40
3.510698
 50
333.799885
 51
349.330217
  0
ARC
  5
31B
  8
0
 10
206.45
 20
242.85
 30
0.0
 40
2.05548
 50
131.054814
 51
161.565051
  0
ARC
  5
31C
  8
0
 10
201.65
 20
244.05
 30
0.0
 40
3.510698
 50
333.799885
 51
349.330217
  0
ARC
  5
31D
  8
0
 10
205.75
 20
242.85
 30
0.0
 40
2.05548
 50
18.434949
 51
48.945186
  0
ARC
  5
31E
  8
0
 10
210.55
 20
247.95
 30
0.0
 40
3.510698
 50
190.669783
 51
206.200115
  0
LINE
  5
31F
  8
0
 10
207.1
 20
243.4
 30
0.0
 11
207.1
 21
244.4
 31
0.0
  0
LINE
  5
320
  8
0
 10
207.1
 20
243.4
 30
0.0
 11
206.1
 21
243.4
 31
0.0
  0
LINE
  5
321
  8
0
 10
207.1
 20
244.4
 30
0.0
 11
206.1
 21
244.4
 31
0.0
  0
LINE
  5
322
  8
0
 10
207.1
 20
247.3
 30
0.0
 11
206.1
 21
247.3
 31
0.0
  0
ARC
  5
323
  8
0
 10
210.55
 20
244.05
 30
0.0
 40
3.510698
 50
190.669783
 51
206.200115
  0
ARC
  5
324
  8
0
 10
211.007276
 20
237.907276
 30
0.0
 40
1.096651
 50
4.850266
 51
85.149734
  0
LINE
  5
325
  8
0
 10
206.1
 20
247.8
 30
0.0
 11
205.1
 21
247.8
 31
0.0
  0
LINE
  5
326
  8
0
 10
205.1
 20
247.8
 30
0.0
 11
205.1
 21
247.7
 31
0.0
  0
LINE
  5
327
  8
0
 10
206.1
 20
247.8
 30
0.0
 11
207.1
 21
247.8
 31
0.0
  0
LINE
  5
328
  8
0
 10
207.1
 20
247.8
 30
0.0
 11
207.1
 21
247.7
 31
0.0
  0
ENDSEC
  0
EOF
