  0
SECTION
  2
HEADER
  9
$ACADVER
  1
AC1015
  9
$ACADMAINTVER
 70
    13
  9
$DWGCODEPAGE
  3
ANSI_932
  9
$INSBASE
 10
0.0
 20
0.0
 30
0.0
  9
$EXTMIN
 10
76.0
 20
5.851750945696152
 30
0.0
  9
$EXTMAX
 10
798.0498158827806
 20
555.0
 30
0.0
  9
$LIMMIN
 10
0.0
 20
0.0
  9
$LIMMAX
 10
800.0
 20
600.0
  9
$ORTHOMODE
 70
     0
  9
$REGENMODE
 70
     1
  9
$FILLMODE
 70
     1
  9
$QTEXTMODE
 70
     0
  9
$MIRRTEXT
 70
     1
  9
$LTSCALE
 40
1.0
  9
$ATTMODE
 70
     1
  9
$TEXTSIZE
 40
6.0
  9
$TRACEWID
 40
0.05
  9
$TEXTSTYLE
  7
EXTFONT
  9
$CLAYER
  8
0
  9
$CELTYPE
  6
ByLayer
  9
$CECOLOR
 62
   256
  9
$CELTSCALE
 40
1.0
  9
$DISPSILH
 70
     0
  9
$DIMSCALE
 40
1.0
  9
$DIMASZ
 40
0.18
  9
$DIMEXO
 40
0.0625
  9
$DIMDLI
 40
0.38
  9
$DIMRND
 40
0.0
  9
$DIMDLE
 40
0.0
  9
$DIMEXE
 40
0.18
  9
$DIMTP
 40
0.0
  9
$DIMTM
 40
0.0
  9
$DIMTXT
 40
0.18
  9
$DIMCEN
 40
0.09
  9
$DIMTSZ
 40
0.0
  9
$DIMTOL
 70
     0
  9
$DIMLIM
 70
     0
  9
$DIMTIH
 70
     1
  9
$DIMTOH
 70
     1
  9
$DIMSE1
 70
     0
  9
$DIMSE2
 70
     0
  9
$DIMTAD
 70
     0
  9
$DIMZIN
 70
     0
  9
$DIMBLK
  1

  9
$DIMASO
 70
     1
  9
$DIMSHO
 70
     1
  9
$DIMPOST
  1

  9
$DIMAPOST
  1

  9
$DIMALT
 70
     0
  9
$DIMALTD
 70
     2
  9
$DIMALTF
 40
25.4
  9
$DIMLFAC
 40
1.0
  9
$DIMTOFL
 70
     0
  9
$DIMTVP
 40
0.0
  9
$DIMTIX
 70
     0
  9
$DIMSOXD
 70
     0
  9
$DIMSAH
 70
     0
  9
$DIMBLK1
  1

  9
$DIMBLK2
  1

  9
$DIMSTYLE
  2
STANDARD
  9
$DIMCLRD
 70
     0
  9
$DIMCLRE
 70
     0
  9
$DIMCLRT
 70
     0
  9
$DIMTFAC
 40
1.0
  9
$DIMGAP
 40
0.09
  9
$DIMJUST
 70
     0
  9
$DIMSD1
 70
     0
  9
$DIMSD2
 70
     0
  9
$DIMTOLJ
 70
     1
  9
$DIMTZIN
 70
     0
  9
$DIMALTZ
 70
     0
  9
$DIMALTTZ
 70
     0
  9
$DIMUPT
 70
     0
  9
$DIMDEC
 70
     4
  9
$DIMTDEC
 70
     4
  9
$DIMALTU
 70
     2
  9
$DIMALTTD
 70
     2
  9
$DIMTXSTY
  7
STANDARD
  9
$DIMAUNIT
 70
     0
  9
$DIMADEC
 70
     0
  9
$DIMALTRND
 40
0.0
  9
$DIMAZIN
 70
     0
  9
$DIMDSEP
 70
    46
  9
$DIMATFIT
 70
     3
  9
$DIMFRAC
 70
     0
  9
$DIMLDRBLK
  1

  9
$DIMLUNIT
 70
     2
  9
$DIMLWD
 70
    -2
  9
$DIMLWE
 70
    -2
  9
$DIMTMOVE
 70
     0
  9
$LUNITS
 70
     2
  9
$LUPREC
 70
     4
  9
$SKETCHINC
 40
0.1
  9
$FILLETRAD
 40
0.0
  9
$AUNITS
 70
     0
  9
$AUPREC
 70
     0
  9
$MENU
  1
acad
  9
$ELEVATION
 40
0.0
  9
$PELEVATION
 40
0.0
  9
$THICKNESS
 40
0.0
  9
$LIMCHECK
 70
     0
  9
$CHAMFERA
 40
0.0
  9
$CHAMFERB
 40
0.0
  9
$CHAMFERC
 40
0.0
  9
$CHAMFERD
 40
0.0
  9
$SKPOLY
 70
     0
  9
$TDCREATE
 40
2450686.780810185
  9
$TDUCREATE
 40
2450686.405810185
  9
$TDUPDATE
 40
2456525.597519710
  9
$TDUUPDATE
 40
2456525.222519710
  9
$TDINDWG
 40
0.0012962963
  9
$TDUSRTIMER
 40
0.0012962963
  9
$USRTIMER
 70
     1
  9
$ANGBASE
 50
0.0
  9
$ANGDIR
 70
     0
  9
$PDMODE
 70
     0
  9
$PDSIZE
 40
0.0
  9
$PLINEWID
 40
0.0
  9
$SPLFRAME
 70
     0
  9
$SPLINETYPE
 70
     6
  9
$SPLINESEGS
 70
     8
  9
$HANDSEED
  5
34A
  9
$SURFTAB1
 70
     6
  9
$SURFTAB2
 70
     6
  9
$SURFTYPE
 70
     6
  9
$SURFU
 70
     6
  9
$SURFV
 70
     6
  9
$UCSBASE
  2

  9
$UCSNAME
  2

  9
$UCSORG
 10
0.0
 20
0.0
 30
0.0
  9
$UCSXDIR
 10
1.0
 20
0.0
 30
0.0
  9
$UCSYDIR
 10
0.0
 20
1.0
 30
0.0
  9
$UCSORTHOREF
  2

  9
$UCSORTHOVIEW
 70
     0
  9
$UCSORGTOP
 10
0.0
 20
0.0
 30
0.0
  9
$UCSORGBOTTOM
 10
0.0
 20
0.0
 30
0.0
  9
$UCSORGLEFT
 10
0.0
 20
0.0
 30
0.0
  9
$UCSORGRIGHT
 10
0.0
 20
0.0
 30
0.0
  9
$UCSORGFRONT
 10
0.0
 20
0.0
 30
0.0
  9
$UCSORGBACK
 10
0.0
 20
0.0
 30
0.0
  9
$PUCSBASE
  2

  9
$PUCSNAME
  2

  9
$PUCSORG
 10
0.0
 20
0.0
 30
0.0
  9
$PUCSXDIR
 10
1.0
 20
0.0
 30
0.0
  9
$PUCSYDIR
 10
0.0
 20
1.0
 30
0.0
  9
$PUCSORTHOREF
  2

  9
$PUCSORTHOVIEW
 70
     0
  9
$PUCSORGTOP
 10
0.0
 20
0.0
 30
0.0
  9
$PUCSORGBOTTOM
 10
0.0
 20
0.0
 30
0.0
  9
$PUCSORGLEFT
 10
0.0
 20
0.0
 30
0.0
  9
$PUCSORGRIGHT
 10
0.0
 20
0.0
 30
0.0
  9
$PUCSORGFRONT
 10
0.0
 20
0.0
 30
0.0
  9
$PUCSORGBACK
 10
0.0
 20
0.0
 30
0.0
  9
$USERI1
 70
     0
  9
$USERI2
 70
     0
  9
$USERI3
 70
     0
  9
$USERI4
 70
     0
  9
$USERI5
 70
     0
  9
$USERR1
 40
0.0
  9
$USERR2
 40
0.0
  9
$USERR3
 40
0.0
  9
$USERR4
 40
0.0
  9
$USERR5
 40
0.0
  9
$WORLDVIEW
 70
     1
  9
$SHADEDGE
 70
     3
  9
$SHADEDIF
 70
    70
  9
$TILEMODE
 70
     1
  9
$MAXACTVP
 70
    16
  9
$PINSBASE
 10
0.0
 20
0.0
 30
0.0
  9
$PLIMCHECK
 70
     0
  9
$PEXTMIN
 10
1.000000000000000E+20
 20
1.000000000000000E+20
 30
1.000000000000000E+20
  9
$PEXTMAX
 10
-1.000000000000000E+20
 20
-1.000000000000000E+20
 30
-1.000000000000000E+20
  9
$PLIMMIN
 10
0.0
 20
0.0
  9
$PLIMMAX
 10
12.0
 20
9.0
  9
$UNITMODE
 70
     0
  9
$VISRETAIN
 70
     0
  9
$PLINEGEN
 70
     0
  9
$PSLTSCALE
 70
     1
  9
$TREEDEPTH
 70
  3020
  9
$CMLSTYLE
  2
Standard
  9
$CMLJUST
 70
     0
  9
$CMLSCALE
 40
1.0
  9
$PROXYGRAPHICS
 70
     1
  9
$MEASUREMENT
 70
     0
  9
$CELWEIGHT
370
    -1
  9
$ENDCAPS
280
     0
  9
$JOINSTYLE
280
     0
  9
$LWDISPLAY
290
     0
  9
$INSUNITS
 70
     0
  9
$HYPERLINKBASE
  1

  9
$STYLESHEET
  1

  9
$XEDIT
290
     1
  9
$CEPSNTYPE
380
     0
  9
$PSTYLEMODE
290
     1
  9
$FINGERPRINTGUID
  2
{F3328B5F-F174-490C-9BF2-A1586D9A1514}
  9
$VERSIONGUID
  2
{D7164B7C-3F73-482A-90CF-2401E666A8BD}
  9
$EXTNAMES
290
     1
  9
$PSVPSCALE
 40
0.0
  9
$OLESTARTUP
290
     0
  0
ENDSEC
  0
SECTION
  2
CLASSES
  0
CLASS
  1
ACDBDICTIONARYWDFLT
  2
AcDbDictionaryWithDefault
  3
AutoCAD 2000
 90
        0
280
     0
281
     0
  0
CLASS
  1
ACDBPLACEHOLDER
  2
AcDbPlaceHolder
  3
AutoCAD 2000
 90
        0
280
     0
281
     0
  0
CLASS
  1
LAYOUT
  2
AcDbLayout
  3
AutoCAD 2000
 90
        0
280
     0
281
     0
  0
CLASS
  1
AMGSETTINGSOBJ
  2
AmgSettingsObj
  3
"AcadM|Product Description: AutoCAD Mechanical 2000|Company: Autodesk"
 90
        0
280
     0
281
     0
  0
CLASS
  1
ACME_DOCUMENT
  2
AcMeDbDoc
  3
AcMeServices
 90
        0
280
     0
281
     0
  0
CLASS
  1
ACMESCOPE
  2
AcMeScope
  3
AcMeServices
 90
        0
280
     0
281
     0
  0
CLASS
  1
ACMECOMMANDHISTORY
  2
AcMeCommandHistory
  3
AcMeServices
 90
        0
280
     0
281
     0
  0
CLASS
  1
ACIMSYSVARMAN
  2
AcImSysVarManager
  3
AcMeServices
 90
        0
280
     0
281
     0
  0
CLASS
  1
ACIMREALSYSVAR
  2
AcImRealSysVar
  3
AcMeServices
 90
        0
280
     0
281
     0
  0
CLASS
  1
ACIMINTSYSVAR
  2
AcImIntSysVar
  3
AcMeServices
 90
        0
280
     0
281
     0
  0
CLASS
  1
ACMEDRAWINGMAN
  2
AcMeDrawingMan
  3
AcMeServices
 90
        0
280
     0
281
     0
  0
CLASS
  1
ACMEVIEW
  2
AcMeView
  3
AcMeServices
 90
        0
280
     0
281
     0
  0
CLASS
  1
ACDBENTITYCACHE
  2
AcMeEntityCache
  3
AcMeServices
 90
        0
280
     0
281
     0
  0
CLASS
  1
GSMANAGER
  2
AcMeGSManager
  3
AcMeServices
 90
        0
280
     0
281
     0
  0
CLASS
  1
AMDTINTERNALREACTOR
  2
AmdtInternalReactor
  3
AcMeServices
 90
        0
280
     0
281
     0
  0
CLASS
  1
ACMESTATEMGR
  2
AcMeStateMgr
  3
AcMeServices
 90
        0
280
     0
281
     0
  0
CLASS
  1
ACGREFMASTER
  2
AcGrefMaster
  3
AcAttribServices
 90
        0
280
     0
281
     0
  0
CLASS
  1
AM_DRAWING_MGR
  2
AcDmDwgMgr
  3
AcMechDwgViewMgmt
 90
        0
280
     0
281
     0
  0
CLASS
  1
AM_DWG_DOCUMENT
  2
AcDmDwgDocument
  3
AcMechDwgViewMgmt
 90
        0
280
     0
281
     0
  0
CLASS
  1
AM_DWG_SHEET
  2
AcDmSheet
  3
AcMechDwgViewMgmt
 90
        0
280
     0
281
     0
  0
CLASS
  1
AM_VIEWDIMPARMAP
  2
AcDmViewDimParMap
  3
AcMechDwgViewMgmt
 90
        0
280
     0
281
     0
  0
CLASS
  1
AM_DWGMGR_NAME
  2
AcDmDwgMgrName
  3
AcMechDwgViewMgmt
 90
        0
280
     0
281
     0
  0
CLASS
  1
ACME_DATABASE
  2
AcMeDbDatabase
  3
AcMeServices
 90
        0
280
     0
281
     0
  0
CLASS
  1
ACRFINSADJUSTERMGR
  2
AcRfInsAdjusterMgr
  3
AcMeServices
 90
        0
280
     0
281
     0
  0
CLASS
  1
ACGREFACADMASTER
  2
AcGrefacadMaster
  3
AcGrefServices
 90
        0
280
     0
281
     0
  0
CLASS
  1
AMDTMENUSTATEMGR
  2
AmdtMenuStateMgr
  3
McadcomServices
 90
        0
280
     0
281
     0
  0
CLASS
  1
AMDTMCOMMENUSTATE
  2
AmdtMcomMenuState
  3
McadcomServices
 90
        0
280
     0
281
     0
  0
CLASS
  1
AMIMASTER
  2
AmiMaster
  3
AmiServices
 90
        0
280
     0
281
     0
  0
CLASS
  1
ASAPP
  2
AcAsAppObject
  3
AutoSurfServices
 90
        0
280
     0
281
     0
  0
CLASS
  1
IM_STATIC_MAN
  2
AcImStaticVarManager
  3
AcMeServices
 90
        0
280
     0
281
     0
  0
CLASS
  1
ACIMSTRSYSVAR
  2
AcImStrSysVar
  3
AcMeServices
 90
        0
280
     0
281
     0
  0
CLASS
  1
ACIMDBLSTATICVAR
  2
AcImDblStaticVar
  3
AcMeServices
 90
        0
280
     0
281
     0
  0
CLASS
  1
ACIMSTRSTATICVAR
  2
AcImStrStaticVar
  3
AcMeServices
 90
        0
280
     0
281
     0
  0
CLASS
  1
ACIMINTSTATICVAR
  2
AcImIntStaticVar
  3
AcMeServices
 90
        0
280
     0
281
     0
  0
CLASS
  1
ACASGREFMASTER
  2
AcAsGrefMaster
  3
AutoSurfResolverServices
 90
        0
280
     0
281
     0
  0
CLASS
  1
ACADGREFMODULE
  2
AcAdGrefModule
  3
AdGrefServices
 90
        0
280
     0
281
     0
  0
CLASS
  1
AMDTMAPISURFMOUDULE
  2
AmdtMApiSurfModule
  3
MApiSurfServices
 90
        0
280
     0
281
     0
  0
CLASS
  1
MAPIAMMOUDLE
  2
MApiAmModule
  3
MApiAmServices
 90
        0
280
     0
281
     0
  0
CLASS
  1
AMDTADMENUSTATE
  2
AmdtAdMenuState
  3
DesignerServices
 90
        0
280
     0
281
     0
  0
CLASS
  1
ADAPPL
  2
AcAdAppl
  3
DesignerServices
 90
        0
280
     0
281
     0
  0
CLASS
  1
DEPMGR
  2
AcAdDepMgr
  3
DesignerServices
 90
        0
280
     0
281
     0
  0
CLASS
  1
PARAMMGR
  2
AcAdParamMgr
  3
DesignerServices
 90
        0
280
     0
281
     0
  0
CLASS
  1
PARAMSCOPE
  2
AcAdParamScope
  3
DesignerServices
 90
        0
280
     0
281
     0
  0
CLASS
  1
NAMEDAPPL
  2
AcAdNamedAppl
  3
DesignerServices
 90
        0
280
     0
281
     0
  0
CLASS
  1
AMDTDMMENUSTATE
  2
AmdtDmMenuState
  3
AcMechDwgViewMgmt
 90
        0
280
     0
281
     0
  0
CLASS
  1
MAPIADMODULE
  2
MApiAdModule
  3
MApiAdServices
 90
        0
280
     0
281
     0
  0
CLASS
  1
AMDTAMMENUSTATE
  2
AmdtAmMenuState
  3
DesignerAssemblies
 90
        0
280
     0
281
     0
  0
CLASS
  1
ACAMPROJECT
  2
AcAmProject
  3
DesignerAssemblies
 90
        0
280
     0
281
     0
  0
CLASS
  1
ACAMGRCOMPDEF
  2
AcAmGrCompDef
  3
DesignerAssemblies
 90
        0
280
     0
281
     0
  0
CLASS
  1
ACCMCONTEXT
  2
AcCmContext
  3
DesignerAssemblies
 90
        0
280
     0
281
     0
  0
CLASS
  1
ACAMCOMPDEF
  2
AcAmCompDef
  3
DesignerAssemblies
 90
        0
280
     0
281
     0
  0
CLASS
  1
ACAMCOMPDEFMGR
  2
AcAmCompDefMgr
  3
DesignerAssemblies
 90
        0
280
     0
281
     0
  0
CLASS
  1
AMCONTEXTMGR
  2
AcAmContextMgr
  3
DesignerAssemblies
 90
        0
280
     0
281
     0
  0
CLASS
  1
ACAMCONTEXTMODELER
  2
AcAmContextModeler
  3
DesignerAssemblies
 90
        0
280
     0
281
     0
  0
CLASS
  1
ACMDATADICTIONARY
  2
AcmDataDictionary
  3
"AcmSymBB|Product Description: AutoCAD Mechanical 2000|Company: Autodesk"
 90
        0
280
     0
281
     0
  0
CLASS
  1
ACMDATAENTRYBLOCK
  2
AcmDataEntryBlock
  3
"AcmSymBB|Product Description: AutoCAD Mechanical 2000|Company: Autodesk"
 90
        0
280
     0
281
     0
  0
CLASS
  1
CATALOGSTATE
  2
AcAmCatalogState
  3
DesignerAssemblies
 90
        0
280
     0
281
     0
  0
CLASS
  1
ACAMGRCOMPDEFSET
  2
AcAmGrCompDefSet
  3
DesignerAssemblies
 90
        0
280
     0
281
     0
  0
CLASS
  1
AMDTBROWSERDBTAB
  2
AmdtBrowserDbTab
  3
McadcomServices
 90
        0
280
     0
281
     0
  0
CLASS
  1
CBROWSERAPPOBJECT
  2
CBrowserAppObject
  3
McadcomServices
 90
        0
280
     0
281
     0
  0
CLASS
  1
DM_PLACEHOLDER
  2
AcDmSelsetPlaceholder
  3
AcMechDwgViewMgmt
 90
        0
280
     0
281
     0
  0
CLASS
  1
AMGOBJPROPCFG
  2
AmgObjPropCfg
  3
"AmgLay|Product Description: AutoCAD Mechanical 2000|Company: Autodesk"
 90
        1
280
     0
281
     0
  0
CLASS
  1
ACAMGFILTERDAT
  2
AcAmgFilterDat
  3
"AcadM|Product Description: AutoCAD Mechanical 2000|Company: Autodesk"
 90
        0
280
     0
281
     0
  0
CLASS
  1
LAYER_INDEX
  2
AcDbLayerIndex
  3
AutoCAD 2000
 90
        0
280
     0
281
     0
  0
CLASS
  1
IDBUFFER
  2
AcDbIdBuffer
  3
AutoCAD 2000
 90
        0
280
     0
281
     0
  0
CLASS
  1
DICTIONARYVAR
  2
AcDbDictionaryVar
  3
AutoCAD 2000
 90
        0
280
     0
281
     0
  0
ENDSEC
  0
SECTION
  2
TABLES
  0
TABLE
  2
VPORT
  5
8
330
0
100
AcDbSymbolTable
 70
     3
  0
VPORT
  5
349
330
8
100
AcDbSymbolTableRecord
100
AcDbViewportTableRecord
  2
*Active
 70
     0
 10
0.0
 20
0.0
 11
1.0
 21
1.0
 12
0.0
 22
0.0
 13
0.0
 23
0.0
 14
0.5
 24
0.5
 15
1.0
 25
1.0
 16
0.0
 26
0.0
 36
1.0
 17
465.2631578947367
 27
312.3154477101844
 37
0.0
 40
1249.261790840737
 41
1.489721886336154
 42
50.0
 43
0.0
 44
0.0
 50
0.0
 51
0.0
 71
     0
 72
 20000
 73
     1
 74
     1
 75
     0
 76
     0
 77
     0
 78
     0
281
     0
 65
     0
110
0.0
120
0.0
130
0.0
111
1.0
121
0.0
131
0.0
112
0.0
122
1.0
132
0.0
 79
     0
146
0.0
  0
ENDTAB
  0
TABLE
  2
LTYPE
  5
5
330
0
100
AcDbSymbolTable
 70
    19
  0
LTYPE
  5
13
330
5
100
AcDbSymbolTableRecord
100
AcDbLinetypeTableRecord
  2
ByBlock
 70
     0
  3

 72
    65
 73
     0
 40
0.0
  0
LTYPE
  5
14
330
5
100
AcDbSymbolTableRecord
100
AcDbLinetypeTableRecord
  2
ByLayer
 70
     0
  3

 72
    65
 73
     0
 40
0.0
  0
LTYPE
  5
15
330
5
100
AcDbSymbolTableRecord
100
AcDbLinetypeTableRecord
  2
CONTINUOUS
 70
     0
  3
Solid line
 72
    65
 73
     0
 40
0.0
  0
LTYPE
  5
23
330
5
100
AcDbSymbolTableRecord
100
AcDbLinetypeTableRecord
  2
BYLAYER
 70
     0
  3

 72
    65
 73
     0
 40
0.0
  0
LTYPE
  5
24
330
5
100
AcDbSymbolTableRecord
100
AcDbLinetypeTableRecord
  2
ITTEN1
 70
     0
  3

 72
    65
 73
     4
 40
8.199999999999999
 49
5.0
 74
     0
 49
-1.0
 74
     0
 49
1.199999999999999
 74
     0
 49
-1.0
 74
     0
  0
LTYPE
  5
25
330
5
100
AcDbSymbolTableRecord
100
AcDbLinetypeTableRecord
  2
TENSEN2
 70
     0
  3

 72
    65
 73
     2
 40
2.1
 49
1.5
 74
     0
 49
-0.6
 74
     0
  0
LTYPE
  5
282
330
5
100
AcDbSymbolTableRecord
100
AcDbLinetypeTableRecord
  2
HIDDEN
 70
     0
  3
Hidden __ __ __ __ __ __ __ __ __ __ __ __ __ _
 72
    65
 73
     2
 40
0.375
 49
0.25
 74
     0
 49
-0.125
 74
     0
  0
LTYPE
  5
283
330
5
100
AcDbSymbolTableRecord
100
AcDbLinetypeTableRecord
  2
PHANTOM2
 70
     0
  3
Phantom (.5x) ___ _ _ ___ _ _ ___ _ _ ___ _ _
 72
    65
 73
     6
 40
1.25
 49
0.625
 74
     0
 49
-0.125
 74
     0
 49
0.125
 74
     0
 49
-0.125
 74
     0
 49
0.125
 74
     0
 49
-0.125
 74
     0
  0
LTYPE
  5
284
330
5
100
AcDbSymbolTableRecord
100
AcDbLinetypeTableRecord
  2
CENTER
 70
     0
  3
Center ____ _ ____ _ ____ _ ____ _ ____ _ ____
 72
    65
 73
     4
 40
2.0
 49
1.25
 74
     0
 49
-0.25
 74
     0
 49
0.25
 74
     0
 49
-0.25
 74
     0
  0
LTYPE
  5
2E6
330
5
100
AcDbSymbolTableRecord
100
AcDbLinetypeTableRecord
  2
ASULTYPE
 70
     0
  3
実線
 72
    65
 73
     2
 40
3.0
 49
2.5
 74
     0
 49
0.5
 74
     0
  0
LTYPE
  5
2E7
330
5
100
AcDbSymbolTableRecord
100
AcDbLinetypeTableRecord
  2
ASVLTYPE
 70
     0
  3
__ __ __ __ __ __ __ __ __ __ __ __ __ __ __ __ __ __ __ __ __
 72
    65
 73
     2
 40
0.75
 49
0.5
 74
     0
 49
-0.25
 74
     0
  0
LTYPE
  5
328
330
5
100
AcDbSymbolTableRecord
100
AcDbLinetypeTableRecord
  2
AM_ISO02W050
 70
     0
  3
__ __ __ __ __ __ __ __ __ __ __ __ __ __ __
 72
    65
 73
     2
 40
7.5
 49
6.0
 74
     0
 49
-1.5
 74
     0
  0
LTYPE
  5
329
330
5
100
AcDbSymbolTableRecord
100
AcDbLinetypeTableRecord
  2
AM_ISO08W050
 70
     0
  3
____ . ____ . ____ . ____ . ____ . ____ . ____
 72
    65
 73
     4
 40
18.0
 49
12.0
 74
     0
 49
-1.5
 74
     0
 49
3.0
 74
     0
 49
-1.5
 74
     0
  0
LTYPE
  5
32A
330
5
100
AcDbSymbolTableRecord
100
AcDbLinetypeTableRecord
  2
AM_ISO09W050
 70
     0
  3
_____ . . _____ . . _____ . . ____ .. ____
 72
    65
 73
     6
 40
22.5
 49
12.0
 74
     0
 49
-1.5
 74
     0
 49
3.0
 74
     0
 49
-1.5
 74
     0
 49
3.0
 74
     0
 49
-1.5
 74
     0
  0
LTYPE
  5
32B
330
5
100
AcDbSymbolTableRecord
100
AcDbLinetypeTableRecord
  2
Amconstr
 70
     0
  3
_______________________
 72
    65
 73
     2
 40
9999.0
 49
9999.0
 74
     0
 49
0.0
 74
     0
  0
LTYPE
  5
32C
330
5
100
AcDbSymbolTableRecord
100
AcDbLinetypeTableRecord
  2
AM_ISO08W050x2
 70
     0
  3
__ . __ . __ . __ . __ . __
 72
    65
 73
     4
 40
9.0
 49
6.0
 74
     0
 49
-0.75
 74
     0
 49
1.5
 74
     0
 49
-0.75
 74
     0
  0
LTYPE
  5
32D
330
5
100
AcDbSymbolTableRecord
100
AcDbLinetypeTableRecord
  2
AM_ISO02W050x2
 70
     0
  3
 _ _ _ _ _ _ _ _ _ _ _ _
 72
    65
 73
     2
 40
3.75
 49
3.0
 74
     0
 49
-0.75
 74
     0
  0
LTYPE
  5
330
330
5
100
AcDbSymbolTableRecord
100
AcDbLinetypeTableRecord
  2
Amzigzag
 70
     0
  3
/\/-/\/-/\/-/\/-/\/-/\/
 72
    65
 73
     2
 40
11.00009999999999
 49
0.0001
 74
     4
 75
   135
340
32F
 46
0.04
 50
0.0
 44
0.0
 45
0.0
 49
-11.0
 74
     0
  0
LTYPE
  5
331
330
5
100
AcDbSymbolTableRecord
100
AcDbLinetypeTableRecord
  2
CENTER2
 70
     0
  3
Center (.5x) ___ _ ___ _ ___ _ ___ _ ___ _ ___
 72
    65
 73
     4
 40
1.125
 49
0.75
 74
     0
 49
-0.125
 74
     0
 49
0.125
 74
     0
 49
-0.125
 74
     0
  0
LTYPE
  5
332
330
5
100
AcDbSymbolTableRecord
100
AcDbLinetypeTableRecord
  2
HIDDEN2
 70
     0
  3
Hidden (.5x) _ _ _ _ _ _ _ _ _ _ _ _ _ _ _ _ _
 72
    65
 73
     2
 40
0.1875
 49
0.125
 74
     0
 49
-0.0625
 74
     0
  0
LTYPE
  5
333
330
5
100
AcDbSymbolTableRecord
100
AcDbLinetypeTableRecord
  2
Amzigzag2
 70
     0
  3
/\/-/\/-/\/-/\/-/\/-/\/
 72
    65
 73
     2
 40
0.4401
 49
0.0001
 74
     4
 75
   135
340
32F
 46
0.0016
 50
0.0
 44
0.0
 45
0.0
 49
-0.4400000000000001
 74
     0
  0
ENDTAB
  0
TABLE
  2
LAYER
  5
2
330
0
100
AcDbSymbolTable
 70
     5
  0
LAYER
  5
10
330
2
100
AcDbSymbolTableRecord
100
AcDbLayerTableRecord
  2
0
 70
     0
 62
     7
  6
CONTINUOUS
370
    -3
390
F
  0
LAYER
  5
26
330
2
100
AcDbSymbolTableRecord
100
AcDbLayerTableRecord
  2
1
 70
     0
 62
     1
  6
ITTEN1
370
    -3
390
F
  0
LAYER
  5
27
330
2
100
AcDbSymbolTableRecord
100
AcDbLayerTableRecord
  2
2
 70
     0
 62
     2
  6
TENSEN2
370
    -3
390
F
  0
LAYER
  5
28
330
2
100
AcDbSymbolTableRecord
100
AcDbLayerTableRecord
  2
3
 70
     0
 62
     3
  6
CONTINUOUS
370
    -3
390
F
  0
LAYER
  5
29
330
2
100
AcDbSymbolTableRecord
100
AcDbLayerTableRecord
  2
4
 70
     0
 62
     6
  6
CONTINUOUS
370
    -3
390
F
  0
ENDTAB
  0
TABLE
  2
STYLE
  5
3
330
0
100
AcDbSymbolTable
 70
     4
  0
STYLE
  5
11
330
3
100
AcDbSymbolTableRecord
100
AcDbTextStyleTableRecord
  2
STANDARD
 70
     0
 40
0.0
 41
1.0
 50
0.0
 71
     0
 42
0.2
  3
txt
  4

  0
STYLE
  5
22
330
3
100
AcDbSymbolTableRecord
100
AcDbTextStyleTableRecord
  2
BIGFONT
 70
     0
 40
12.0
 41
0.8
 50
0.0
 71
     0
 42
12.0
  3

  4
bigfont
  0
STYLE
  5
2A
330
3
100
AcDbSymbolTableRecord
100
AcDbTextStyleTableRecord
  2
EXTFONT
 70
     0
 40
6.0
 41
0.8
 50
0.0
 71
     0
 42
6.0
  3
txt.shx
  4
extfont.shx
  0
STYLE
  5
32F
330
3
100
AcDbSymbolTableRecord
100
AcDbTextStyleTableRecord
  2

 70
     1
 40
0.0
 41
1.0
 50
0.0
 71
     0
 42
12.0
  3
ltypeshp.shx
  4

  0
ENDTAB
  0
TABLE
  2
VIEW
  5
6
330
0
100
AcDbSymbolTable
 70
     0
  0
ENDTAB
  0
TABLE
  2
UCS
  5
7
330
0
100
AcDbSymbolTable
 70
     0
  0
ENDTAB
  0
TABLE
  2
APPID
  5
9
330
0
100
AcDbSymbolTable
 70
    12
  0
APPID
  5
12
330
9
100
AcDbSymbolTableRecord
100
AcDbRegAppTableRecord
  2
ACAD
 70
     0
  0
APPID
  5
261
330
9
100
AcDbSymbolTableRecord
100
AcDbRegAppTableRecord
  2
GENIUS_GENDIM_13
 70
     0
  0
APPID
  5
262
330
9
100
AcDbSymbolTableRecord
100
AcDbRegAppTableRecord
  2
GENIUS_GENDTOL_13
 70
     0
  0
APPID
  5
263
330
9
100
AcDbSymbolTableRecord
100
AcDbRegAppTableRecord
  2
GENIUS_GE3DTOL_13
 70
     0
  0
APPID
  5
265
330
9
100
AcDbSymbolTableRecord
100
AcDbRegAppTableRecord
  2
MCAD_NO_VIS
 70
     0
  0
APPID
  5
266
330
9
100
AcDbSymbolTableRecord
100
AcDbRegAppTableRecord
  2
ACAD_TEMP_GRAPHIC
 70
     0
  0
APPID
  5
299
330
9
100
AcDbSymbolTableRecord
100
AcDbRegAppTableRecord
  2
AD_DRAW
 70
     0
  0
APPID
  5
29C
330
9
100
AcDbSymbolTableRecord
100
AcDbRegAppTableRecord
  2
ACATTRIBSERVICES
 70
     0
  0
APPID
  5
2E8
330
9
100
AcDbSymbolTableRecord
100
AcDbRegAppTableRecord
  2
ASURF_PCURVE_APPNAME
 70
     0
  0
APPID
  5
317
330
9
100
AcDbSymbolTableRecord
100
AcDbRegAppTableRecord
  2
DESIGNERASSEMBLIES
 70
     0
  0
APPID
  5
31F
330
9
100
AcDbSymbolTableRecord
100
AcDbRegAppTableRecord
  2
ACADM_DIM_EDIT
 70
     0
  0
APPID
  5
320
330
9
100
AcDbSymbolTableRecord
100
AcDbRegAppTableRecord
  2
AMDT_DM_ADJ
 70
     0
  0
ENDTAB
  0
TABLE
  2
DIMSTYLE
  5
A
330
0
100
AcDbSymbolTable
 70
     1
100
AcDbDimStyleTable
 71
     0
  0
DIMSTYLE
105
2B
330
A
100
AcDbSymbolTableRecord
100
AcDbDimStyleTableRecord
  2
STANDARD
 70
     0
279
     2
340
22
  0
ENDTAB
  0
TABLE
  2
BLOCK_RECORD
  5
1
330
0
100
AcDbSymbolTable
 70
     1
  0
BLOCK_RECORD
  5
1E
102
{ACAD_XDICTIONARY
360
33E
102
}
330
1
100
AcDbSymbolTableRecord
100
AcDbBlockTableRecord
  2
*Model_Space
340
21
  0
BLOCK_RECORD
  5
1A
330
1
100
AcDbSymbolTableRecord
100
AcDbBlockTableRecord
  2
*Paper_Space
340
1D
  0
BLOCK_RECORD
  5
30E
330
1
100
AcDbSymbolTableRecord
100
AcDbBlockTableRecord
  2
*U0
340
0
  0
ENDTAB
  0
ENDSEC
  0
SECTION
  2
BLOCKS
  0
BLOCK
  5
1F
330
1E
100
AcDbEntity
  8
0
100
AcDbBlockBegin
  2
*Model_Space
 70
     0
 10
0.0
 20
0.0
 30
0.0
  3
*Model_Space
  1

  0
ENDBLK
  5
20
330
1E
100
AcDbEntity
  8
0
100
AcDbBlockEnd
  0
BLOCK
  5
1B
330
1A
100
AcDbEntity
 67
     1
  8
0
100
AcDbBlockBegin
  2
*Paper_Space
 70
     0
 10
0.0
 20
0.0
 30
0.0
  3
*Paper_Space
  1

  0
ENDBLK
  5
1C
330
1A
100
AcDbEntity
 67
     1
  8
0
100
AcDbBlockEnd
  0
BLOCK
  5
30F
330
30E
100
AcDbEntity
  8
0
100
AcDbBlockBegin
  2
*U0
 70
     1
 10
0.0
 20
0.0
 30
0.0
  3
*U0
  1

  0
ENDBLK
  5
310
330
30E
100
AcDbEntity
  8
0
100
AcDbBlockEnd
  0
ENDSEC
  0
SECTION
  2
ENTITIES
  0
LINE
  5
3D
330
1E
100
AcDbEntity
  8
0
100
AcDbLine
 10
209.5
 20
203.5
 30
0.0
 11
209.5
 21
218.5
 31
0.0
  0
LINE
  5
3E
330
1E
100
AcDbEntity
  8
0
100
AcDbLine
 10
209.5
 20
218.5
 30
0.0
 11
206.4999999999999
 21
221.4999999999998
 31
0.0
  0
LINE
  5
3F
330
1E
100
AcDbEntity
  8
0
100
AcDbLine
 10
206.4999999999999
 20
221.4999999999998
 30
0.0
 11
181.4999999999998
 21
221.4999999999998
 31
0.0
  0
LINE
  5
40
330
1E
100
AcDbEntity
  8
0
100
AcDbLine
 10
181.4999999999998
 20
221.4999999999998
 30
0.0
 11
179.4999999999998
 21
223.4999999999998
 31
0.0
  0
LINE
  5
41
330
1E
100
AcDbEntity
  8
0
100
AcDbLine
 10
179.4999999999998
 20
248.4999999999998
 30
0.0
 11
179.4999999999998
 21
278.5
 31
0.0
  0
LINE
  5
42
330
1E
100
AcDbEntity
  8
0
100
AcDbLine
 10
100.5
 20
221.4999999999998
 30
0.0
 11
125.5
 21
221.4999999999998
 31
0.0
  0
LINE
  5
43
330
1E
100
AcDbEntity
  8
0
100
AcDbLine
 10
125.5
 20
221.4999999999998
 30
0.0
 11
127.5
 21
223.4999999999998
 31
0.0
  0
LINE
  5
44
330
1E
100
AcDbEntity
  8
0
100
AcDbLine
 10
127.5
 20
248.4999999999998
 30
0.0
 11
127.5
 21
278.5
 31
0.0
  0
LINE
  5
45
330
1E
100
AcDbEntity
  8
0
100
AcDbLine
 10
209.5
 20
203.5
 30
0.0
 11
176.5
 21
203.5
 31
0.0
  0
LINE
  5
46
330
1E
100
AcDbEntity
  8
0
100
AcDbLine
 10
97.5
 20
203.5
 30
0.0
 11
97.5
 21
218.5
 31
0.0
  0
LINE
  5
47
330
1E
100
AcDbEntity
  8
0
100
AcDbLine
 10
97.5
 20
218.5
 30
0.0
 11
100.5
 21
221.4999999999998
 31
0.0
  0
LINE
  5
48
330
1E
100
AcDbEntity
  8
0
100
AcDbLine
 10
176.5
 20
203.5
 30
0.0
 11
176.5
 21
218.5
 31
0.0
  0
LINE
  5
49
330
1E
100
AcDbEntity
  8
0
100
AcDbLine
 10
176.5
 20
218.5
 30
0.0
 11
177.5
 21
219.4999999999998
 31
0.0
  0
LINE
  5
4A
330
1E
100
AcDbEntity
  8
0
100
AcDbLine
 10
177.5
 20
219.4999999999998
 30
0.0
 11
208.4999999999999
 21
219.4999999999998
 31
0.0
  0
LINE
  5
4B
330
1E
100
AcDbEntity
  8
0
100
AcDbLine
 10
130.4999999999998
 20
203.5
 30
0.0
 11
130.4999999999998
 21
218.5
 31
0.0
  0
LINE
  5
4C
330
1E
100
AcDbEntity
  8
0
100
AcDbLine
 10
130.4999999999998
 20
218.5
 30
0.0
 11
129.4999999999998
 21
219.4999999999998
 31
0.0
  0
LINE
  5
4D
330
1E
100
AcDbEntity
  8
0
100
AcDbLine
 10
129.4999999999998
 20
219.4999999999998
 30
0.0
 11
98.50000000000001
 21
219.4999999999998
 31
0.0
  0
LINE
  5
4E
330
1E
100
AcDbEntity
  8
1
100
AcDbLine
 10
198.5
 20
196.5
 30
0.0
 11
198.5
 21
226.5
 31
0.0
  0
LINE
  5
4F
330
1E
100
AcDbEntity
  8
1
100
AcDbLine
 10
108.4999999999999
 20
196.5
 30
0.0
 11
108.4999999999999
 21
226.5
 31
0.0
  0
LINE
  5
50
330
1E
100
AcDbEntity
  8
2
100
AcDbLine
 10
114.0
 20
203.5
 30
0.0
 11
114.0
 21
221.4999999999998
 31
0.0
  0
LINE
  5
51
330
1E
100
AcDbEntity
  8
2
100
AcDbLine
 10
103.0
 20
203.5
 30
0.0
 11
103.0
 21
221.4999999999998
 31
0.0
  0
LINE
  5
52
330
1E
100
AcDbEntity
  8
2
100
AcDbLine
 10
204.0
 20
203.5
 30
0.0
 11
204.0
 21
221.4999999999998
 31
0.0
  0
LINE
  5
53
330
1E
100
AcDbEntity
  8
2
100
AcDbLine
 10
192.9999999999998
 20
203.5
 30
0.0
 11
192.9999999999998
 21
221.4999999999998
 31
0.0
  0
LINE
  5
54
330
1E
100
AcDbEntity
  8
0
100
AcDbLine
 10
176.5
 20
203.5
 30
0.0
 11
174.5
 21
206.4999999999999
 31
0.0
  0
LINE
  5
55
330
1E
100
AcDbEntity
  8
0
100
AcDbLine
 10
174.5
 20
206.4999999999999
 30
0.0
 11
132.4999999999998
 21
206.4999999999999
 31
0.0
  0
LINE
  5
56
330
1E
100
AcDbEntity
  8
0
100
AcDbLine
 10
132.4999999999998
 20
206.4999999999999
 30
0.0
 11
130.4999999999998
 21
203.5
 31
0.0
  0
LINE
  5
57
330
1E
100
AcDbEntity
  8
0
100
AcDbLine
 10
130.4999999999998
 20
203.5
 30
0.0
 11
97.5
 21
203.5
 31
0.0
  0
LINE
  5
58
330
1E
100
AcDbEntity
  8
0
100
AcDbLine
 10
153.5
 20
214.5
 30
0.0
 11
170.5
 21
214.5
 31
0.0
  0
LINE
  5
59
330
1E
100
AcDbEntity
  8
0
100
AcDbLine
 10
153.5
 20
214.5
 30
0.0
 11
136.4999999999998
 21
214.5
 31
0.0
  0
LINE
  5
5A
330
1E
100
AcDbEntity
  8
0
100
AcDbLine
 10
173.5
 20
242.5
 30
0.0
 11
173.5
 21
254.4999999999999
 31
0.0
  0
LINE
  5
5B
330
1E
100
AcDbEntity
  8
0
100
AcDbLine
 10
133.4999999999998
 20
242.5
 30
0.0
 11
133.4999999999998
 21
254.4999999999999
 31
0.0
  0
ARC
  5
5C
330
1E
100
AcDbEntity
  8
0
100
AcDbCircle
 10
137.0
 20
218.0
 30
0.0
 40
3.535533905932736
100
AcDbArc
 50
188.130102354156
 51
261.869897645844
  0
ARC
  5
5D
330
1E
100
AcDbEntity
  8
0
100
AcDbCircle
 10
170.0
 20
218.0
 30
0.0
 40
3.535533905932736
100
AcDbArc
 50
278.130102354156
 51
351.8698976458438
  0
ARC
  5
5F
330
1E
100
AcDbEntity
  8
0
100
AcDbCircle
 10
654.25
 20
254.2499999999999
 30
0.0
 40
3.259601202601323
100
AcDbArc
 50
57.52880770915155
 51
184.3987053549955
  0
ARC
  5
60
330
1E
100
AcDbEntity
  8
0
100
AcDbCircle
 10
687.9999999999999
 20
254.6666666666665
 30
0.0
 40
3.073181485764293
100
AcDbArc
 50
347.4711922908485
 51
130.6012946450042
  0
LINE
  5
61
330
1E
100
AcDbEntity
  8
0
100
AcDbLine
 10
645.0
 20
248.4999999999998
 30
0.0
 11
645.0
 21
278.5
 31
0.0
  0
LINE
  5
62
330
1E
100
AcDbEntity
  8
0
100
AcDbLine
 10
696.9999999999998
 20
248.4999999999998
 30
0.0
 11
696.9999999999998
 21
278.5
 31
0.0
  0
LINE
  5
63
330
1E
100
AcDbEntity
  8
0
100
AcDbLine
 10
648.0
 20
203.5
 30
0.0
 11
615.0
 21
203.5
 31
0.0
  0
LINE
  5
64
330
1E
100
AcDbEntity
  8
0
100
AcDbLine
 10
646.9999999999998
 20
219.4999999999998
 30
0.0
 11
616.0
 21
219.4999999999998
 31
0.0
  0
LINE
  5
65
330
1E
100
AcDbEntity
  8
0
100
AcDbLine
 10
617.9999999999998
 20
221.4999999999998
 30
0.0
 11
642.9999999999998
 21
221.4999999999998
 31
0.0
  0
LINE
  5
66
330
1E
100
AcDbEntity
  8
1
100
AcDbLine
 10
625.9999999999998
 20
197.5
 30
0.0
 11
625.9999999999998
 21
227.4999999999999
 31
0.0
  0
LINE
  5
67
330
1E
100
AcDbEntity
  8
2
100
AcDbLine
 10
620.5
 20
203.5
 30
0.0
 11
620.5
 21
221.4999999999998
 31
0.0
  0
LINE
  5
68
330
1E
100
AcDbEntity
  8
2
100
AcDbLine
 10
631.5
 20
203.5
 30
0.0
 11
631.5
 21
221.4999999999998
 31
0.0
  0
LINE
  5
69
330
1E
100
AcDbEntity
  8
0
100
AcDbLine
 10
615.0
 20
203.5
 30
0.0
 11
615.0
 21
218.5
 31
0.0
  0
LINE
  5
6A
330
1E
100
AcDbEntity
  8
0
100
AcDbLine
 10
615.0
 20
218.5
 30
0.0
 11
617.9999999999998
 21
221.4999999999998
 31
0.0
  0
ARC
  5
6C
330
1E
100
AcDbEntity
  8
0
100
AcDbCircle
 10
670.9999999999999
 20
277.0
 30
0.0
 40
25.0
100
AcDbArc
 50
233.1301023541559
 51
306.8698976458438
  0
LINE
  5
6D
330
1E
100
AcDbEntity
  8
0
100
AcDbLine
 10
670.9999999999999
 20
214.5
 30
0.0
 11
687.9999999999999
 21
214.5
 31
0.0
  0
LINE
  5
6E
330
1E
100
AcDbEntity
  8
0
100
AcDbLine
 10
691.9999999999999
 20
206.4999999999999
 30
0.0
 11
650.0
 21
206.4999999999999
 31
0.0
  0
LINE
  5
6F
330
1E
100
AcDbEntity
  8
0
100
AcDbLine
 10
670.9999999999999
 20
214.5
 30
0.0
 11
654.0
 21
214.5
 31
0.0
  0
ARC
  5
70
330
1E
100
AcDbEntity
  8
0
100
AcDbCircle
 10
654.4999999999999
 20
218.0
 30
0.0
 40
3.535533905932736
100
AcDbArc
 50
188.130102354156
 51
261.869897645844
  0
LINE
  5
71
330
1E
100
AcDbEntity
  8
0
100
AcDbLine
 10
648.0
 20
203.5
 30
0.0
 11
648.0
 21
218.5
 31
0.0
  0
LINE
  5
72
330
1E
100
AcDbEntity
  8
0
100
AcDbLine
 10
650.0
 20
206.4999999999999
 30
0.0
 11
648.0
 21
203.5
 31
0.0
  0
LINE
  5
73
330
1E
100
AcDbEntity
  8
0
100
AcDbLine
 10
642.9999999999998
 20
221.4999999999998
 30
0.0
 11
645.0
 21
223.4999999999998
 31
0.0
  0
LINE
  5
74
330
1E
100
AcDbEntity
  8
0
100
AcDbLine
 10
650.9999999999998
 20
242.5
 30
0.0
 11
650.9999999999998
 21
254.4999999999999
 31
0.0
  0
LINE
  5
75
330
1E
100
AcDbEntity
  8
0
100
AcDbLine
 10
648.0
 20
218.5
 30
0.0
 11
646.9999999999998
 21
219.4999999999998
 31
0.0
  0
LINE
  5
76
330
1E
100
AcDbEntity
  8
1
100
AcDbLine
 10
716.0
 20
197.5
 30
0.0
 11
716.0
 21
227.4999999999999
 31
0.0
  0
LINE
  5
77
330
1E
100
AcDbEntity
  8
0
100
AcDbLine
 10
727.0
 20
203.5
 30
0.0
 11
694.0
 21
203.5
 31
0.0
  0
LINE
  5
78
330
1E
100
AcDbEntity
  8
0
100
AcDbLine
 10
695.0
 20
219.4999999999998
 30
0.0
 11
726.0
 21
219.4999999999998
 31
0.0
  0
LINE
  5
79
330
1E
100
AcDbEntity
  8
0
100
AcDbLine
 10
724.0
 20
221.4999999999998
 30
0.0
 11
699.0
 21
221.4999999999998
 31
0.0
  0
ARC
  5
7A
330
1E
100
AcDbEntity
  8
0
100
AcDbCircle
 10
687.5
 20
218.0
 30
0.0
 40
3.535533905932736
100
AcDbArc
 50
278.130102354156
 51
351.8698976458438
  0
LINE
  5
7B
330
1E
100
AcDbEntity
  8
0
100
AcDbLine
 10
694.0
 20
203.5
 30
0.0
 11
694.0
 21
218.5
 31
0.0
  0
LINE
  5
7C
330
1E
100
AcDbEntity
  8
0
100
AcDbLine
 10
694.0
 20
203.5
 30
0.0
 11
691.9999999999999
 21
206.4999999999999
 31
0.0
  0
LINE
  5
7D
330
1E
100
AcDbEntity
  8
0
100
AcDbLine
 10
691.0
 20
242.5
 30
0.0
 11
691.0
 21
254.4999999999999
 31
0.0
  0
LINE
  5
7E
330
1E
100
AcDbEntity
  8
0
100
AcDbLine
 10
699.0
 20
221.4999999999998
 30
0.0
 11
696.9999999999998
 21
223.4999999999998
 31
0.0
  0
LINE
  5
7F
330
1E
100
AcDbEntity
  8
0
100
AcDbLine
 10
694.0
 20
218.5
 30
0.0
 11
695.0
 21
219.4999999999998
 31
0.0
  0
LINE
  5
80
330
1E
100
AcDbEntity
  8
2
100
AcDbLine
 10
710.5
 20
203.5
 30
0.0
 11
710.5
 21
221.4999999999998
 31
0.0
  0
LINE
  5
81
330
1E
100
AcDbEntity
  8
2
100
AcDbLine
 10
721.4999999999999
 20
203.5
 30
0.0
 11
721.4999999999999
 21
221.4999999999998
 31
0.0
  0
LINE
  5
82
330
1E
100
AcDbEntity
  8
0
100
AcDbLine
 10
727.0
 20
203.5
 30
0.0
 11
727.0
 21
218.5
 31
0.0
  0
LINE
  5
83
330
1E
100
AcDbEntity
  8
0
100
AcDbLine
 10
727.0
 20
218.5
 30
0.0
 11
724.0
 21
221.4999999999998
 31
0.0
  0
LINE
  5
84
330
1E
100
AcDbEntity
  8
0
100
AcDbLine
 10
475.9999999999999
 20
203.5
 30
0.0
 11
456.0
 21
203.5
 31
0.0
  0
LINE
  5
85
330
1E
100
AcDbEntity
  8
0
100
AcDbLine
 10
456.0
 20
203.5
 30
0.0
 11
456.0
 21
218.5
 31
0.0
  0
LINE
  5
86
330
1E
100
AcDbEntity
  8
0
100
AcDbLine
 10
475.9999999999999
 20
203.5
 30
0.0
 11
495.9999999999999
 21
203.5
 31
0.0
  0
LINE
  5
87
330
1E
100
AcDbEntity
  8
0
100
AcDbLine
 10
495.9999999999999
 20
203.5
 30
0.0
 11
495.9999999999999
 21
218.5
 31
0.0
  0
LINE
  5
88
330
1E
100
AcDbEntity
  8
0
100
AcDbLine
 10
495.9999999999999
 20
218.5
 30
0.0
 11
495.0
 21
219.4999999999998
 31
0.0
  0
LINE
  5
89
330
1E
100
AcDbEntity
  8
0
100
AcDbLine
 10
495.0
 20
219.4999999999998
 30
0.0
 11
457.0
 21
219.4999999999998
 31
0.0
  0
LINE
  5
8A
330
1E
100
AcDbEntity
  8
0
100
AcDbLine
 10
457.0
 20
219.4999999999998
 30
0.0
 11
456.0
 21
218.5
 31
0.0
  0
LINE
  5
8B
330
1E
100
AcDbEntity
  8
0
100
AcDbLine
 10
491.5
 20
219.4999999999998
 30
0.0
 11
490.5
 21
221.4999999999998
 31
0.0
  0
LINE
  5
8C
330
1E
100
AcDbEntity
  8
0
100
AcDbLine
 10
490.5
 20
221.4999999999998
 30
0.0
 11
461.5
 21
221.4999999999998
 31
0.0
  0
LINE
  5
8D
330
1E
100
AcDbEntity
  8
0
100
AcDbLine
 10
461.5
 20
221.4999999999998
 30
0.0
 11
460.5
 21
219.4999999999998
 31
0.0
  0
LINE
  5
8E
330
1E
100
AcDbEntity
  8
0
100
AcDbLine
 10
491.9999999999999
 20
244.4999999999998
 30
0.0
 11
491.9999999999999
 21
303.5
 31
0.0
  0
LINE
  5
8F
330
1E
100
AcDbEntity
  8
0
100
AcDbLine
 10
491.9999999999999
 20
303.5
 30
0.0
 11
491.0
 21
304.4999999999999
 31
0.0
  0
LINE
  5
90
330
1E
100
AcDbEntity
  8
0
100
AcDbLine
 10
491.0
 20
304.4999999999999
 30
0.0
 11
458.0
 21
304.4999999999999
 31
0.0
  0
LINE
  5
91
330
1E
100
AcDbEntity
  8
0
100
AcDbLine
 10
458.0
 20
304.4999999999999
 30
0.0
 11
457.0
 21
303.5
 31
0.0
  0
LINE
  5
92
330
1E
100
AcDbEntity
  8
0
100
AcDbLine
 10
460.0
 20
252.4999999999999
 30
0.0
 11
460.0
 21
244.4999999999998
 31
0.0
  0
LINE
  5
93
330
1E
100
AcDbEntity
  8
0
100
AcDbLine
 10
460.0
 20
252.4999999999999
 30
0.0
 11
460.0
 21
275.6752527843663
 31
0.0
  0
LINE
  5
94
330
1E
100
AcDbEntity
  8
2
100
AcDbLine
 10
481.5
 20
203.5
 30
0.0
 11
481.5
 21
221.4999999999998
 31
0.0
  0
LINE
  5
95
330
1E
100
AcDbEntity
  8
2
100
AcDbLine
 10
470.5
 20
203.5
 30
0.0
 11
470.5
 21
221.4999999999998
 31
0.0
  0
LINE
  5
96
330
1E
100
AcDbEntity
  8
2
100
AcDbLine
 10
491.9999999999999
 20
219.4999999999998
 30
0.0
 11
491.9999999999999
 21
206.4999999999999
 31
0.0
  0
LINE
  5
97
330
1E
100
AcDbEntity
  8
2
100
AcDbLine
 10
460.0
 20
219.4999999999998
 30
0.0
 11
460.0
 21
206.4999999999999
 31
0.0
  0
LINE
  5
98
330
1E
100
AcDbEntity
  8
2
100
AcDbLine
 10
460.0
 20
252.4999999999999
 30
0.0
 11
467.4999999999999
 21
250.4999999999999
 31
0.0
  0
LINE
  5
99
330
1E
100
AcDbEntity
  8
2
100
AcDbLine
 10
467.4999999999999
 20
225.4999999999999
 30
0.0
 11
467.4999999999999
 21
217.5
 31
0.0
  0
LINE
  5
9A
330
1E
100
AcDbEntity
  8
2
100
AcDbLine
 10
467.4999999999999
 20
217.5
 30
0.0
 11
460.0
 21
214.5
 31
0.0
  0
LINE
  5
9B
330
1E
100
AcDbEntity
  8
2
100
AcDbLine
 10
491.9999999999999
 20
252.4999999999999
 30
0.0
 11
484.4999999999999
 21
250.4999999999999
 31
0.0
  0
LINE
  5
9C
330
1E
100
AcDbEntity
  8
2
100
AcDbLine
 10
484.4999999999999
 20
225.4999999999999
 30
0.0
 11
484.4999999999999
 21
217.5
 31
0.0
  0
LINE
  5
9D
330
1E
100
AcDbEntity
  8
2
100
AcDbLine
 10
484.4999999999999
 20
217.5
 30
0.0
 11
491.9999999999999
 21
214.5
 31
0.0
  0
TEXT
  5
9E
330
1E
100
AcDbEntity
  8
3
100
AcDbText
 10
647.4328577026373
 20
50.92905242422097
 30
0.0
 40
12.0
  1
スタンド・スパンナー
 41
0.8
  7
BIGFONT
100
AcDbText
  0
LINE
  5
9F
330
1E
100
AcDbEntity
  8
1
100
AcDbLine
 10
475.9999999999999
 20
13.0
 30
0.0
 11
475.9999999999999
 21
141.5
 31
0.0
  0
CIRCLE
  5
A0
330
1E
100
AcDbEntity
  8
0
100
AcDbCircle
 10
475.9999999999999
 20
33.5
 30
0.0
 40
5.5
  0
LINE
  5
A1
330
1E
100
AcDbEntity
  8
1
100
AcDbLine
 10
464.5
 20
33.5
 30
0.0
 11
487.9999999999999
 21
33.5
 31
0.0
  0
LINE
  5
A2
330
1E
100
AcDbEntity
  8
0
100
AcDbLine
 10
475.9999999999999
 20
22.5
 30
0.0
 11
495.0
 21
22.5
 31
0.0
  0
LINE
  5
A3
330
1E
100
AcDbEntity
  8
0
100
AcDbLine
 10
456.0
 20
23.5
 30
0.0
 11
456.0
 21
54.5
 31
0.0
  0
LINE
  5
A4
330
1E
100
AcDbEntity
  8
0
100
AcDbLine
 10
475.9999999999999
 20
22.5
 30
0.0
 11
457.0
 21
22.5
 31
0.0
  0
LINE
  5
A5
330
1E
100
AcDbEntity
  8
0
100
AcDbLine
 10
457.0
 20
22.5
 30
0.0
 11
456.0
 21
23.5
 31
0.0
  0
LINE
  5
A6
330
1E
100
AcDbEntity
  8
0
100
AcDbLine
 10
456.0
 20
54.5
 30
0.0
 11
457.0
 21
55.5
 31
0.0
  0
LINE
  5
A7
330
1E
100
AcDbEntity
  8
0
100
AcDbLine
 10
495.9999999999999
 20
23.5
 30
0.0
 11
495.9999999999999
 21
54.5
 31
0.0
  0
LINE
  5
A8
330
1E
100
AcDbEntity
  8
0
100
AcDbLine
 10
495.0
 20
22.5
 30
0.0
 11
495.9999999999999
 21
23.5
 31
0.0
  0
LINE
  5
A9
330
1E
100
AcDbEntity
  8
0
100
AcDbLine
 10
495.0
 20
55.5
 30
0.0
 11
491.9999999999999
 21
55.5
 31
0.0
  0
LINE
  5
AA
330
1E
100
AcDbEntity
  8
0
100
AcDbLine
 10
495.9999999999999
 20
54.5
 30
0.0
 11
495.0
 21
55.5
 31
0.0
  0
CIRCLE
  5
AB
330
1E
100
AcDbEntity
  8
0
100
AcDbCircle
 10
475.9999999999999
 20
123.5
 30
0.0
 40
5.5
  0
LINE
  5
AC
330
1E
100
AcDbEntity
  8
1
100
AcDbLine
 10
464.5
 20
123.5
 30
0.0
 11
487.9999999999999
 21
123.5
 31
0.0
  0
LINE
  5
AD
330
1E
100
AcDbEntity
  8
0
100
AcDbLine
 10
495.0
 20
134.4999999999998
 30
0.0
 11
457.0
 21
134.4999999999998
 31
0.0
  0
LINE
  5
AE
330
1E
100
AcDbEntity
  8
0
100
AcDbLine
 10
456.0
 20
133.4999999999998
 30
0.0
 11
456.0
 21
102.4999999999999
 31
0.0
  0
LINE
  5
AF
330
1E
100
AcDbEntity
  8
0
100
AcDbLine
 10
456.0
 20
102.4999999999999
 30
0.0
 11
457.0
 21
101.5
 31
0.0
  0
LINE
  5
B0
330
1E
100
AcDbEntity
  8
0
100
AcDbLine
 10
457.0
 20
134.4999999999998
 30
0.0
 11
456.0
 21
133.4999999999998
 31
0.0
  0
LINE
  5
B1
330
1E
100
AcDbEntity
  8
0
100
AcDbLine
 10
495.9999999999999
 20
133.4999999999998
 30
0.0
 11
495.9999999999999
 21
102.4999999999999
 31
0.0
  0
LINE
  5
B2
330
1E
100
AcDbEntity
  8
0
100
AcDbLine
 10
495.0
 20
101.5
 30
0.0
 11
491.9999999999999
 21
101.5
 31
0.0
  0
LINE
  5
B3
330
1E
100
AcDbEntity
  8
0
100
AcDbLine
 10
495.9999999999999
 20
102.4999999999999
 30
0.0
 11
495.0
 21
101.5
 31
0.0
  0
LINE
  5
B4
330
1E
100
AcDbEntity
  8
0
100
AcDbLine
 10
495.0
 20
134.4999999999998
 30
0.0
 11
495.9999999999999
 21
133.4999999999998
 31
0.0
  0
LINE
  5
B5
330
1E
100
AcDbEntity
  8
2
100
AcDbLine
 10
491.0
 20
104.4999999999999
 30
0.0
 11
458.0
 21
104.4999999999999
 31
0.0
  0
LINE
  5
B6
330
1E
100
AcDbEntity
  8
2
100
AcDbLine
 10
491.0
 20
52.5
 30
0.0
 11
458.0
 21
52.5
 31
0.0
  0
LINE
  5
B7
330
1E
100
AcDbEntity
  8
2
100
AcDbLine
 10
491.0
 20
104.4999999999999
 30
0.0
 11
491.9999999999999
 21
103.4999999999999
 31
0.0
  0
LINE
  5
B8
330
1E
100
AcDbEntity
  8
2
100
AcDbLine
 10
458.0
 20
52.5
 30
0.0
 11
457.0
 21
53.5
 31
0.0
  0
LINE
  5
B9
330
1E
100
AcDbEntity
  8
2
100
AcDbLine
 10
491.0
 20
52.5
 30
0.0
 11
491.9999999999999
 21
53.5
 31
0.0
  0
LINE
  5
BA
330
1E
100
AcDbEntity
  8
0
100
AcDbLine
 10
491.9999999999999
 20
55.5
 30
0.0
 11
491.9999999999999
 21
101.5
 31
0.0
  0
LINE
  5
BB
330
1E
100
AcDbEntity
  8
2
100
AcDbLine
 10
491.9999999999999
 20
103.4999999999999
 30
0.0
 11
491.9999999999999
 21
101.5
 31
0.0
  0
LINE
  5
BC
330
1E
100
AcDbEntity
  8
2
100
AcDbLine
 10
457.0
 20
53.5
 30
0.0
 11
457.0
 21
55.5
 31
0.0
  0
LINE
  5
BD
330
1E
100
AcDbEntity
  8
2
100
AcDbLine
 10
491.9999999999999
 20
53.5
 30
0.0
 11
491.9999999999999
 21
55.5
 31
0.0
  0
LINE
  5
BE
330
1E
100
AcDbEntity
  8
0
100
AcDbLine
 10
491.9999999999999
 20
101.5
 30
0.0
 11
457.0
 21
101.5
 31
0.0
  0
LINE
  5
BF
330
1E
100
AcDbEntity
  8
0
100
AcDbLine
 10
491.9999999999999
 20
55.5
 30
0.0
 11
457.0
 21
55.5
 31
0.0
  0
LINE
  5
C0
330
1E
100
AcDbEntity
  8
1
100
AcDbLine
 10
500.0
 20
278.5
 30
0.0
 11
423.0
 21
278.5
 31
0.0
  0
LINE
  5
C1
330
1E
100
AcDbEntity
  8
0
100
AcDbLine
 10
179.4999999999998
 20
223.4999999999998
 30
0.0
 11
179.4999999999998
 21
249.0
 31
0.0
  0
LINE
  5
C2
330
1E
100
AcDbEntity
  8
0
100
AcDbLine
 10
127.5
 20
223.4999999999998
 30
0.0
 11
127.5
 21
249.5
 31
0.0
  0
LINE
  5
C3
330
1E
100
AcDbEntity
  8
0
100
AcDbLine
 10
173.5
 20
217.5
 30
0.0
 11
173.5
 21
243.0
 31
0.0
  0
LINE
  5
C4
330
1E
100
AcDbEntity
  8
0
100
AcDbLine
 10
133.4999999999998
 20
217.5
 30
0.0
 11
133.4999999999998
 21
243.9999999999999
 31
0.0
  0
LINE
  5
C5
330
1E
100
AcDbEntity
  8
0
100
AcDbLine
 10
491.9999999999999
 20
244.4999999999998
 30
0.0
 11
491.9999999999999
 21
219.4999999999998
 31
0.0
  0
LINE
  5
C6
330
1E
100
AcDbEntity
  8
0
100
AcDbLine
 10
460.0
 20
245.0
 30
0.0
 11
460.0
 21
219.4999999999998
 31
0.0
  0
LINE
  5
C7
330
1E
100
AcDbEntity
  8
2
100
AcDbLine
 10
484.4999999999999
 20
225.4999999999999
 30
0.0
 11
484.4999999999999
 21
250.4999999999999
 31
0.0
  0
LINE
  5
C8
330
1E
100
AcDbEntity
  8
2
100
AcDbLine
 10
467.4999999999999
 20
225.4999999999999
 30
0.0
 11
467.4999999999999
 21
250.4999999999999
 31
0.0
  0
LINE
  5
C9
330
1E
100
AcDbEntity
  8
1
100
AcDbLine
 10
475.9999999999999
 20
310.9999999999998
 30
0.0
 11
475.9999999999999
 21
196.5
 31
0.0
  0
LINE
  5
CA
330
1E
100
AcDbEntity
  8
1
100
AcDbLine
 10
670.9999999999999
 20
310.4999999999999
 30
0.0
 11
670.9999999999999
 21
197.5
 31
0.0
  0
LINE
  5
CB
330
1E
100
AcDbEntity
  8
0
100
AcDbLine
 10
696.9999999999998
 20
249.0
 30
0.0
 11
696.9999999999998
 21
223.4999999999998
 31
0.0
  0
LINE
  5
CC
330
1E
100
AcDbEntity
  8
0
100
AcDbLine
 10
691.0
 20
217.5
 30
0.0
 11
691.0
 21
243.0
 31
0.0
  0
LINE
  5
CD
330
1E
100
AcDbEntity
  8
0
100
AcDbLine
 10
650.9999999999998
 20
217.5
 30
0.0
 11
650.9999999999998
 21
243.0
 31
0.0
  0
LINE
  5
CE
330
1E
100
AcDbEntity
  8
0
100
AcDbLine
 10
645.0
 20
223.4999999999998
 30
0.0
 11
645.0
 21
249.0
 31
0.0
  0
ARC
  5
D5
330
1E
100
AcDbEntity
  8
0
100
AcDbCircle
 10
243.3999999999998
 20
312.1432432432432
 30
0.0
 40
69.99487996510481
100
AcDbArc
 50
167.7454716092234
 51
198.4426445086107
  0
CIRCLE
  5
D6
330
1E
100
AcDbEntity
  8
0
100
AcDbCircle
 10
153.5
 20
278.5
 30
0.0
 40
9.0
  0
CIRCLE
  5
D7
330
1E
100
AcDbEntity
  8
0
100
AcDbCircle
 10
153.5
 20
278.5
 30
0.0
 40
9.5
  0
POLYLINE
  5
D8
330
1E
100
AcDbEntity
  8
0
100
AcDb2dPolyline
 66
     1
 10
0.0
 20
0.0
 30
0.0
 70
     1
  0
VERTEX
  5
D9
330
D8
100
AcDbEntity
  8
0
100
AcDbVertex
100
AcDb2dVertex
 10
153.5
 20
283.9999999999998
 30
0.0
  0
VERTEX
  5
DA
330
D8
100
AcDbEntity
  8
0
100
AcDbVertex
100
AcDb2dVertex
 10
148.7368602791854
 20
281.25
 30
0.0
  0
VERTEX
  5
DB
330
D8
100
AcDbEntity
  8
0
100
AcDbVertex
100
AcDb2dVertex
 10
148.7368602791854
 20
275.7499999999998
 30
0.0
  0
VERTEX
  5
DC
330
D8
100
AcDbEntity
  8
0
100
AcDbVertex
100
AcDb2dVertex
 10
153.5
 20
272.9999999999999
 30
0.0
  0
VERTEX
  5
DD
330
D8
100
AcDbEntity
  8
0
100
AcDbVertex
100
AcDb2dVertex
 10
158.2631397208144
 20
275.7499999999998
 30
0.0
  0
VERTEX
  5
DE
330
D8
100
AcDbEntity
  8
0
100
AcDbVertex
100
AcDb2dVertex
 10
158.2631397208144
 20
281.25
 30
0.0
  0
SEQEND
  5
DF
330
D8
100
AcDbEntity
  8
0
  0
CIRCLE
  5
E0
330
1E
100
AcDbEntity
  8
4
100
AcDbCircle
 10
153.5
 20
333.4999999999999
 30
0.0
 40
8.0
  0
CIRCLE
  5
E1
330
1E
100
AcDbEntity
  8
0
100
AcDbCircle
 10
153.5
 20
333.4999999999999
 30
0.0
 40
10.0
  0
LINE
  5
E2
330
1E
100
AcDbEntity
  8
0
100
AcDbLine
 10
177.718150021132
 20
287.9847975301958
 30
0.0
 11
176.9980536716913
 21
290.0219596224262
 31
0.0
  0
ARC
  5
E3
330
1E
100
AcDbEntity
  8
0
100
AcDbCircle
 10
56.19444444444447
 20
311.5427927927928
 30
0.0
 40
77.36541544988273
100
AcDbArc
 50
345.5270321364475
 51
11.52495937788657
  0
ARC
  5
E4
330
1E
100
AcDbEntity
  8
0
100
AcDbCircle
 10
153.5
 20
278.5
 30
0.0
 40
26.0
100
AcDbArc
 50
153.0645423904077
 51
21.35201995945137
  0
ARC
  5
E5
330
1E
100
AcDbEntity
  8
0
100
AcDbCircle
 10
120.8222393436564
 20
295.2266645289512
 30
0.0
 40
10.71184116971651
100
AcDbArc
 50
332.4587667741341
 51
343.6599598899105
  0
LINE
  5
E6
330
1E
100
AcDbEntity
  8
1
100
AcDbLine
 10
153.5
 20
313.5
 30
0.0
 11
153.5
 21
196.5
 31
0.0
  0
LINE
  5
E7
330
1E
100
AcDbEntity
  8
1
100
AcDbLine
 10
118.5
 20
278.5
 30
0.0
 11
189.0
 21
278.5
 31
0.0
  0
LINE
  5
E8
330
1E
100
AcDbEntity
  8
1
100
AcDbLine
 10
153.5
 20
363.5
 30
0.0
 11
153.5
 21
242.5
 31
0.0
  0
LINE
  5
E9
330
1E
100
AcDbEntity
  8
1
100
AcDbLine
 10
182.5
 20
333.4999999999999
 30
0.0
 11
123.5
 21
333.4999999999999
 31
0.0
  0
ARC
  5
EA
330
1E
100
AcDbEntity
  8
0
100
AcDbCircle
 10
153.5
 20
278.5
 30
0.0
 40
23.5
100
AcDbArc
 50
153.4349488229219
 51
26.56505117707798
  0
ARC
  5
EB
330
1E
100
AcDbEntity
  8
0
100
AcDbCircle
 10
230.2448453608247
 20
307.5386597938144
 30
0.0
 40
58.74665685171418
100
AcDbArc
 50
163.2186546560418
 51
198.3952042541628
  0
ARC
  5
EC
330
1E
100
AcDbEntity
  8
0
100
AcDbCircle
 10
76.75515463917526
 20
307.5386597938144
 30
0.0
 40
58.74665685171418
100
AcDbArc
 50
341.6047957458371
 51
16.78134534395809
  0
ARC
  5
ED
330
1E
100
AcDbEntity
  8
0
100
AcDbCircle
 10
170.2527352790133
 20
254.7513676395066
 30
0.0
 40
3.256979253596043
100
AcDbArc
 50
355.5736159192163
 51
113.1640833949285
  0
ARC
  5
EE
330
1E
100
AcDbEntity
  8
0
100
AcDbCircle
 10
137.1404738609874
 20
254.0157156834075
 30
0.0
 40
3.672544245047326
100
AcDbArc
 50
74.71016779564227
 51
172.4225559527362
  0
ARC
  5
EF
330
1E
100
AcDbEntity
  8
2
100
AcDbCircle
 10
153.5
 20
278.5
 30
0.0
 40
55.0
100
AcDbArc
 50
328.0500285536668
 51
210.9637565320734
  0
LINE
  5
F0
330
1E
100
AcDbEntity
  8
1
100
AcDbLine
 10
700.0
 20
333.4999999999999
 30
0.0
 11
641.0
 21
333.4999999999999
 31
0.0
  0
CIRCLE
  5
F1
330
1E
100
AcDbEntity
  8
0
100
AcDbCircle
 10
670.9999999999999
 20
333.4999999999999
 30
0.0
 40
22.5
  0
LINE
  5
F2
330
1E
100
AcDbEntity
  8
1
100
AcDbLine
 10
636.0
 20
278.5
 30
0.0
 11
706.5
 21
278.5
 31
0.0
  0
ARC
  5
F3
330
1E
100
AcDbEntity
  8
0
100
AcDbCircle
 10
573.6944444444445
 20
311.5427927927928
 30
0.0
 40
77.36541544988273
100
AcDbArc
 50
345.5270321364475
 51
11.52495937788657
  0
ARC
  5
F4
330
1E
100
AcDbEntity
  8
0
100
AcDbCircle
 10
638.3222393436565
 20
295.2266645289512
 30
0.0
 40
10.71184116971651
100
AcDbArc
 50
332.4587667741341
 51
343.6599598899105
  0
LINE
  5
F5
330
1E
100
AcDbEntity
  8
0
100
AcDbLine
 10
695.218150021132
 20
287.9847975301958
 30
0.0
 11
694.4980536716914
 21
290.0219596224262
 31
0.0
  0
ARC
  5
F6
330
1E
100
AcDbEntity
  8
0
100
AcDbCircle
 10
760.8999999999999
 20
312.1432432432432
 30
0.0
 40
69.99487996510481
100
AcDbArc
 50
167.7454716092234
 51
198.4426445086107
  0
LINE
  5
F7
330
1E
100
AcDbEntity
  8
1
100
AcDbLine
 10
670.9999999999999
 20
362.5
 30
0.0
 11
670.9999999999999
 21
246.4999999999998
 31
0.0
  0
CIRCLE
  5
F8
330
1E
100
AcDbEntity
  8
0
100
AcDbCircle
 10
153.5
 20
333.4999999999999
 30
0.0
 40
20.0
  0
CIRCLE
  5
F9
330
1E
100
AcDbEntity
  8
0
100
AcDbCircle
 10
153.5
 20
333.4999999999999
 30
0.0
 40
22.5
  0
ARC
  5
FA
330
1E
100
AcDbEntity
  8
2
100
AcDbCircle
 10
153.5
 20
278.5
 30
0.0
 40
77.5
100
AcDbArc
 50
329.4784292383774
 51
209.6991544275499
  0
ARC
  5
FB
330
1E
100
AcDbEntity
  8
0
100
AcDbCircle
 10
670.9999999999999
 20
278.5
 30
0.0
 40
26.0
100
AcDbArc
 50
0.0
 51
180.0
  0
CIRCLE
  5
FC
330
1E
100
AcDbEntity
  8
0
100
AcDbCircle
 10
670.9999999999999
 20
278.5
 30
0.0
 40
6.0
  0
CIRCLE
  5
FD
330
1E
100
AcDbEntity
  8
3
100
AcDbCircle
 10
670.9999999999999
 20
278.5
 30
0.0
 40
5.0
  0
CIRCLE
  5
FE
330
1E
100
AcDbEntity
  8
0
100
AcDbCircle
 10
670.9999999999999
 20
333.4999999999999
 30
0.0
 40
15.5
  0
LINE
  5
FF
330
1E
100
AcDbEntity
  8
2
100
AcDbLine
 10
649.0
 20
336.5
 30
0.0
 11
661.0
 21
336.5
 31
0.0
  0
LINE
  5
100
330
1E
100
AcDbEntity
  8
2
100
AcDbLine
 10
649.0
 20
335.9999999999998
 30
0.0
 11
661.0
 21
335.9999999999998
 31
0.0
  0
LINE
  5
101
330
1E
100
AcDbEntity
  8
2
100
AcDbLine
 10
649.0
 20
331.0
 30
0.0
 11
661.0
 21
331.0
 31
0.0
  0
LINE
  5
102
330
1E
100
AcDbEntity
  8
2
100
AcDbLine
 10
649.0
 20
330.5
 30
0.0
 11
661.0
 21
330.5
 31
0.0
  0
LINE
  5
103
330
1E
100
AcDbEntity
  8
2
100
AcDbLine
 10
660.5
 20
336.5
 30
0.0
 11
661.0
 21
335.9999999999998
 31
0.0
  0
LINE
  5
104
330
1E
100
AcDbEntity
  8
2
100
AcDbLine
 10
661.0
 20
335.9999999999998
 30
0.0
 11
661.0
 21
331.0
 31
0.0
  0
LINE
  5
105
330
1E
100
AcDbEntity
  8
2
100
AcDbLine
 10
661.0
 20
331.0
 30
0.0
 11
660.5
 21
330.5
 31
0.0
  0
LINE
  5
106
330
1E
100
AcDbEntity
  8
2
100
AcDbLine
 10
660.5
 20
330.5
 30
0.0
 11
660.5
 21
336.5
 31
0.0
  0
LINE
  5
107
330
1E
100
AcDbEntity
  8
2
100
AcDbLine
 10
654.4999999999999
 20
336.5
 30
0.0
 11
654.4999999999999
 21
335.0
 31
0.0
  0
LINE
  5
108
330
1E
100
AcDbEntity
  8
2
100
AcDbLine
 10
654.4999999999999
 20
335.0
 30
0.0
 11
655.4999999999998
 21
335.0
 31
0.0
  0
LINE
  5
109
330
1E
100
AcDbEntity
  8
2
100
AcDbLine
 10
655.4999999999998
 20
335.0
 30
0.0
 11
655.4999999999998
 21
332.0
 31
0.0
  0
LINE
  5
10A
330
1E
100
AcDbEntity
  8
2
100
AcDbLine
 10
655.4999999999998
 20
332.0
 30
0.0
 11
654.4999999999999
 21
332.0
 31
0.0
  0
LINE
  5
10B
330
1E
100
AcDbEntity
  8
2
100
AcDbLine
 10
654.4999999999999
 20
332.0
 30
0.0
 11
654.4999999999999
 21
330.5
 31
0.0
  0
LINE
  5
10C
330
1E
100
AcDbEntity
  8
2
100
AcDbLine
 10
654.4999999999999
 20
330.5
 30
0.0
 11
654.0
 21
331.0
 31
0.0
  0
LINE
  5
10D
330
1E
100
AcDbEntity
  8
2
100
AcDbLine
 10
654.0
 20
331.0
 30
0.0
 11
654.0
 21
332.0
 31
0.0
  0
LINE
  5
10E
330
1E
100
AcDbEntity
  8
2
100
AcDbLine
 10
654.0
 20
332.0
 30
0.0
 11
654.4999999999999
 21
332.0
 31
0.0
  0
LINE
  5
10F
330
1E
100
AcDbEntity
  8
2
100
AcDbLine
 10
654.4999999999999
 20
335.0
 30
0.0
 11
654.0
 21
335.0
 31
0.0
  0
LINE
  5
110
330
1E
100
AcDbEntity
  8
2
100
AcDbLine
 10
654.0
 20
335.0
 30
0.0
 11
654.0
 21
335.9999999999998
 31
0.0
  0
LINE
  5
111
330
1E
100
AcDbEntity
  8
2
100
AcDbLine
 10
654.0
 20
335.9999999999998
 30
0.0
 11
654.4999999999999
 21
336.5
 31
0.0
  0
ARC
  5
112
330
1E
100
AcDbEntity
  8
2
100
AcDbCircle
 10
670.9999999999999
 20
278.5
 30
0.0
 40
55.0
100
AcDbArc
 50
330.068488159492
 51
215.2933475906601
  0
ARC
  5
113
330
1E
100
AcDbEntity
  8
2
100
AcDbCircle
 10
670.9999999999999
 20
278.5
 30
0.0
 40
77.5
100
AcDbArc
 50
327.5288077091515
 51
211.2184027643463
  0
LINE
  5
114
330
1E
100
AcDbEntity
  8
1
100
AcDbLine
 10
417.9999999999999
 20
333.4999999999999
 30
0.0
 11
456.0
 21
333.4999999999999
 31
0.0
  0
LINE
  5
115
330
1E
100
AcDbEntity
  8
1
100
AcDbLine
 10
440.0
 20
361.5
 30
0.0
 11
440.0
 21
247.5
 31
0.0
  0
LINE
  5
116
330
1E
100
AcDbEntity
  8
0
100
AcDbLine
 10
440.0
 20
356.0
 30
0.0
 11
446.4999999999999
 21
356.0
 31
0.0
  0
LINE
  5
117
330
1E
100
AcDbEntity
  8
0
100
AcDbLine
 10
446.4999999999999
 20
356.0
 30
0.0
 11
447.5
 21
355.0
 31
0.0
  0
LINE
  5
118
330
1E
100
AcDbEntity
  8
0
100
AcDbLine
 10
447.5
 20
355.0
 30
0.0
 11
447.5
 21
304.4999999999999
 31
0.0
  0
LINE
  5
119
330
1E
100
AcDbEntity
  8
0
100
AcDbLine
 10
447.5
 20
304.4999999999999
 30
0.0
 11
457.0122950819672
 21
303.6352459016392
 31
0.0
  0
LINE
  5
11A
330
1E
100
AcDbEntity
  8
0
100
AcDbLine
 10
457.5
 20
252.4999999999999
 30
0.0
 11
433.4999999999999
 21
252.4999999999999
 31
0.0
  0
LINE
  5
11B
330
1E
100
AcDbEntity
  8
0
100
AcDbLine
 10
433.4999999999999
 20
252.4999999999999
 30
0.0
 11
432.5
 21
253.5
 31
0.0
  0
LINE
  5
11C
330
1E
100
AcDbEntity
  8
0
100
AcDbLine
 10
432.5
 20
253.5
 30
0.0
 11
432.5
 21
310.9999999999998
 31
0.0
  0
LINE
  5
11D
330
1E
100
AcDbEntity
  8
0
100
AcDbLine
 10
432.5
 20
310.9999999999998
 30
0.0
 11
420.9999999999999
 21
313.5
 31
0.0
  0
LINE
  5
11E
330
1E
100
AcDbEntity
  8
0
100
AcDbLine
 10
420.9999999999999
 20
313.5
 30
0.0
 11
420.9999999999999
 21
353.5
 31
0.0
  0
LINE
  5
11F
330
1E
100
AcDbEntity
  8
0
100
AcDbLine
 10
420.9999999999999
 20
353.5
 30
0.0
 11
432.5
 21
356.0
 31
0.0
  0
LINE
  5
120
330
1E
100
AcDbEntity
  8
0
100
AcDbLine
 10
432.5
 20
356.0
 30
0.0
 11
440.0
 21
356.0
 31
0.0
  0
LINE
  5
121
330
1E
100
AcDbEntity
  8
0
100
AcDbLine
 10
432.5
 20
310.9999999999998
 30
0.0
 11
432.5
 21
322.9999999999999
 31
0.0
  0
LINE
  5
122
330
1E
100
AcDbEntity
  8
2
100
AcDbLine
 10
447.5
 20
349.0
 30
0.0
 11
435.5
 21
349.0
 31
0.0
  0
LINE
  5
123
330
1E
100
AcDbEntity
  8
2
100
AcDbLine
 10
435.5
 20
349.0
 30
0.0
 11
435.5
 21
343.5
 31
0.0
  0
LINE
  5
124
330
1E
100
AcDbEntity
  8
2
100
AcDbLine
 10
435.5
 20
343.5
 30
0.0
 11
435.5
 21
341.5
 31
0.0
  0
LINE
  5
125
330
1E
100
AcDbEntity
  8
2
100
AcDbLine
 10
435.5
 20
341.5
 30
0.0
 11
420.9999999999999
 21
341.5
 31
0.0
  0
LINE
  5
126
330
1E
100
AcDbEntity
  8
2
100
AcDbLine
 10
435.5
 20
343.5
 30
0.0
 11
420.9999999999999
 21
343.5
 31
0.0
  0
LINE
  5
127
330
1E
100
AcDbEntity
  8
2
100
AcDbLine
 10
447.5
 20
318.0
 30
0.0
 11
435.5
 21
318.0
 31
0.0
  0
LINE
  5
128
330
1E
100
AcDbEntity
  8
2
100
AcDbLine
 10
435.5
 20
318.0
 30
0.0
 11
435.5
 21
325.4999999999999
 31
0.0
  0
LINE
  5
129
330
1E
100
AcDbEntity
  8
2
100
AcDbLine
 10
435.5
 20
325.4999999999999
 30
0.0
 11
420.9999999999999
 21
325.4999999999999
 31
0.0
  0
LINE
  5
12A
330
1E
100
AcDbEntity
  8
2
100
AcDbLine
 10
435.5
 20
323.4999999999998
 30
0.0
 11
420.9999999999999
 21
323.4999999999998
 31
0.0
  0
LINE
  5
12B
330
1E
100
AcDbEntity
  8
1
100
AcDbLine
 10
425.0
 20
278.5
 30
0.0
 11
463.9999999999999
 21
278.5
 31
0.0
  0
LINE
  5
12C
330
1E
100
AcDbEntity
  8
2
100
AcDbLine
 10
432.5
 20
287.9999999999999
 30
0.0
 11
443.5
 21
287.9999999999999
 31
0.0
  0
LINE
  5
12D
330
1E
100
AcDbEntity
  8
2
100
AcDbLine
 10
443.5
 20
287.9999999999999
 30
0.0
 11
443.5
 21
284.5
 31
0.0
  0
LINE
  5
12E
330
1E
100
AcDbEntity
  8
2
100
AcDbLine
 10
452.5
 20
293.5
 30
0.0
 11
452.5
 21
263.5
 31
0.0
  0
LINE
  5
12F
330
1E
100
AcDbEntity
  8
2
100
AcDbLine
 10
452.5
 20
263.5
 30
0.0
 11
455.9499999999998
 21
262.3499999999999
 31
0.0
  0
LINE
  5
130
330
1E
100
AcDbEntity
  8
2
100
AcDbLine
 10
443.5
 20
284.5
 30
0.0
 11
452.5
 21
284.5
 31
0.0
  0
LINE
  5
131
330
1E
100
AcDbEntity
  8
2
100
AcDbLine
 10
432.5
 20
268.9999999999999
 30
0.0
 11
443.5
 21
268.9999999999999
 31
0.0
  0
LINE
  5
132
330
1E
100
AcDbEntity
  8
2
100
AcDbLine
 10
443.5
 20
268.9999999999999
 30
0.0
 11
443.5
 21
272.5
 31
0.0
  0
LINE
  5
133
330
1E
100
AcDbEntity
  8
2
100
AcDbLine
 10
443.5
 20
272.5
 30
0.0
 11
452.5
 21
272.5
 31
0.0
  0
LINE
  5
134
330
1E
100
AcDbEntity
  8
2
100
AcDbLine
 10
456.5
 20
284.5
 30
0.0
 11
491.9999999999999
 21
284.5
 31
0.0
  0
LINE
  5
135
330
1E
100
AcDbEntity
  8
2
100
AcDbLine
 10
456.5
 20
283.4999999999999
 30
0.0
 11
491.9999999999999
 21
283.4999999999999
 31
0.0
  0
LINE
  5
136
330
1E
100
AcDbEntity
  8
2
100
AcDbLine
 10
456.5
 20
272.5
 30
0.0
 11
491.9999999999999
 21
272.5
 31
0.0
  0
LINE
  5
137
330
1E
100
AcDbEntity
  8
2
100
AcDbLine
 10
456.5
 20
273.4999999999998
 30
0.0
 11
491.9999999999999
 21
273.4999999999998
 31
0.0
  0
LINE
  5
138
330
1E
100
AcDbEntity
  8
2
100
AcDbLine
 10
432.5
 20
278.5
 30
0.0
 11
432.5
 21
286.5
 31
0.0
  0
LINE
  5
139
330
1E
100
AcDbEntity
  8
2
100
AcDbLine
 10
432.5
 20
286.5
 30
0.0
 11
433.4999999999999
 21
287.5
 31
0.0
  0
LINE
  5
13A
330
1E
100
AcDbEntity
  8
2
100
AcDbLine
 10
433.4999999999999
 20
287.5
 30
0.0
 11
443.5
 21
287.5
 31
0.0
  0
LINE
  5
13B
330
1E
100
AcDbEntity
  8
2
100
AcDbLine
 10
432.5
 20
270.5
 30
0.0
 11
433.4999999999999
 21
269.4999999999998
 31
0.0
  0
LINE
  5
13C
330
1E
100
AcDbEntity
  8
2
100
AcDbLine
 10
433.4999999999999
 20
269.4999999999998
 30
0.0
 11
443.5
 21
269.4999999999998
 31
0.0
  0
LINE
  5
13D
330
1E
100
AcDbEntity
  8
2
100
AcDbLine
 10
452.5
 20
284.5
 30
0.0
 11
456.5
 21
284.5
 31
0.0
  0
LINE
  5
13E
330
1E
100
AcDbEntity
  8
2
100
AcDbLine
 10
443.5
 20
284.5
 30
0.0
 11
444.5
 21
283.4999999999999
 31
0.0
  0
LINE
  5
13F
330
1E
100
AcDbEntity
  8
2
100
AcDbLine
 10
444.5
 20
283.4999999999999
 30
0.0
 11
456.5
 21
283.4999999999999
 31
0.0
  0
LINE
  5
140
330
1E
100
AcDbEntity
  8
2
100
AcDbLine
 10
443.5
 20
272.5
 30
0.0
 11
444.5
 21
273.4999999999998
 31
0.0
  0
LINE
  5
141
330
1E
100
AcDbEntity
  8
2
100
AcDbLine
 10
444.5
 20
273.4999999999998
 30
0.0
 11
456.5
 21
273.4999999999998
 31
0.0
  0
LINE
  5
142
330
1E
100
AcDbEntity
  8
2
100
AcDbLine
 10
452.5
 20
272.5
 30
0.0
 11
456.5
 21
272.5
 31
0.0
  0
LINE
  5
143
330
1E
100
AcDbEntity
  8
2
100
AcDbLine
 10
443.5
 20
284.5
 30
0.0
 11
443.5
 21
272.5
 31
0.0
  0
LINE
  5
144
330
1E
100
AcDbEntity
  8
2
100
AcDbLine
 10
444.5
 20
283.4999999999999
 30
0.0
 11
444.5
 21
273.4999999999998
 31
0.0
  0
LINE
  5
145
330
1E
100
AcDbEntity
  8
2
100
AcDbLine
 10
477.0
 20
272.5
 30
0.0
 11
478.5
 21
273.4999999999998
 31
0.0
  0
LINE
  5
146
330
1E
100
AcDbEntity
  8
2
100
AcDbLine
 10
478.5
 20
273.4999999999998
 30
0.0
 11
478.5
 21
283.4999999999999
 31
0.0
  0
LINE
  5
147
330
1E
100
AcDbEntity
  8
2
100
AcDbLine
 10
478.5
 20
283.4999999999999
 30
0.0
 11
477.0
 21
284.5
 31
0.0
  0
LINE
  5
148
330
1E
100
AcDbEntity
  8
2
100
AcDbLine
 10
477.0
 20
284.5
 30
0.0
 11
477.0
 21
272.5
 31
0.0
  0
LINE
  5
149
330
1E
100
AcDbEntity
  8
0
100
AcDbLine
 10
460.0
 20
55.5
 30
0.0
 11
460.0
 21
101.5
 31
0.0
  0
LINE
  5
14A
330
1E
100
AcDbEntity
  8
2
100
AcDbLine
 10
458.0
 20
104.4999999999999
 30
0.0
 11
457.0
 21
103.4999999999999
 31
0.0
  0
LINE
  5
14B
330
1E
100
AcDbEntity
  8
2
100
AcDbLine
 10
457.0
 20
103.4999999999999
 30
0.0
 11
457.0
 21
101.5
 31
0.0
  0
LINE
  5
14C
330
1E
100
AcDbEntity
  8
2
100
AcDbLine
 10
444.5
 20
83.49999999999999
 30
0.0
 11
444.5
 21
73.5
 31
0.0
  0
LINE
  5
14D
330
1E
100
AcDbEntity
  8
2
100
AcDbLine
 10
443.5
 20
84.50000000000001
 30
0.0
 11
443.5
 21
72.5
 31
0.0
  0
LINE
  5
14E
330
1E
100
AcDbEntity
  8
2
100
AcDbLine
 10
452.5
 20
93.49999999999999
 30
0.0
 11
452.5
 21
63.5
 31
0.0
  0
LINE
  5
14F
330
1E
100
AcDbEntity
  8
2
100
AcDbLine
 10
444.5
 20
73.5
 30
0.0
 11
456.5
 21
73.5
 31
0.0
  0
LINE
  5
150
330
1E
100
AcDbEntity
  8
2
100
AcDbLine
 10
443.5
 20
72.5
 30
0.0
 11
452.5
 21
72.5
 31
0.0
  0
LINE
  5
151
330
1E
100
AcDbEntity
  8
2
100
AcDbLine
 10
433.4999999999999
 20
69.5
 30
0.0
 11
443.5
 21
69.5
 31
0.0
  0
LINE
  5
152
330
1E
100
AcDbEntity
  8
2
100
AcDbLine
 10
432.5
 20
69.0
 30
0.0
 11
443.5
 21
69.0
 31
0.0
  0
LINE
  5
153
330
1E
100
AcDbEntity
  8
2
100
AcDbLine
 10
432.5
 20
70.5
 30
0.0
 11
433.4999999999999
 21
69.5
 31
0.0
  0
LINE
  5
154
330
1E
100
AcDbEntity
  8
2
100
AcDbLine
 10
443.5
 20
72.5
 30
0.0
 11
444.5
 21
73.5
 31
0.0
  0
LINE
  5
155
330
1E
100
AcDbEntity
  8
2
100
AcDbLine
 10
443.5
 20
69.0
 30
0.0
 11
443.5
 21
72.5
 31
0.0
  0
LINE
  5
156
330
1E
100
AcDbEntity
  8
2
100
AcDbLine
 10
452.5
 20
63.5
 30
0.0
 11
456.0999999999999
 21
62.29999999999998
 31
0.0
  0
LINE
  5
157
330
1E
100
AcDbEntity
  8
2
100
AcDbLine
 10
452.5
 20
72.5
 30
0.0
 11
456.5
 21
72.5
 31
0.0
  0
LINE
  5
158
330
1E
100
AcDbEntity
  8
2
100
AcDbLine
 10
444.5
 20
83.49999999999999
 30
0.0
 11
456.5
 21
83.49999999999999
 31
0.0
  0
LINE
  5
159
330
1E
100
AcDbEntity
  8
2
100
AcDbLine
 10
443.5
 20
84.50000000000001
 30
0.0
 11
452.5
 21
84.50000000000001
 31
0.0
  0
LINE
  5
15A
330
1E
100
AcDbEntity
  8
2
100
AcDbLine
 10
433.4999999999999
 20
87.5
 30
0.0
 11
443.5
 21
87.5
 31
0.0
  0
LINE
  5
15B
330
1E
100
AcDbEntity
  8
2
100
AcDbLine
 10
432.5
 20
88.0
 30
0.0
 11
443.5
 21
88.0
 31
0.0
  0
LINE
  5
15C
330
1E
100
AcDbEntity
  8
2
100
AcDbLine
 10
432.5
 20
86.5
 30
0.0
 11
433.4999999999999
 21
87.5
 31
0.0
  0
LINE
  5
15D
330
1E
100
AcDbEntity
  8
2
100
AcDbLine
 10
432.5
 20
78.5
 30
0.0
 11
432.5
 21
86.5
 31
0.0
  0
LINE
  5
15E
330
1E
100
AcDbEntity
  8
2
100
AcDbLine
 10
443.5
 20
84.50000000000001
 30
0.0
 11
444.5
 21
83.49999999999999
 31
0.0
  0
LINE
  5
15F
330
1E
100
AcDbEntity
  8
2
100
AcDbLine
 10
443.5
 20
88.0
 30
0.0
 11
443.5
 21
84.50000000000001
 31
0.0
  0
LINE
  5
160
330
1E
100
AcDbEntity
  8
2
100
AcDbLine
 10
452.5
 20
84.50000000000001
 30
0.0
 11
456.5
 21
84.50000000000001
 31
0.0
  0
LINE
  5
161
330
1E
100
AcDbEntity
  8
0
100
AcDbLine
 10
432.5
 20
78.5
 30
0.0
 11
432.5
 21
103.4999999999999
 31
0.0
  0
LINE
  5
162
330
1E
100
AcDbEntity
  8
0
100
AcDbLine
 10
432.5
 20
103.4999999999999
 30
0.0
 11
433.4999999999999
 21
104.4999999999999
 31
0.0
  0
LINE
  5
163
330
1E
100
AcDbEntity
  8
0
100
AcDbLine
 10
433.4999999999999
 20
104.4999999999999
 30
0.0
 11
456.0
 21
104.4999999999999
 31
0.0
  0
LINE
  5
164
330
1E
100
AcDbEntity
  8
0
100
AcDbLine
 10
432.5
 20
78.5
 30
0.0
 11
432.5
 21
53.5
 31
0.0
  0
LINE
  5
165
330
1E
100
AcDbEntity
  8
0
100
AcDbLine
 10
432.5
 20
53.5
 30
0.0
 11
433.4999999999999
 21
52.5
 31
0.0
  0
LINE
  5
166
330
1E
100
AcDbEntity
  8
0
100
AcDbLine
 10
433.4999999999999
 20
52.5
 30
0.0
 11
456.0
 21
52.5
 31
0.0
  0
LINE
  5
167
330
1E
100
AcDbEntity
  8
2
100
AcDbLine
 10
456.5
 20
84.50000000000001
 30
0.0
 11
491.9999999999999
 21
84.50000000000001
 31
0.0
  0
LINE
  5
168
330
1E
100
AcDbEntity
  8
2
100
AcDbLine
 10
456.5
 20
83.49999999999999
 30
0.0
 11
491.9999999999999
 21
83.49999999999999
 31
0.0
  0
LINE
  5
169
330
1E
100
AcDbEntity
  8
2
100
AcDbLine
 10
455.4999999999999
 20
73.5
 30
0.0
 11
491.9999999999999
 21
73.5
 31
0.0
  0
LINE
  5
16A
330
1E
100
AcDbEntity
  8
2
100
AcDbLine
 10
456.0
 20
72.5
 30
0.0
 11
491.9999999999999
 21
72.5
 31
0.0
  0
LINE
  5
16B
330
1E
100
AcDbEntity
  8
2
100
AcDbLine
 10
478.5
 20
73.5
 30
0.0
 11
478.5
 21
83.49999999999999
 31
0.0
  0
LINE
  5
16C
330
1E
100
AcDbEntity
  8
2
100
AcDbLine
 10
478.5
 20
83.49999999999999
 30
0.0
 11
477.0
 21
84.50000000000001
 31
0.0
  0
LINE
  5
16D
330
1E
100
AcDbEntity
  8
2
100
AcDbLine
 10
477.0
 20
84.50000000000001
 30
0.0
 11
477.0
 21
72.5
 31
0.0
  0
LINE
  5
16E
330
1E
100
AcDbEntity
  8
2
100
AcDbLine
 10
477.0
 20
72.5
 30
0.0
 11
478.5
 21
73.5
 31
0.0
  0
LINE
  5
16F
330
1E
100
AcDbEntity
  8
0
100
AcDbLine
 10
420.9999999999999
 20
78.5
 30
0.0
 11
420.9999999999999
 21
98.50000000000001
 31
0.0
  0
LINE
  5
170
330
1E
100
AcDbEntity
  8
0
100
AcDbLine
 10
420.9999999999999
 20
78.5
 30
0.0
 11
420.9999999999999
 21
58.5
 31
0.0
  0
LINE
  5
171
330
1E
100
AcDbEntity
  8
0
100
AcDbLine
 10
420.9999999999999
 20
98.50000000000001
 30
0.0
 11
432.5
 21
101.0
 31
0.0
  0
LINE
  5
172
330
1E
100
AcDbEntity
  8
0
100
AcDbLine
 10
420.9999999999999
 20
58.5
 30
0.0
 11
432.5
 21
56.0
 31
0.0
  0
LINE
  5
173
330
1E
100
AcDbEntity
  8
2
100
AcDbLine
 10
432.5
 20
101.0
 30
0.0
 11
446.4999999999999
 21
101.0
 31
0.0
  0
LINE
  5
174
330
1E
100
AcDbEntity
  8
2
100
AcDbLine
 10
446.4999999999999
 20
101.0
 30
0.0
 11
447.5
 21
100.0
 31
0.0
  0
LINE
  5
175
330
1E
100
AcDbEntity
  8
2
100
AcDbLine
 10
447.5
 20
100.0
 30
0.0
 11
447.5
 21
57.0
 31
0.0
  0
LINE
  5
176
330
1E
100
AcDbEntity
  8
2
100
AcDbLine
 10
447.5
 20
57.0
 30
0.0
 11
446.4999999999999
 21
56.0
 31
0.0
  0
LINE
  5
177
330
1E
100
AcDbEntity
  8
2
100
AcDbLine
 10
446.4999999999999
 20
56.0
 30
0.0
 11
432.5
 21
56.0
 31
0.0
  0
LINE
  5
178
330
1E
100
AcDbEntity
  8
2
100
AcDbLine
 10
447.5
 20
94.0
 30
0.0
 11
435.5
 21
94.0
 31
0.0
  0
LINE
  5
179
330
1E
100
AcDbEntity
  8
2
100
AcDbLine
 10
435.5
 20
94.0
 30
0.0
 11
435.5
 21
88.49999999999999
 31
0.0
  0
LINE
  5
17A
330
1E
100
AcDbEntity
  8
2
100
AcDbLine
 10
435.5
 20
88.49999999999999
 30
0.0
 11
420.9999999999999
 21
88.49999999999999
 31
0.0
  0
LINE
  5
17B
330
1E
100
AcDbEntity
  8
2
100
AcDbLine
 10
447.5
 20
63.0
 30
0.0
 11
435.5
 21
63.0
 31
0.0
  0
LINE
  5
17C
330
1E
100
AcDbEntity
  8
2
100
AcDbLine
 10
435.5
 20
63.0
 30
0.0
 11
435.5
 21
68.5
 31
0.0
  0
LINE
  5
17D
330
1E
100
AcDbEntity
  8
2
100
AcDbLine
 10
435.5
 20
68.5
 30
0.0
 11
420.9999999999999
 21
68.5
 31
0.0
  0
LINE
  5
17E
330
1E
100
AcDbEntity
  8
2
100
AcDbLine
 10
435.5
 20
68.5
 30
0.0
 11
435.5
 21
70.5
 31
0.0
  0
LINE
  5
17F
330
1E
100
AcDbEntity
  8
2
100
AcDbLine
 10
435.5
 20
70.5
 30
0.0
 11
420.9999999999999
 21
70.5
 31
0.0
  0
LINE
  5
180
330
1E
100
AcDbEntity
  8
2
100
AcDbLine
 10
435.5
 20
88.49999999999999
 30
0.0
 11
435.5
 21
86.5
 31
0.0
  0
LINE
  5
181
330
1E
100
AcDbEntity
  8
2
100
AcDbLine
 10
435.5
 20
86.5
 30
0.0
 11
420.9999999999999
 21
86.5
 31
0.0
  0
LINE
  5
182
330
1E
100
AcDbEntity
  8
1
100
AcDbLine
 10
502.5
 20
78.5
 30
0.0
 11
406.6586224532104
 21
78.5
 31
0.0
  0
LINE
  5
183
330
1E
100
AcDbEntity
  8
1
100
AcDbLine
 10
429.0
 20
339.9999999999999
 30
0.0
 11
429.0
 21
326.5
 31
0.0
  0
CIRCLE
  5
184
330
1E
100
AcDbEntity
  8
0
100
AcDbCircle
 10
429.0
 20
333.4999999999999
 30
0.0
 40
3.0
  0
CIRCLE
  5
185
330
1E
100
AcDbEntity
  8
0
100
AcDbCircle
 10
429.0
 20
333.4999999999999
 30
0.0
 40
2.5
  0
POLYLINE
  5
186
330
1E
100
AcDbEntity
  8
0
100
AcDb2dPolyline
 66
     1
 10
0.0
 20
0.0
 30
0.0
 70
     1
  0
VERTEX
  5
187
330
186
100
AcDbEntity
  8
0
100
AcDbVertex
100
AcDb2dVertex
 10
429.0
 20
335.0
 30
0.0
  0
VERTEX
  5
188
330
186
100
AcDbEntity
  8
0
100
AcDbVertex
100
AcDb2dVertex
 10
427.7009618943234
 20
334.25
 30
0.0
  0
VERTEX
  5
189
330
186
100
AcDbEntity
  8
0
100
AcDbVertex
100
AcDb2dVertex
 10
427.7009618943232
 20
332.75
 30
0.0
  0
VERTEX
  5
18A
330
186
100
AcDbEntity
  8
0
100
AcDbVertex
100
AcDb2dVertex
 10
429.0
 20
332.0
 30
0.0
  0
VERTEX
  5
18B
330
186
100
AcDbEntity
  8
0
100
AcDbVertex
100
AcDb2dVertex
 10
430.2990381056766
 20
332.75
 30
0.0
  0
VERTEX
  5
18C
330
186
100
AcDbEntity
  8
0
100
AcDbVertex
100
AcDb2dVertex
 10
430.2990381056766
 20
334.25
 30
0.0
  0
SEQEND
  5
18D
330
186
100
AcDbEntity
  8
0
  0
LINE
  5
18E
330
1E
100
AcDbEntity
  8
2
100
AcDbLine
 10
175.5
 20
336.5
 30
0.0
 11
168.5
 21
336.5
 31
0.0
  0
LINE
  5
18F
330
1E
100
AcDbEntity
  8
2
100
AcDbLine
 10
175.5
 20
335.9999999999998
 30
0.0
 11
168.5
 21
335.9999999999998
 31
0.0
  0
LINE
  5
190
330
1E
100
AcDbEntity
  8
2
100
AcDbLine
 10
175.5
 20
331.0
 30
0.0
 11
168.5
 21
331.0
 31
0.0
  0
LINE
  5
191
330
1E
100
AcDbEntity
  8
2
100
AcDbLine
 10
175.5
 20
330.5
 30
0.0
 11
168.5
 21
330.5
 31
0.0
  0
LINE
  5
192
330
1E
100
AcDbEntity
  8
2
100
AcDbLine
 10
168.5
 20
335.9999999999998
 30
0.0
 11
168.5
 21
331.0
 31
0.0
  0
LINE
  5
193
330
1E
100
AcDbEntity
  8
2
100
AcDbLine
 10
168.5
 20
331.0
 30
0.0
 11
168.9999999999998
 21
330.5
 31
0.0
  0
LINE
  5
194
330
1E
100
AcDbEntity
  8
2
100
AcDbLine
 10
168.9999999999998
 20
330.5
 30
0.0
 11
168.9999999999998
 21
336.5
 31
0.0
  0
LINE
  5
195
330
1E
100
AcDbEntity
  8
2
100
AcDbLine
 10
168.9999999999998
 20
336.5
 30
0.0
 11
168.5
 21
335.9999999999998
 31
0.0
  0
LINE
  5
196
330
1E
100
AcDbEntity
  8
2
100
AcDbLine
 10
172.9999999999998
 20
336.5
 30
0.0
 11
172.9999999999998
 21
335.0
 31
0.0
  0
LINE
  5
197
330
1E
100
AcDbEntity
  8
2
100
AcDbLine
 10
172.9999999999998
 20
335.0
 30
0.0
 11
171.9999999999998
 21
335.0
 31
0.0
  0
LINE
  5
198
330
1E
100
AcDbEntity
  8
2
100
AcDbLine
 10
171.9999999999998
 20
335.0
 30
0.0
 11
171.9999999999998
 21
332.0
 31
0.0
  0
LINE
  5
199
330
1E
100
AcDbEntity
  8
2
100
AcDbLine
 10
171.9999999999998
 20
332.0
 30
0.0
 11
172.9999999999998
 21
332.0
 31
0.0
  0
LINE
  5
19A
330
1E
100
AcDbEntity
  8
2
100
AcDbLine
 10
172.9999999999998
 20
332.0
 30
0.0
 11
172.9999999999998
 21
330.5
 31
0.0
  0
LINE
  5
19B
330
1E
100
AcDbEntity
  8
2
100
AcDbLine
 10
172.9999999999998
 20
330.5
 30
0.0
 11
173.5
 21
331.0
 31
0.0
  0
LINE
  5
19C
330
1E
100
AcDbEntity
  8
2
100
AcDbLine
 10
173.5
 20
331.0
 30
0.0
 11
173.5
 21
332.0
 31
0.0
  0
LINE
  5
19D
330
1E
100
AcDbEntity
  8
2
100
AcDbLine
 10
173.5
 20
332.0
 30
0.0
 11
172.9999999999998
 21
332.0
 31
0.0
  0
LINE
  5
19E
330
1E
100
AcDbEntity
  8
2
100
AcDbLine
 10
172.9999999999998
 20
336.5
 30
0.0
 11
173.5
 21
335.9999999999998
 31
0.0
  0
LINE
  5
19F
330
1E
100
AcDbEntity
  8
2
100
AcDbLine
 10
173.5
 20
335.9999999999998
 30
0.0
 11
173.5
 21
335.0
 31
0.0
  0
LINE
  5
1A0
330
1E
100
AcDbEntity
  8
2
100
AcDbLine
 10
173.5
 20
335.0
 30
0.0
 11
172.9999999999998
 21
335.0
 31
0.0
  0
LINE
  5
1A1
330
1E
100
AcDbEntity
  8
1
100
AcDbLine
 10
502.5
 20
491.9999999999999
 30
0.0
 11
407.4006941346262
 21
491.9999999999999
 31
0.0
  0
LINE
  5
1A2
330
1E
100
AcDbEntity
  8
0
100
AcDbLine
 10
495.9999999999999
 20
546.9999999999998
 30
0.0
 11
495.9999999999999
 21
516.0
 31
0.0
  0
LINE
  5
1A3
330
1E
100
AcDbEntity
  8
1
100
AcDbLine
 10
475.9999999999999
 20
426.4999999999999
 30
0.0
 11
475.9999999999999
 21
554.9999999999998
 31
0.0
  0
LINE
  5
1A4
330
1E
100
AcDbEntity
  8
0
100
AcDbLine
 10
456.0
 20
546.9999999999998
 30
0.0
 11
456.0
 21
517.9999999999998
 31
0.0
  0
LINE
  5
1A5
330
1E
100
AcDbEntity
  8
2
100
AcDbLine
 10
456.0
 20
486.0
 30
0.0
 11
491.9999999999999
 21
486.0
 31
0.0
  0
LINE
  5
1A6
330
1E
100
AcDbEntity
  8
2
100
AcDbLine
 10
455.4999999999999
 20
487.0
 30
0.0
 11
491.9999999999999
 21
487.0
 31
0.0
  0
LINE
  5
1A7
330
1E
100
AcDbEntity
  8
2
100
AcDbLine
 10
456.5
 20
496.9999999999999
 30
0.0
 11
491.9999999999999
 21
496.9999999999999
 31
0.0
  0
LINE
  5
1A8
330
1E
100
AcDbEntity
  8
2
100
AcDbLine
 10
456.5
 20
498.0
 30
0.0
 11
491.9999999999999
 21
498.0
 31
0.0
  0
LINE
  5
1A9
330
1E
100
AcDbEntity
  8
0
100
AcDbLine
 10
475.9999999999999
 20
436.0
 30
0.0
 11
457.0
 21
436.0
 31
0.0
  0
LINE
  5
1AA
330
1E
100
AcDbEntity
  8
2
100
AcDbLine
 10
435.5
 20
476.4999999999999
 30
0.0
 11
435.5
 21
482.0
 31
0.0
  0
LINE
  5
1AB
330
1E
100
AcDbEntity
  8
0
100
AcDbLine
 10
420.9999999999999
 20
491.9999999999999
 30
0.0
 11
420.9999999999999
 21
471.9999999999999
 31
0.0
  0
LINE
  5
1AC
330
1E
100
AcDbEntity
  8
0
100
AcDbLine
 10
432.5
 20
491.9999999999999
 30
0.0
 11
432.5
 21
466.9999999999999
 31
0.0
  0
LINE
  5
1AD
330
1E
100
AcDbEntity
  8
2
100
AcDbLine
 10
452.5
 20
507.0
 30
0.0
 11
452.5
 21
477.0
 31
0.0
  0
LINE
  5
1AE
330
1E
100
AcDbEntity
  8
0
100
AcDbLine
 10
420.9999999999999
 20
471.9999999999999
 30
0.0
 11
432.5
 21
469.5
 31
0.0
  0
LINE
  5
1AF
330
1E
100
AcDbEntity
  8
0
100
AcDbLine
 10
456.0
 20
437.0
 30
0.0
 11
456.0
 21
466.0
 31
0.0
  0
LINE
  5
1B0
330
1E
100
AcDbEntity
  8
0
100
AcDbLine
 10
457.0
 20
436.0
 30
0.0
 11
456.0
 21
437.0
 31
0.0
  0
LINE
  5
1B1
330
1E
100
AcDbEntity
  8
2
100
AcDbLine
 10
447.5
 20
476.4999999999999
 30
0.0
 11
435.5
 21
476.4999999999999
 31
0.0
  0
LINE
  5
1B2
330
1E
100
AcDbEntity
  8
0
100
AcDbLine
 10
433.4999999999999
 20
466.0
 30
0.0
 11
456.0
 21
466.0
 31
0.0
  0
LINE
  5
1B3
330
1E
100
AcDbEntity
  8
0
100
AcDbLine
 10
432.5
 20
466.9999999999999
 30
0.0
 11
433.4999999999999
 21
466.0
 31
0.0
  0
LINE
  5
1B4
330
1E
100
AcDbEntity
  8
2
100
AcDbLine
 10
452.5
 20
477.0
 30
0.0
 11
455.9830475491359
 21
475.838984150288
 31
0.0
  0
LINE
  5
1B5
330
1E
100
AcDbEntity
  8
2
100
AcDbLine
 10
435.5
 20
500.0
 30
0.0
 11
420.9999999999999
 21
500.0
 31
0.0
  0
LINE
  5
1B6
330
1E
100
AcDbEntity
  8
2
100
AcDbLine
 10
435.5
 20
483.9999999999999
 30
0.0
 11
420.9999999999999
 21
483.9999999999999
 31
0.0
  0
LINE
  5
1B7
330
1E
100
AcDbEntity
  8
2
100
AcDbLine
 10
435.5
 20
482.0
 30
0.0
 11
420.9999999999999
 21
482.0
 31
0.0
  0
LINE
  5
1B8
330
1E
100
AcDbEntity
  8
2
100
AcDbLine
 10
435.5
 20
502.0
 30
0.0
 11
420.9999999999999
 21
502.0
 31
0.0
  0
LINE
  5
1B9
330
1E
100
AcDbEntity
  8
0
100
AcDbLine
 10
420.9999999999999
 20
512.0
 30
0.0
 11
432.5
 21
514.5
 31
0.0
  0
LINE
  5
1BA
330
1E
100
AcDbEntity
  8
0
100
AcDbLine
 10
420.9999999999999
 20
491.9999999999999
 30
0.0
 11
420.9999999999999
 21
512.0
 31
0.0
  0
LINE
  5
1BB
330
1E
100
AcDbEntity
  8
2
100
AcDbLine
 10
435.5
 20
507.5
 30
0.0
 11
435.5
 21
502.0
 31
0.0
  0
LINE
  5
1BC
330
1E
100
AcDbEntity
  8
0
100
AcDbLine
 10
432.5
 20
491.9999999999999
 30
0.0
 11
432.5
 21
516.9999999999999
 31
0.0
  0
LINE
  5
1BD
330
1E
100
AcDbEntity
  8
2
100
AcDbLine
 10
443.5
 20
498.0
 30
0.0
 11
452.5
 21
498.0
 31
0.0
  0
LINE
  5
1BE
330
1E
100
AcDbEntity
  8
2
100
AcDbLine
 10
444.5
 20
496.9999999999999
 30
0.0
 11
456.5
 21
496.9999999999999
 31
0.0
  0
LINE
  5
1BF
330
1E
100
AcDbEntity
  8
2
100
AcDbLine
 10
443.5
 20
486.0
 30
0.0
 11
452.5
 21
486.0
 31
0.0
  0
LINE
  5
1C0
330
1E
100
AcDbEntity
  8
2
100
AcDbLine
 10
444.5
 20
487.0
 30
0.0
 11
456.5
 21
487.0
 31
0.0
  0
LINE
  5
1C1
330
1E
100
AcDbEntity
  8
2
100
AcDbLine
 10
443.5
 20
498.0
 30
0.0
 11
443.5
 21
486.0
 31
0.0
  0
LINE
  5
1C2
330
1E
100
AcDbEntity
  8
2
100
AcDbLine
 10
444.5
 20
496.9999999999999
 30
0.0
 11
444.5
 21
487.0
 31
0.0
  0
LINE
  5
1C3
330
1E
100
AcDbEntity
  8
2
100
AcDbLine
 10
432.5
 20
482.5
 30
0.0
 11
443.5
 21
482.5
 31
0.0
  0
LINE
  5
1C4
330
1E
100
AcDbEntity
  8
2
100
AcDbLine
 10
433.4999999999999
 20
483.0
 30
0.0
 11
443.5
 21
483.0
 31
0.0
  0
LINE
  5
1C5
330
1E
100
AcDbEntity
  8
2
100
AcDbLine
 10
435.5
 20
482.0
 30
0.0
 11
435.5
 21
483.9999999999999
 31
0.0
  0
LINE
  5
1C6
330
1E
100
AcDbEntity
  8
2
100
AcDbLine
 10
432.5
 20
483.9999999999999
 30
0.0
 11
433.4999999999999
 21
483.0
 31
0.0
  0
LINE
  5
1C7
330
1E
100
AcDbEntity
  8
2
100
AcDbLine
 10
443.5
 20
482.5
 30
0.0
 11
443.5
 21
486.0
 31
0.0
  0
LINE
  5
1C8
330
1E
100
AcDbEntity
  8
2
100
AcDbLine
 10
443.5
 20
486.0
 30
0.0
 11
444.5
 21
487.0
 31
0.0
  0
LINE
  5
1C9
330
1E
100
AcDbEntity
  8
2
100
AcDbLine
 10
432.5
 20
501.4999999999999
 30
0.0
 11
443.5
 21
501.4999999999999
 31
0.0
  0
LINE
  5
1CA
330
1E
100
AcDbEntity
  8
2
100
AcDbLine
 10
433.4999999999999
 20
500.9999999999999
 30
0.0
 11
443.5
 21
500.9999999999999
 31
0.0
  0
LINE
  5
1CB
330
1E
100
AcDbEntity
  8
2
100
AcDbLine
 10
435.5
 20
502.0
 30
0.0
 11
435.5
 21
500.0
 31
0.0
  0
LINE
  5
1CC
330
1E
100
AcDbEntity
  8
2
100
AcDbLine
 10
432.5
 20
491.9999999999999
 30
0.0
 11
432.5
 21
500.0
 31
0.0
  0
LINE
  5
1CD
330
1E
100
AcDbEntity
  8
2
100
AcDbLine
 10
432.5
 20
500.0
 30
0.0
 11
433.4999999999999
 21
500.9999999999999
 31
0.0
  0
LINE
  5
1CE
330
1E
100
AcDbEntity
  8
2
100
AcDbLine
 10
443.5
 20
501.4999999999999
 30
0.0
 11
443.5
 21
498.0
 31
0.0
  0
LINE
  5
1CF
330
1E
100
AcDbEntity
  8
2
100
AcDbLine
 10
443.5
 20
498.0
 30
0.0
 11
444.5
 21
496.9999999999999
 31
0.0
  0
LINE
  5
1D0
330
1E
100
AcDbEntity
  8
2
100
AcDbLine
 10
452.5
 20
486.0
 30
0.0
 11
456.5
 21
486.0
 31
0.0
  0
LINE
  5
1D1
330
1E
100
AcDbEntity
  8
2
100
AcDbLine
 10
452.5
 20
498.0
 30
0.0
 11
456.5
 21
498.0
 31
0.0
  0
LINE
  5
1D2
330
1E
100
AcDbEntity
  8
2
100
AcDbLine
 10
447.5
 20
507.5
 30
0.0
 11
435.5
 21
507.5
 31
0.0
  0
LINE
  5
1D3
330
1E
100
AcDbEntity
  8
0
100
AcDbLine
 10
433.4999999999999
 20
517.9999999999998
 30
0.0
 11
456.0
 21
517.9999999999998
 31
0.0
  0
LINE
  5
1D4
330
1E
100
AcDbEntity
  8
0
100
AcDbLine
 10
432.5
 20
516.9999999999999
 30
0.0
 11
433.4999999999999
 21
517.9999999999998
 31
0.0
  0
LINE
  5
1D5
330
1E
100
AcDbEntity
  8
0
100
AcDbLine
 10
491.9999999999999
 20
469.0
 30
0.0
 11
491.9999999999999
 21
515.0
 31
0.0
  0
LINE
  5
1D6
330
1E
100
AcDbEntity
  8
0
100
AcDbLine
 10
495.0
 20
469.0
 30
0.0
 11
491.9999999999999
 21
469.0
 31
0.0
  0
LINE
  5
1D7
330
1E
100
AcDbEntity
  8
0
100
AcDbLine
 10
475.9999999999999
 20
436.0
 30
0.0
 11
495.0
 21
436.0
 31
0.0
  0
LINE
  5
1D8
330
1E
100
AcDbEntity
  8
1
100
AcDbLine
 10
463.9999999999999
 20
446.9999999999999
 30
0.0
 11
487.5
 21
446.9999999999999
 31
0.0
  0
LINE
  5
1D9
330
1E
100
AcDbEntity
  8
0
100
AcDbLine
 10
495.9999999999999
 20
437.0
 30
0.0
 11
495.9999999999999
 21
467.9999999999999
 31
0.0
  0
LINE
  5
1DA
330
1E
100
AcDbEntity
  8
0
100
AcDbLine
 10
495.0
 20
436.0
 30
0.0
 11
495.9999999999999
 21
437.0
 31
0.0
  0
LINE
  5
1DB
330
1E
100
AcDbEntity
  8
0
100
AcDbLine
 10
495.9999999999999
 20
467.9999999999999
 30
0.0
 11
495.0
 21
469.0
 31
0.0
  0
LINE
  5
1DC
330
1E
100
AcDbEntity
  8
0
100
AcDbLine
 10
495.0
 20
515.0
 30
0.0
 11
491.9999999999999
 21
515.0
 31
0.0
  0
LINE
  5
1DD
330
1E
100
AcDbEntity
  8
2
100
AcDbLine
 10
477.0
 20
486.0
 30
0.0
 11
478.5
 21
487.0
 31
0.0
  0
LINE
  5
1DE
330
1E
100
AcDbEntity
  8
2
100
AcDbLine
 10
478.5
 20
496.9999999999999
 30
0.0
 11
477.0
 21
498.0
 31
0.0
  0
LINE
  5
1DF
330
1E
100
AcDbEntity
  8
2
100
AcDbLine
 10
477.0
 20
498.0
 30
0.0
 11
477.0
 21
486.0
 31
0.0
  0
LINE
  5
1E0
330
1E
100
AcDbEntity
  8
2
100
AcDbLine
 10
478.5
 20
487.0
 30
0.0
 11
478.5
 21
496.9999999999999
 31
0.0
  0
LINE
  5
1E1
330
1E
100
AcDbEntity
  8
0
100
AcDbLine
 10
495.9999999999999
 20
516.0
 30
0.0
 11
495.0
 21
515.0
 31
0.0
  0
LINE
  5
1E2
330
1E
100
AcDbEntity
  8
0
100
AcDbLine
 10
495.0
 20
548.0
 30
0.0
 11
457.0
 21
548.0
 31
0.0
  0
LINE
  5
1E3
330
1E
100
AcDbEntity
  8
0
100
AcDbLine
 10
457.0
 20
548.0
 30
0.0
 11
456.0
 21
546.9999999999998
 31
0.0
  0
LINE
  5
1E4
330
1E
100
AcDbEntity
  8
0
100
AcDbLine
 10
495.0
 20
548.0
 30
0.0
 11
495.9999999999999
 21
546.9999999999998
 31
0.0
  0
LINE
  5
1E5
330
1E
100
AcDbEntity
  8
0
100
AcDbLine
 10
491.9999999999999
 20
469.0
 30
0.0
 11
491.9999999999999
 21
466.9999999999999
 31
0.0
  0
LINE
  5
1E6
330
1E
100
AcDbEntity
  8
0
100
AcDbLine
 10
491.9999999999999
 20
466.9999999999999
 30
0.0
 11
491.0
 21
466.0
 31
0.0
  0
LINE
  5
1E7
330
1E
100
AcDbEntity
  8
0
100
AcDbLine
 10
491.0
 20
466.0
 30
0.0
 11
458.0
 21
466.0
 31
0.0
  0
LINE
  5
1E8
330
1E
100
AcDbEntity
  8
0
100
AcDbLine
 10
458.0
 20
466.0
 30
0.0
 11
457.0
 21
467.4999999999999
 31
0.0
  0
LINE
  5
1E9
330
1E
100
AcDbEntity
  8
0
100
AcDbLine
 10
491.9999999999999
 20
515.0
 30
0.0
 11
491.9999999999999
 21
516.9999999999999
 31
0.0
  0
LINE
  5
1EA
330
1E
100
AcDbEntity
  8
0
100
AcDbLine
 10
491.9999999999999
 20
516.9999999999999
 30
0.0
 11
491.0
 21
517.9999999999998
 31
0.0
  0
LINE
  5
1EB
330
1E
100
AcDbEntity
  8
0
100
AcDbLine
 10
457.0
 20
516.9999999999999
 30
0.0
 11
458.0
 21
517.9999999999998
 31
0.0
  0
LINE
  5
1EC
330
1E
100
AcDbEntity
  8
0
100
AcDbLine
 10
491.0
 20
517.9999999999998
 30
0.0
 11
458.0
 21
517.9999999999998
 31
0.0
  0
LINE
  5
1ED
330
1E
100
AcDbEntity
  8
0
100
AcDbLine
 10
432.5
 20
514.5
 30
0.0
 11
446.4999999999999
 21
514.5
 31
0.0
  0
LINE
  5
1EE
330
1E
100
AcDbEntity
  8
0
100
AcDbLine
 10
446.4999999999999
 20
514.5
 30
0.0
 11
447.5
 21
513.4999999999998
 31
0.0
  0
LINE
  5
1EF
330
1E
100
AcDbEntity
  8
0
100
AcDbLine
 10
447.5
 20
513.4999999999998
 30
0.0
 11
447.5
 21
470.5
 31
0.0
  0
LINE
  5
1F0
330
1E
100
AcDbEntity
  8
0
100
AcDbLine
 10
447.5
 20
470.5
 30
0.0
 11
446.4999999999999
 21
469.5
 31
0.0
  0
LINE
  5
1F1
330
1E
100
AcDbEntity
  8
0
100
AcDbLine
 10
446.4999999999999
 20
469.5
 30
0.0
 11
432.5
 21
469.5
 31
0.0
  0
LINE
  5
1F2
330
1E
100
AcDbEntity
  8
2
100
AcDbLine
 10
460.0
 20
469.0
 30
0.0
 11
460.0
 21
515.0
 31
0.0
  0
LINE
  5
1F3
330
1E
100
AcDbEntity
  8
2
100
AcDbLine
 10
491.9999999999999
 20
515.0
 30
0.0
 11
457.0
 21
515.0
 31
0.0
  0
LINE
  5
1F4
330
1E
100
AcDbEntity
  8
2
100
AcDbLine
 10
491.9999999999999
 20
469.0
 30
0.0
 11
457.0
 21
469.0
 31
0.0
  0
LINE
  5
1F5
330
1E
100
AcDbEntity
  8
0
100
AcDbLine
 10
456.0
 20
517.9999999999998
 30
0.0
 11
457.0
 21
516.9999999999999
 31
0.0
  0
LINE
  5
1F6
330
1E
100
AcDbEntity
  8
0
100
AcDbLine
 10
456.0
 20
466.0
 30
0.0
 11
457.0
 21
467.4999999999999
 31
0.0
  0
LINE
  5
1F7
330
1E
100
AcDbEntity
  8
0
100
AcDbLine
 10
491.5
 20
531.5
 30
0.0
 11
491.5
 21
517.9999999999998
 31
0.0
  0
LINE
  5
1F8
330
1E
100
AcDbEntity
  8
0
100
AcDbLine
 10
460.5
 20
531.5
 30
0.0
 11
460.5
 21
517.9999999999998
 31
0.0
  0
LINE
  5
1F9
330
1E
100
AcDbEntity
  8
1
100
AcDbLine
 10
464.5
 20
537.0
 30
0.0
 11
487.9999999999999
 21
537.0
 31
0.0
  0
ARC
  5
1FA
330
1E
100
AcDbEntity
  8
0
100
AcDbCircle
 10
475.9999999999999
 20
531.5
 30
0.0
 40
15.5
100
AcDbArc
 50
0.0
 51
180.0
  0
CIRCLE
  5
1FB
330
1E
100
AcDbEntity
  8
0
100
AcDbCircle
 10
475.9999999999999
 20
537.0
 30
0.0
 40
5.5
  0
LINE
  5
1FC
330
1E
100
AcDbEntity
  8
1
100
AcDbLine
 10
464.5
 20
446.9999999999999
 30
0.0
 11
487.9999999999999
 21
446.9999999999999
 31
0.0
  0
ARC
  5
1FD
330
1E
100
AcDbEntity
  8
0
100
AcDbCircle
 10
475.9999999999999
 20
452.5
 30
0.0
 40
15.5
100
AcDbArc
 50
180.0
 51
0.0
  0
LINE
  5
1FE
330
1E
100
AcDbEntity
  8
0
100
AcDbLine
 10
460.5
 20
452.5
 30
0.0
 11
460.5
 21
466.0
 31
0.0
  0
CIRCLE
  5
1FF
330
1E
100
AcDbEntity
  8
0
100
AcDbCircle
 10
475.9999999999999
 20
446.9999999999999
 30
0.0
 40
5.5
  0
LINE
  5
200
330
1E
100
AcDbEntity
  8
0
100
AcDbLine
 10
491.5
 20
452.5
 30
0.0
 11
491.5
 21
466.0
 31
0.0
  0
LINE
  5
201
330
1E
100
AcDbEntity
  8
2
100
AcDbLine
 10
491.9999999999999
 20
206.4999999999999
 30
0.0
 11
460.0
 21
206.4999999999999
 31
0.0
  0
LINE
  5
202
330
1E
100
AcDbEntity
  8
2
100
AcDbLine
 10
455.9499999999998
 20
508.15
 30
0.0
 11
452.5
 21
507.0
 31
0.0
  0
LINE
  5
203
330
1E
100
AcDbEntity
  8
2
100
AcDbLine
 10
457.0
 20
515.0
 30
0.0
 11
456.0
 21
516.0
 31
0.0
  0
LINE
  5
204
330
1E
100
AcDbEntity
  8
2
100
AcDbLine
 10
456.0
 20
516.0
 30
0.0
 11
456.0
 21
517.9999999999998
 31
0.0
  0
LINE
  5
205
330
1E
100
AcDbEntity
  8
3
100
AcDbLine
 10
457.0
 20
516.9999999999999
 30
0.0
 11
458.0
 21
516.0
 31
0.0
  0
LINE
  5
206
330
1E
100
AcDbEntity
  8
3
100
AcDbLine
 10
458.0
 20
516.0
 30
0.0
 11
456.0
 21
513.9999999999998
 31
0.0
  0
LINE
  5
207
330
1E
100
AcDbEntity
  8
3
100
AcDbLine
 10
456.0
 20
513.9999999999998
 30
0.0
 11
458.0
 21
512.0
 31
0.0
  0
LINE
  5
208
330
1E
100
AcDbEntity
  8
3
100
AcDbLine
 10
458.0
 20
512.0
 30
0.0
 11
456.0
 21
510.0
 31
0.0
  0
LINE
  5
209
330
1E
100
AcDbEntity
  8
3
100
AcDbLine
 10
456.0
 20
510.0
 30
0.0
 11
458.0
 21
508.0
 31
0.0
  0
LINE
  5
20A
330
1E
100
AcDbEntity
  8
3
100
AcDbLine
 10
458.0
 20
508.0
 30
0.0
 11
456.0
 21
506.0
 31
0.0
  0
LINE
  5
20B
330
1E
100
AcDbEntity
  8
3
100
AcDbLine
 10
456.0
 20
506.0
 30
0.0
 11
458.0
 21
504.0
 31
0.0
  0
LINE
  5
20C
330
1E
100
AcDbEntity
  8
3
100
AcDbLine
 10
458.0
 20
504.0
 30
0.0
 11
456.0
 21
502.0
 31
0.0
  0
LINE
  5
20D
330
1E
100
AcDbEntity
  8
3
100
AcDbLine
 10
456.0
 20
502.0
 30
0.0
 11
458.0
 21
500.0
 31
0.0
  0
LINE
  5
20E
330
1E
100
AcDbEntity
  8
3
100
AcDbLine
 10
458.0
 20
500.0
 30
0.0
 11
456.0
 21
498.0
 31
0.0
  0
LINE
  5
20F
330
1E
100
AcDbEntity
  8
3
100
AcDbLine
 10
456.0
 20
498.0
 30
0.0
 11
458.0
 21
495.9999999999999
 31
0.0
  0
LINE
  5
210
330
1E
100
AcDbEntity
  8
3
100
AcDbLine
 10
458.0
 20
495.9999999999999
 30
0.0
 11
456.0
 21
494.0
 31
0.0
  0
LINE
  5
211
330
1E
100
AcDbEntity
  8
3
100
AcDbLine
 10
456.0
 20
494.0
 30
0.0
 11
458.0
 21
491.9999999999999
 31
0.0
  0
LINE
  5
212
330
1E
100
AcDbEntity
  8
3
100
AcDbLine
 10
458.0
 20
491.9999999999999
 30
0.0
 11
456.0
 21
490.0
 31
0.0
  0
LINE
  5
213
330
1E
100
AcDbEntity
  8
3
100
AcDbLine
 10
456.0
 20
490.0
 30
0.0
 11
458.0
 21
487.9999999999999
 31
0.0
  0
LINE
  5
214
330
1E
100
AcDbEntity
  8
3
100
AcDbLine
 10
458.0
 20
487.9999999999999
 30
0.0
 11
456.0
 21
486.0
 31
0.0
  0
LINE
  5
215
330
1E
100
AcDbEntity
  8
3
100
AcDbLine
 10
456.0
 20
486.0
 30
0.0
 11
458.0
 21
483.9999999999999
 31
0.0
  0
LINE
  5
216
330
1E
100
AcDbEntity
  8
3
100
AcDbLine
 10
458.0
 20
483.9999999999999
 30
0.0
 11
456.0
 21
482.0
 31
0.0
  0
LINE
  5
217
330
1E
100
AcDbEntity
  8
3
100
AcDbLine
 10
456.0
 20
482.0
 30
0.0
 11
458.0
 21
479.9999999999999
 31
0.0
  0
LINE
  5
218
330
1E
100
AcDbEntity
  8
3
100
AcDbLine
 10
458.0
 20
479.9999999999999
 30
0.0
 11
456.0
 21
478.0
 31
0.0
  0
LINE
  5
219
330
1E
100
AcDbEntity
  8
3
100
AcDbLine
 10
456.0
 20
478.0
 30
0.0
 11
458.0
 21
475.9999999999999
 31
0.0
  0
LINE
  5
21A
330
1E
100
AcDbEntity
  8
3
100
AcDbLine
 10
458.0
 20
475.9999999999999
 30
0.0
 11
456.0
 21
474.0
 31
0.0
  0
LINE
  5
21B
330
1E
100
AcDbEntity
  8
2
100
AcDbLine
 10
457.0
 20
469.0
 30
0.0
 11
456.0
 21
467.9999999999999
 31
0.0
  0
LINE
  5
21C
330
1E
100
AcDbEntity
  8
2
100
AcDbLine
 10
456.0
 20
467.9999999999999
 30
0.0
 11
456.0
 21
466.0
 31
0.0
  0
LINE
  5
21D
330
1E
100
AcDbEntity
  8
3
100
AcDbLine
 10
456.0
 20
474.0
 30
0.0
 11
458.0
 21
471.9999999999999
 31
0.0
  0
LINE
  5
21E
330
1E
100
AcDbEntity
  8
3
100
AcDbLine
 10
458.0
 20
471.9999999999999
 30
0.0
 11
456.0
 21
470.0
 31
0.0
  0
LINE
  5
21F
330
1E
100
AcDbEntity
  8
3
100
AcDbLine
 10
456.0
 20
470.0
 30
0.0
 11
458.0
 21
467.9999999999999
 31
0.0
  0
LINE
  5
220
330
1E
100
AcDbEntity
  8
3
100
AcDbLine
 10
458.0
 20
467.9999999999999
 30
0.0
 11
456.0
 21
466.9999999999999
 31
0.0
  0
LINE
  5
221
330
1E
100
AcDbEntity
  8
2
100
AcDbLine
 10
455.9499999999998
 20
294.6499999999999
 30
0.0
 11
452.5
 21
293.5
 31
0.0
  0
LINE
  5
222
330
1E
100
AcDbEntity
  8
3
100
AcDbLine
 10
457.0
 20
303.0
 30
0.0
 11
456.0
 21
303.0
 31
0.0
  0
LINE
  5
223
330
1E
100
AcDbEntity
  8
3
100
AcDbLine
 10
456.0
 20
303.0
 30
0.0
 11
458.0
 21
301.0
 31
0.0
  0
LINE
  5
224
330
1E
100
AcDbEntity
  8
3
100
AcDbLine
 10
458.0
 20
301.0
 30
0.0
 11
456.0
 21
299.0
 31
0.0
  0
LINE
  5
225
330
1E
100
AcDbEntity
  8
3
100
AcDbLine
 10
456.0
 20
299.0
 30
0.0
 11
458.0
 21
297.0
 31
0.0
  0
LINE
  5
226
330
1E
100
AcDbEntity
  8
3
100
AcDbLine
 10
458.0
 20
297.0
 30
0.0
 11
456.0
 21
295.0
 31
0.0
  0
LINE
  5
227
330
1E
100
AcDbEntity
  8
3
100
AcDbLine
 10
456.0
 20
295.0
 30
0.0
 11
458.0
 21
293.0
 31
0.0
  0
LINE
  5
228
330
1E
100
AcDbEntity
  8
3
100
AcDbLine
 10
458.0
 20
293.0
 30
0.0
 11
456.0
 21
291.0
 31
0.0
  0
LINE
  5
229
330
1E
100
AcDbEntity
  8
3
100
AcDbLine
 10
456.0
 20
291.0
 30
0.0
 11
458.0
 21
289.0
 31
0.0
  0
LINE
  5
22A
330
1E
100
AcDbEntity
  8
3
100
AcDbLine
 10
458.0
 20
289.0
 30
0.0
 11
456.0
 21
287.0
 31
0.0
  0
LINE
  5
22B
330
1E
100
AcDbEntity
  8
3
100
AcDbLine
 10
456.0
 20
287.0
 30
0.0
 11
458.0
 21
285.0
 31
0.0
  0
LINE
  5
22C
330
1E
100
AcDbEntity
  8
3
100
AcDbLine
 10
458.0
 20
285.0
 30
0.0
 11
456.0
 21
283.0
 31
0.0
  0
LINE
  5
22D
330
1E
100
AcDbEntity
  8
3
100
AcDbLine
 10
456.0
 20
283.0
 30
0.0
 11
458.0
 21
281.0
 31
0.0
  0
LINE
  5
22E
330
1E
100
AcDbEntity
  8
3
100
AcDbLine
 10
458.0
 20
281.0
 30
0.0
 11
456.0
 21
279.0
 31
0.0
  0
LINE
  5
22F
330
1E
100
AcDbEntity
  8
3
100
AcDbLine
 10
456.0
 20
279.0
 30
0.0
 11
458.0
 21
277.0
 31
0.0
  0
LINE
  5
230
330
1E
100
AcDbEntity
  8
3
100
AcDbLine
 10
458.0
 20
277.0
 30
0.0
 11
456.0
 21
275.0
 31
0.0
  0
LINE
  5
231
330
1E
100
AcDbEntity
  8
3
100
AcDbLine
 10
456.0
 20
275.0
 30
0.0
 11
458.0
 21
272.9999999999999
 31
0.0
  0
LINE
  5
232
330
1E
100
AcDbEntity
  8
3
100
AcDbLine
 10
458.0
 20
272.9999999999999
 30
0.0
 11
456.0
 21
270.9999999999999
 31
0.0
  0
LINE
  5
233
330
1E
100
AcDbEntity
  8
3
100
AcDbLine
 10
456.0
 20
270.9999999999999
 30
0.0
 11
458.0
 21
268.9999999999999
 31
0.0
  0
LINE
  5
234
330
1E
100
AcDbEntity
  8
3
100
AcDbLine
 10
458.0
 20
268.9999999999999
 30
0.0
 11
456.0
 21
266.9999999999999
 31
0.0
  0
LINE
  5
235
330
1E
100
AcDbEntity
  8
3
100
AcDbLine
 10
456.0
 20
266.9999999999999
 30
0.0
 11
458.0
 21
264.9999999999999
 31
0.0
  0
LINE
  5
236
330
1E
100
AcDbEntity
  8
3
100
AcDbLine
 10
458.0
 20
264.9999999999999
 30
0.0
 11
456.0
 21
262.9999999999999
 31
0.0
  0
LINE
  5
237
330
1E
100
AcDbEntity
  8
3
100
AcDbLine
 10
456.0
 20
262.9999999999999
 30
0.0
 11
458.0
 21
260.9999999999998
 31
0.0
  0
LINE
  5
238
330
1E
100
AcDbEntity
  8
3
100
AcDbLine
 10
458.0
 20
260.9999999999998
 30
0.0
 11
456.0
 21
258.9999999999998
 31
0.0
  0
LINE
  5
239
330
1E
100
AcDbEntity
  8
3
100
AcDbLine
 10
456.0
 20
258.9999999999998
 30
0.0
 11
458.0
 21
256.9999999999998
 31
0.0
  0
LINE
  5
23A
330
1E
100
AcDbEntity
  8
3
100
AcDbLine
 10
458.0
 20
256.9999999999998
 30
0.0
 11
456.0
 21
255.0
 31
0.0
  0
LINE
  5
23B
330
1E
100
AcDbEntity
  8
0
100
AcDbLine
 10
458.25
 20
253.25
 30
0.0
 11
457.5
 21
252.4999999999999
 31
0.0
  0
LINE
  5
23C
330
1E
100
AcDbEntity
  8
0
100
AcDbLine
 10
458.0499999999998
 20
253.15
 30
0.0
 11
460.0
 21
252.4999999999999
 31
0.0
  0
LINE
  5
23D
330
1E
100
AcDbEntity
  8
3
100
AcDbLine
 10
456.0
 20
255.0
 30
0.0
 11
458.0
 21
253.5
 31
0.0
  0
LINE
  5
23E
330
1E
100
AcDbEntity
  8
3
100
AcDbLine
 10
458.0
 20
253.5
 30
0.0
 11
457.0
 21
252.4999999999999
 31
0.0
  0
LINE
  5
23F
330
1E
100
AcDbEntity
  8
3
100
AcDbLine
 10
457.0
 20
101.5
 30
0.0
 11
458.0
 21
101.0
 31
0.0
  0
LINE
  5
240
330
1E
100
AcDbEntity
  8
3
100
AcDbLine
 10
458.0
 20
101.0
 30
0.0
 11
456.0
 21
99.0
 31
0.0
  0
LINE
  5
241
330
1E
100
AcDbEntity
  8
3
100
AcDbLine
 10
456.0
 20
99.0
 30
0.0
 11
458.0
 21
97.0
 31
0.0
  0
LINE
  5
242
330
1E
100
AcDbEntity
  8
2
100
AcDbLine
 10
456.0999999999999
 20
94.7
 30
0.0
 11
452.5
 21
93.49999999999999
 31
0.0
  0
LINE
  5
243
330
1E
100
AcDbEntity
  8
3
100
AcDbLine
 10
458.0
 20
97.0
 30
0.0
 11
456.0
 21
95.0
 31
0.0
  0
LINE
  5
244
330
1E
100
AcDbEntity
  8
3
100
AcDbLine
 10
456.0
 20
95.0
 30
0.0
 11
458.0
 21
93.0
 31
0.0
  0
LINE
  5
245
330
1E
100
AcDbEntity
  8
3
100
AcDbLine
 10
458.0
 20
93.0
 30
0.0
 11
456.0
 21
90.99999999999999
 31
0.0
  0
LINE
  5
246
330
1E
100
AcDbEntity
  8
3
100
AcDbLine
 10
456.0
 20
90.99999999999999
 30
0.0
 11
458.0
 21
89.0
 31
0.0
  0
LINE
  5
247
330
1E
100
AcDbEntity
  8
3
100
AcDbLine
 10
458.0
 20
89.0
 30
0.0
 11
456.0
 21
87.00000000000001
 31
0.0
  0
LINE
  5
248
330
1E
100
AcDbEntity
  8
3
100
AcDbLine
 10
456.0
 20
87.00000000000001
 30
0.0
 11
458.0
 21
85.0
 31
0.0
  0
LINE
  5
249
330
1E
100
AcDbEntity
  8
3
100
AcDbLine
 10
458.0
 20
85.0
 30
0.0
 11
456.0
 21
83.0
 31
0.0
  0
LINE
  5
24A
330
1E
100
AcDbEntity
  8
3
100
AcDbLine
 10
456.0
 20
83.0
 30
0.0
 11
458.0
 21
80.99999999999999
 31
0.0
  0
LINE
  5
24B
330
1E
100
AcDbEntity
  8
3
100
AcDbLine
 10
458.0
 20
80.99999999999999
 30
0.0
 11
456.0
 21
79.0
 31
0.0
  0
LINE
  5
24C
330
1E
100
AcDbEntity
  8
3
100
AcDbLine
 10
456.0
 20
79.0
 30
0.0
 11
458.0
 21
77.0
 31
0.0
  0
LINE
  5
24D
330
1E
100
AcDbEntity
  8
3
100
AcDbLine
 10
458.0
 20
77.0
 30
0.0
 11
456.0
 21
75.0
 31
0.0
  0
LINE
  5
24E
330
1E
100
AcDbEntity
  8
3
100
AcDbLine
 10
456.0
 20
75.0
 30
0.0
 11
458.0
 21
73.0
 31
0.0
  0
LINE
  5
24F
330
1E
100
AcDbEntity
  8
3
100
AcDbLine
 10
458.0
 20
73.0
 30
0.0
 11
456.0
 21
71.0
 31
0.0
  0
LINE
  5
250
330
1E
100
AcDbEntity
  8
3
100
AcDbLine
 10
456.0
 20
71.0
 30
0.0
 11
458.0
 21
69.0
 31
0.0
  0
LINE
  5
251
330
1E
100
AcDbEntity
  8
3
100
AcDbLine
 10
458.0
 20
69.0
 30
0.0
 11
456.0
 21
67.0
 31
0.0
  0
LINE
  5
252
330
1E
100
AcDbEntity
  8
3
100
AcDbLine
 10
456.0
 20
67.0
 30
0.0
 11
458.0
 21
65.0
 31
0.0
  0
LINE
  5
253
330
1E
100
AcDbEntity
  8
3
100
AcDbLine
 10
458.0
 20
65.0
 30
0.0
 11
456.0
 21
63.0
 31
0.0
  0
LINE
  5
254
330
1E
100
AcDbEntity
  8
3
100
AcDbLine
 10
456.0
 20
63.0
 30
0.0
 11
458.0
 21
61.0
 31
0.0
  0
LINE
  5
255
330
1E
100
AcDbEntity
  8
3
100
AcDbLine
 10
458.0
 20
61.0
 30
0.0
 11
456.0
 21
59.0
 31
0.0
  0
LINE
  5
256
330
1E
100
AcDbEntity
  8
3
100
AcDbLine
 10
456.0
 20
59.0
 30
0.0
 11
458.0
 21
57.0
 31
0.0
  0
LINE
  5
257
330
1E
100
AcDbEntity
  8
3
100
AcDbLine
 10
458.0
 20
57.0
 30
0.0
 11
456.0
 21
55.0
 31
0.0
  0
TEXT
  5
259
330
1E
100
AcDbEntity
  8
0
100
AcDbText
 10
679.7770745737584
 20
5.851750945696152
 30
0.0
 40
12.0
  1
ST-75R
 41
0.8
  7
BIGFONT
100
AcDbText
  0
CIRCLE
  5
25A
330
1E
100
AcDbEntity
  8
2
100
AcDbCircle
 10
153.5
 20
333.4999999999999
 30
0.0
 40
14.94166904781416
  0
CIRCLE
  5
25B
330
1E
100
AcDbEntity
  8
0
100
AcDbCircle
 10
670.9999999999999
 20
333.4999999999999
 30
0.0
 40
10.11423784272233
  0
CIRCLE
  5
25C
330
1E
100
AcDbEntity
  8
0
100
AcDbCircle
 10
670.9999999999999
 20
333.4999999999999
 30
0.0
 40
8.091025229162598
  0
TEXT
  5
33C
330
1E
100
AcDbEntity
  8
0
100
AcDbText
 10
139.8427208631811
 20
231.7392801695867
 30
0.0
 40
6.0
  1
MIYOSHI
 41
0.8
  7
EXTFONT
100
AcDbText
  0
TEXT
  5
33D
330
1E
100
AcDbEntity
  8
0
100
AcDbText
 10
656.495537081984
 20
230.9466287316255
 30
0.0
 40
6.0
  1
MIYOSHI
 41
0.8
  7
EXTFONT
100
AcDbText
  0
ENDSEC
  0
SECTION
  2
OBJECTS
  0
DICTIONARY
  5
C
330
0
100
AcDbDictionary
281
     1
  3
ACAD_GROUP
350
D
  3
ACAD_LAYOUT
350
19
  3
ACAD_MLINESTYLE
350
16
  3
ACAD_PLOTSETTINGS
350
18
  3
ACAD_PLOTSTYLENAME
350
E
  3
AcDbVariableDictionary
350
346
  3
AcmDictionary
350
318
  3
AMG
350
25E
  3
AMGSNAPSETTINGS
350
335
  3
DWGPROPS
350
31B
  3
MAPISURF_MODULE
350
2EB
  0
DICTIONARY
  5
33E
330
1E
100
AcDbDictionary
280
     1
281
     1
  3
ACAD_INDEX
360
33F
  0
DICTIONARY
  5
D
102
{ACAD_REACTORS
330
C
102
}
330
C
100
AcDbDictionary
281
     1
  0
DICTIONARY
  5
19
102
{ACAD_REACTORS
330
C
102
}
330
C
100
AcDbDictionary
281
     1
  3
Model
350
21
  3
ﾚｲｱｳﾄ1
350
1D
  0
DICTIONARY
  5
16
102
{ACAD_REACTORS
330
C
102
}
330
C
100
AcDbDictionary
281
     1
  3
Standard
350
17
  0
DICTIONARY
  5
18
102
{ACAD_REACTORS
330
C
102
}
330
C
100
AcDbDictionary
281
     1
  0
ACDBDICTIONARYWDFLT
  5
E
102
{ACAD_REACTORS
330
C
102
}
330
C
100
AcDbDictionary
281
     1
  3
Normal
350
F
100
AcDbDictionaryWithDefault
340
F
  0
DICTIONARY
  5
346
102
{ACAD_REACTORS
330
C
102
}
330
C
100
AcDbDictionary
281
     1
  3
DIMASSOC
350
348
  3
INDEXCTL
350
347
  0
DICTIONARY
  5
318
102
{ACAD_REACTORS
330
C
102
}
330
C
100
AcDbDictionary
281
     1
  3
AcmBOMDATA
350
319
  0
DICTIONARY
  5
25E
102
{ACAD_REACTORS
330
C
102
}
330
C
100
AcDbDictionary
281
     1
  3
AcMgSettings
350
25F
  3
AMGLAYCFG
350
325
  0
DICTIONARY
  5
335
102
{ACAD_REACTORS
330
C
102
}
330
C
100
AcDbDictionary
281
     1
  3
DIMENSION
350
33A
  3
FEA
350
339
  3
HATCH (1)
350
336
  3
HATCH (2)
350
337
  3
SIMPLE WELD
350
33B
  3
SYMBOLS
350
338
  0
XRECORD
  5
31B
102
{ACAD_REACTORS
330
C
102
}
330
C
100
AcDbXrecord
280
     1
  1
DWGPROPS COOKIE
  2

  3

  4

  6

  7

  8

  9

300
AmdtFileType=84
301
=
302
=
303
=
304
=
305
=
306
=
307
=
308
=
309
=
 40
0.0000065162037037
 41
2450686.780810185
 42
2450686.780810185
  1

 90
        1
  0
DICTIONARY
  5
33F
102
{ACAD_REACTORS
330
33E
102
}
330
33E
100
AcDbDictionary
281
     1
  3
*A1
350
340
  0
LAYOUT
  5
21
102
{ACAD_REACTORS
330
19
102
}
330
19
100
AcDbPlotSettings
  1

  2
\\KONISHIDENXP\SHARP MX-2700FG
  4

  6

 40
0.0
 41
0.0
 42
0.0
 43
0.0
 44
0.0
 45
0.0
 46
0.0
 47
0.0
 48
0.0
 49
0.0
140
0.0
141
0.0
142
1.0
143
1.0
 70
  1712
 72
     0
 73
     0
 74
     0
  7

 75
     0
147
1.0
148
0.0
149
0.0
100
AcDbLayout
  1
Model
 70
     1
 71
     0
 10
0.0
 20
0.0
 11
12.0
 21
9.0
 12
0.0
 22
0.0
 32
0.0
 14
0.0
 24
0.0
 34
0.0
 15
0.0
 25
0.0
 35
0.0
146
0.0
 13
0.0
 23
0.0
 33
0.0
 16
1.0
 26
0.0
 36
0.0
 17
0.0
 27
1.0
 37
0.0
 76
     0
330
1E
  0
LAYOUT
  5
1D
102
{ACAD_REACTORS
330
19
102
}
330
19
100
AcDbPlotSettings
  1

  2
\\KONISHIDENXP\SHARP MX-2700FG
  4

  6

 40
0.0
 41
0.0
 42
0.0
 43
0.0
 44
0.0
 45
0.0
 46
0.0
 47
0.0
 48
0.0
 49
0.0
140
0.0
141
0.0
142
1.0
143
1.0
 70
   688
 72
     0
 73
     0
 74
     5
  7

 75
    16
147
1.0
148
0.0
149
0.0
100
AcDbLayout
  1
ﾚｲｱｳﾄ1
 70
     1
 71
     1
 10
0.0
 20
0.0
 11
12.0
 21
9.0
 12
0.0
 22
0.0
 32
0.0
 14
1.000000000000000E+20
 24
1.000000000000000E+20
 34
1.000000000000000E+20
 15
-1.000000000000000E+20
 25
-1.000000000000000E+20
 35
-1.000000000000000E+20
146
0.0
 13
0.0
 23
0.0
 33
0.0
 16
1.0
 26
0.0
 36
0.0
 17
0.0
 27
1.0
 37
0.0
 76
     0
330
1A
  0
MLINESTYLE
  5
17
102
{ACAD_REACTORS
330
16
102
}
330
16
100
AcDbMlineStyle
  2
STANDARD
 70
     0
  3

 62
   256
 51
90.0
 52
90.0
 71
     2
 49
0.5
 62
   256
  6
BYLAYER
 49
-0.5
 62
   256
  6
BYLAYER
  0
ACDBPLACEHOLDER
  5
F
102
{ACAD_REACTORS
330
E
102
}
330
E
  0
DICTIONARYVAR
  5
348
102
{ACAD_REACTORS
330
346
102
}
330
346
100
DictionaryVariables
280
     0
  1
1
  0
DICTIONARYVAR
  5
347
102
{ACAD_REACTORS
330
346
102
}
330
346
100
DictionaryVariables
280
     0
  1
1
  0
ACMDATADICTIONARY
  5
319
102
{ACAD_REACTORS
330
318
102
}
330
318
100
AcDbDictionary
281
     1
  3
*A1
350
31A
100
AcmDataDictionary
  0
DICTIONARY
  5
25F
102
{ACAD_REACTORS
330
25E
102
}
330
25E
100
AcDbDictionary
281
     1
  3
DWGSETTINGS
350
260
  0
ACAMGFILTERDAT
  5
33A
102
{ACAD_REACTORS
330
335
102
}
330
335
100
AcAmgFilterDat
 70
    15
  1
DIMENSION,AMDT_*_DIM
  2
*
  3
*
  4
*
  5
*
290
     1
  0
ACAMGFILTERDAT
  5
339
102
{ACAD_REACTORS
330
335
102
}
330
335
100
AcAmgFilterDat
 70
    15
  1
*
  2
AM_FEA-AM_*
  3
*
  4
*
  5
*
290
     1
  0
ACAMGFILTERDAT
  5
336
102
{ACAD_REACTORS
330
335
102
}
330
335
100
AcAmgFilterDat
 70
    15
  1
HATCH
  2
*
  3
*
  4
*
  5
*
290
     1
  0
ACAMGFILTERDAT
  5
337
102
{ACAD_REACTORS
330
335
102
}
330
335
100
AcAmgFilterDat
 70
    15
  1
LINE
  2
8,8N,*-8,*-8N,AM_8,AM_8N,*-AM_8,*-AM_8N
  3
*
  4
*
  5
INSERT,STDPART2D
290
     1
  0
ACAMGFILTERDAT
  5
33B
102
{ACAD_REACTORS
330
335
102
}
330
335
100
AcAmgFilterDat
 70
    15
  1
ARC
  2
AM_5
  3
*
  4
2
  5
INSERT
290
     0
  0
ACAMGFILTERDAT
  5
338
102
{ACAD_REACTORS
330
335
102
}
330
335
100
AcAmgFilterDat
 70
    15
  1
ACMFCFRAME,ACMDATUMTARGET,ACMDATUMID,ACMWELDSYM,ACMSURFSYM,ACMFEATID,ACMPARTREF,ACMBALLOON,AMDTEDGESYM,AMGSCREWCALCTABLE
  2
*
  3
*
  4
*
  5
*
290
     1
  0
LAYER_INDEX
  5
340
102
{ACAD_REACTORS
330
33F
102
}
330
33F
100
AcDbIndex
 40
2456525.59751971
100
AcDbLayerIndex
  8
0
360
341
 90
      211
  8
1
360
342
 90
       27
  8
2
360
343
 90
      205
  8
3
360
344
 90
       79
  8
4
360
345
 90
        1
  0
ACMDATAENTRYBLOCK
  5
31A
102
{ACAD_REACTORS
330
319
102
}
330
319
100
AcmDataEntry
100
AcmDataEntryBlock
  0
IDBUFFER
  5
341
330
0
100
AcDbIdBuffer
330
E4
330
E5
330
EA
330
EB
330
EC
330
ED
330
EE
330
F1
330
F3
330
F4
330
F5
330
F6
330
F8
330
F9
330
FB
330
FC
330
FE
330
116
330
117
330
118
330
119
330
11A
330
11B
330
11C
330
11D
330
11E
330
11F
330
120
330
121
330
149
330
161
330
162
330
163
330
164
330
165
330
166
330
16F
330
170
330
171
330
172
330
184
330
185
330
186
330
1A2
330
1A4
330
1A9
330
1AB
330
1AC
330
1AE
330
1AF
330
1B0
330
1B2
330
1B3
330
1B9
330
1BA
330
1BC
330
1D3
330
1D4
330
1D5
330
1D6
330
1D7
330
1D9
330
1DA
330
1DB
330
1DC
330
1E1
330
1E2
330
1E3
330
1E4
330
1E5
330
1E6
330
1E7
330
1E8
330
1E9
330
1EA
330
1EB
330
1EC
330
1ED
330
1EE
330
1EF
330
1F0
330
1F1
330
1F5
330
1F6
330
1F7
330
1F8
330
1FA
330
1FB
330
1FD
330
1FE
330
1FF
330
200
330
23B
330
23C
330
259
330
25B
330
25C
330
33C
330
33D
330
3D
330
3E
330
3F
330
40
330
41
330
42
330
43
330
44
330
45
330
46
330
47
330
48
330
49
330
4A
330
4B
330
4C
330
4D
330
54
330
55
330
56
330
57
330
58
330
59
330
5A
330
5B
330
5C
330
5D
330
5F
330
60
330
61
330
62
330
63
330
64
330
65
330
69
330
6A
330
6C
330
6D
330
6E
330
6F
330
70
330
71
330
72
330
73
330
74
330
75
330
77
330
78
330
79
330
7A
330
7B
330
7C
330
7D
330
7E
330
7F
330
82
330
83
330
84
330
85
330
86
330
87
330
88
330
89
330
8A
330
8B
330
8C
330
8D
330
8E
330
8F
330
90
330
91
330
92
330
93
330
A0
330
A2
330
A3
330
A4
330
A5
330
A6
330
A7
330
A8
330
A9
330
AA
330
AB
330
AD
330
AE
330
AF
330
B0
330
B1
330
B2
330
B3
330
B4
330
BA
330
BE
330
BF
330
C1
330
C2
330
C3
330
C4
330
C5
330
C6
330
CB
330
CC
330
CD
330
CE
330
D5
330
D6
330
D7
330
D8
330
E1
330
E2
330
E3
  0
IDBUFFER
  5
342
330
0
100
AcDbIdBuffer
330
F7
330
114
330
115
330
12B
330
182
330
183
330
1A1
330
1A3
330
1D8
330
1F9
330
1FC
330
4E
330
4F
330
66
330
76
330
9F
330
A1
330
AC
330
C0
330
C9
330
CA
330
E6
330
E7
330
E8
330
E9
330
F0
330
F2
  0
IDBUFFER
  5
343
330
0
100
AcDbIdBuffer
330
167
330
168
330
169
330
16A
330
16B
330
16C
330
16D
330
16E
330
173
330
174
330
175
330
176
330
177
330
178
330
179
330
17A
330
17B
330
17C
330
17D
330
17E
330
17F
330
180
330
181
330
18E
330
18F
330
190
330
191
330
192
330
193
330
194
330
195
330
196
330
197
330
198
330
199
330
19A
330
19B
330
19C
330
19D
330
19E
330
19F
330
1A0
330
1A5
330
1A6
330
1A7
330
1A8
330
1AA
330
1AD
330
1B1
330
1B4
330
1B5
330
1B6
330
1B7
330
1B8
330
1BB
330
1BD
330
1BE
330
1BF
330
1C0
330
1C1
330
1C2
330
1C3
330
1C4
330
1C5
330
1C6
330
1C7
330
1C8
330
1C9
330
1CA
330
1CB
330
1CC
330
1CD
330
1CE
330
1CF
330
1D0
330
1D1
330
1D2
330
1DD
330
1DE
330
1DF
330
1E0
330
1F2
330
1F3
330
1F4
330
201
330
202
330
203
330
204
330
21B
330
21C
330
221
330
242
330
25A
330
50
330
51
330
52
330
53
330
67
330
68
330
80
330
81
330
94
330
95
330
96
330
97
330
98
330
99
330
9A
330
9B
330
9C
330
9D
330
B5
330
B6
330
B7
330
B8
330
B9
330
BB
330
BC
330
BD
330
C7
330
C8
330
EF
330
FA
330
FF
330
100
330
101
330
102
330
103
330
104
330
105
330
106
330
107
330
108
330
109
330
10A
330
10B
330
10C
330
10D
330
10E
330
10F
330
110
330
111
330
112
330
113
330
122
330
123
330
124
330
125
330
126
330
127
330
128
330
129
330
12A
330
12C
330
12D
330
12E
330
12F
330
130
330
131
330
132
330
133
330
134
330
135
330
136
330
137
330
138
330
139
330
13A
330
13B
330
13C
330
13D
330
13E
330
13F
330
140
330
141
330
142
330
143
330
144
330
145
330
146
330
147
330
148
330
14A
330
14B
330
14C
330
14D
330
14E
330
14F
330
150
330
151
330
152
330
153
330
154
330
155
330
156
330
157
330
158
330
159
330
15A
330
15B
330
15C
330
15D
330
15E
330
15F
330
160
  0
IDBUFFER
  5
344
330
0
100
AcDbIdBuffer
330
236
330
237
330
238
330
239
330
23A
330
23D
330
23E
330
23F
330
240
330
241
330
243
330
244
330
245
330
246
330
247
330
248
330
249
330
24A
330
24B
330
24C
330
24D
330
24E
330
24F
330
250
330
251
330
252
330
253
330
254
330
255
330
256
330
257
330
9E
330
FD
330
205
330
206
330
207
330
208
330
209
330
20A
330
20B
330
20C
330
20D
330
20E
330
20F
330
210
330
211
330
212
330
213
330
214
330
215
330
216
330
217
330
218
330
219
330
21A
330
21D
330
21E
330
21F
330
220
330
222
330
223
330
224
330
225
330
226
330
227
330
228
330
229
330
22A
330
22B
330
22C
330
22D
330
22E
330
22F
330
230
330
231
330
232
330
233
330
234
330
235
  0
IDBUFFER
  5
345
330
0
100
AcDbIdBuffer
330
E0
  0
ENDSEC
  0
EOF
