  0
SECTION
  2
HEADER
  9
$ACADVER
  1
AC1015
  9
$ACADMAINTVER
 70
    13
  9
$DWGCODEPAGE
  3
ANSI_932
  9
$INSBASE
 10
0.0
 20
0.0
 30
0.0
  9
$EXTMIN
 10
76.0
 20
13.0
 30
0.0
  9
$EXTMAX
 10
759.4328577026375
 20
555.0
 30
0.0
  9
$LIMMIN
 10
0.0
 20
0.0
  9
$LIMMAX
 10
800.0
 20
600.0
  9
$ORTHOMODE
 70
     1
  9
$REGENMODE
 70
     1
  9
$FILLMODE
 70
     1
  9
$QTEXTMODE
 70
     0
  9
$MIRRTEXT
 70
     1
  9
$LTSCALE
 40
1.0
  9
$ATTMODE
 70
     1
  9
$TEXTSIZE
 40
6.0
  9
$TRACEWID
 40
0.05
  9
$TEXTSTYLE
  7
EXTFONT
  9
$CLAYER
  8
4
  9
$CELTYPE
  6
ByLayer
  9
$CECOLOR
 62
   256
  9
$CELTSCALE
 40
1.0
  9
$DISPSILH
 70
     0
  9
$DIMSCALE
 40
1.0
  9
$DIMASZ
 40
0.18
  9
$DIMEXO
 40
0.0625
  9
$DIMDLI
 40
0.38
  9
$DIMRND
 40
0.0
  9
$DIMDLE
 40
0.0
  9
$DIMEXE
 40
0.18
  9
$DIMTP
 40
0.0
  9
$DIMTM
 40
0.0
  9
$DIMTXT
 40
0.18
  9
$DIMCEN
 40
0.09
  9
$DIMTSZ
 40
0.0
  9
$DIMTOL
 70
     0
  9
$DIMLIM
 70
     0
  9
$DIMTIH
 70
     1
  9
$DIMTOH
 70
     1
  9
$DIMSE1
 70
     0
  9
$DIMSE2
 70
     0
  9
$DIMTAD
 70
     0
  9
$DIMZIN
 70
     0
  9
$DIMBLK
  1

  9
$DIMASO
 70
     1
  9
$DIMSHO
 70
     1
  9
$DIMPOST
  1

  9
$DIMAPOST
  1

  9
$DIMALT
 70
     0
  9
$DIMALTD
 70
     2
  9
$DIMALTF
 40
25.4
  9
$DIMLFAC
 40
1.0
  9
$DIMTOFL
 70
     0
  9
$DIMTVP
 40
0.0
  9
$DIMTIX
 70
     0
  9
$DIMSOXD
 70
     0
  9
$DIMSAH
 70
     0
  9
$DIMBLK1
  1

  9
$DIMBLK2
  1

  9
$DIMSTYLE
  2
STANDARD
  9
$DIMCLRD
 70
     0
  9
$DIMCLRE
 70
     0
  9
$DIMCLRT
 70
     0
  9
$DIMTFAC
 40
1.0
  9
$DIMGAP
 40
0.09
  9
$DIMJUST
 70
     0
  9
$DIMSD1
 70
     0
  9
$DIMSD2
 70
     0
  9
$DIMTOLJ
 70
     1
  9
$DIMTZIN
 70
     0
  9
$DIMALTZ
 70
     0
  9
$DIMALTTZ
 70
     0
  9
$DIMUPT
 70
     0
  9
$DIMDEC
 70
     4
  9
$DIMTDEC
 70
     4
  9
$DIMALTU
 70
     2
  9
$DIMALTTD
 70
     2
  9
$DIMTXSTY
  7
STANDARD
  9
$DIMAUNIT
 70
     0
  9
$DIMADEC
 70
     0
  9
$DIMALTRND
 40
0.0
  9
$DIMAZIN
 70
     0
  9
$DIMDSEP
 70
    46
  9
$DIMATFIT
 70
     3
  9
$DIMFRAC
 70
     0
  9
$DIMLDRBLK
  1

  9
$DIMLUNIT
 70
     2
  9
$DIMLWD
 70
    -2
  9
$DIMLWE
 70
    -2
  9
$DIMTMOVE
 70
     0
  9
$LUNITS
 70
     2
  9
$LUPREC
 70
     4
  9
$SKETCHINC
 40
0.1
  9
$FILLETRAD
 40
0.0
  9
$AUNITS
 70
     0
  9
$AUPREC
 70
     0
  9
$MENU
  1
acad
  9
$ELEVATION
 40
0.0
  9
$PELEVATION
 40
0.0
  9
$THICKNESS
 40
0.0
  9
$LIMCHECK
 70
     0
  9
$CHAMFERA
 40
0.0
  9
$CHAMFERB
 40
0.0
  9
$CHAMFERC
 40
0.0
  9
$CHAMFERD
 40
0.0
  9
$SKPOLY
 70
     0
  9
$TDCREATE
 40
2450686.780150463
  9
$TDUCREATE
 40
2450686.405150463
  9
$TDUPDATE
 40
2456525.579926932
  9
$TDUUPDATE
 40
2456525.204926932
  9
$TDINDWG
 40
0.0031819676
  9
$TDUSRTIMER
 40
0.0031819676
  9
$USRTIMER
 70
     1
  9
$ANGBASE
 50
0.0
  9
$ANGDIR
 70
     0
  9
$PDMODE
 70
     0
  9
$PDSIZE
 40
0.0
  9
$PLINEWID
 40
0.0
  9
$SPLFRAME
 70
     0
  9
$SPLINETYPE
 70
     6
  9
$SPLINESEGS
 70
     8
  9
$HANDSEED
  5
42D
  9
$SURFTAB1
 70
     6
  9
$SURFTAB2
 70
     6
  9
$SURFTYPE
 70
     6
  9
$SURFU
 70
     6
  9
$SURFV
 70
     6
  9
$UCSBASE
  2

  9
$UCSNAME
  2

  9
$UCSORG
 10
0.0
 20
0.0
 30
0.0
  9
$UCSXDIR
 10
1.0
 20
0.0
 30
0.0
  9
$UCSYDIR
 10
0.0
 20
1.0
 30
0.0
  9
$UCSORTHOREF
  2

  9
$UCSORTHOVIEW
 70
     0
  9
$UCSORGTOP
 10
0.0
 20
0.0
 30
0.0
  9
$UCSORGBOTTOM
 10
0.0
 20
0.0
 30
0.0
  9
$UCSORGLEFT
 10
0.0
 20
0.0
 30
0.0
  9
$UCSORGRIGHT
 10
0.0
 20
0.0
 30
0.0
  9
$UCSORGFRONT
 10
0.0
 20
0.0
 30
0.0
  9
$UCSORGBACK
 10
0.0
 20
0.0
 30
0.0
  9
$PUCSBASE
  2

  9
$PUCSNAME
  2

  9
$PUCSORG
 10
0.0
 20
0.0
 30
0.0
  9
$PUCSXDIR
 10
1.0
 20
0.0
 30
0.0
  9
$PUCSYDIR
 10
0.0
 20
1.0
 30
0.0
  9
$PUCSORTHOREF
  2

  9
$PUCSORTHOVIEW
 70
     0
  9
$PUCSORGTOP
 10
0.0
 20
0.0
 30
0.0
  9
$PUCSORGBOTTOM
 10
0.0
 20
0.0
 30
0.0
  9
$PUCSORGLEFT
 10
0.0
 20
0.0
 30
0.0
  9
$PUCSORGRIGHT
 10
0.0
 20
0.0
 30
0.0
  9
$PUCSORGFRONT
 10
0.0
 20
0.0
 30
0.0
  9
$PUCSORGBACK
 10
0.0
 20
0.0
 30
0.0
  9
$USERI1
 70
     0
  9
$USERI2
 70
     0
  9
$USERI3
 70
     0
  9
$USERI4
 70
     0
  9
$USERI5
 70
     0
  9
$USERR1
 40
0.0
  9
$USERR2
 40
0.0
  9
$USERR3
 40
0.0
  9
$USERR4
 40
0.0
  9
$USERR5
 40
0.0
  9
$WORLDVIEW
 70
     1
  9
$SHADEDGE
 70
     3
  9
$SHADEDIF
 70
    70
  9
$TILEMODE
 70
     1
  9
$MAXACTVP
 70
    16
  9
$PINSBASE
 10
0.0
 20
0.0
 30
0.0
  9
$PLIMCHECK
 70
     0
  9
$PEXTMIN
 10
1.000000000000000E+20
 20
1.000000000000000E+20
 30
1.000000000000000E+20
  9
$PEXTMAX
 10
-1.000000000000000E+20
 20
-1.000000000000000E+20
 30
-1.000000000000000E+20
  9
$PLIMMIN
 10
0.0
 20
0.0
  9
$PLIMMAX
 10
12.0
 20
9.0
  9
$UNITMODE
 70
     0
  9
$VISRETAIN
 70
     0
  9
$PLINEGEN
 70
     0
  9
$PSLTSCALE
 70
     1
  9
$TREEDEPTH
 70
  3020
  9
$CMLSTYLE
  2
Standard
  9
$CMLJUST
 70
     0
  9
$CMLSCALE
 40
1.0
  9
$PROXYGRAPHICS
 70
     1
  9
$MEASUREMENT
 70
     0
  9
$CELWEIGHT
370
    -1
  9
$ENDCAPS
280
     0
  9
$JOINSTYLE
280
     0
  9
$LWDISPLAY
290
     0
  9
$INSUNITS
 70
     0
  9
$HYPERLINKBASE
  1

  9
$STYLESHEET
  1

  9
$XEDIT
290
     1
  9
$CEPSNTYPE
380
     0
  9
$PSTYLEMODE
290
     1
  9
$FINGERPRINTGUID
  2
{8F80F51B-CFBF-4219-93B9-A032B5FD365A}
  9
$VERSIONGUID
  2
{AEEC3583-4416-4670-85E1-7714E78E2C3B}
  9
$EXTNAMES
290
     1
  9
$PSVPSCALE
 40
0.0
  9
$OLESTARTUP
290
     0
  0
ENDSEC
  0
SECTION
  2
CLASSES
  0
CLASS
  1
ACDBDICTIONARYWDFLT
  2
AcDbDictionaryWithDefault
  3
AutoCAD 2000
 90
        0
280
     0
281
     0
  0
CLASS
  1
ACDBPLACEHOLDER
  2
AcDbPlaceHolder
  3
AutoCAD 2000
 90
        0
280
     0
281
     0
  0
CLASS
  1
LAYOUT
  2
AcDbLayout
  3
AutoCAD 2000
 90
        0
280
     0
281
     0
  0
CLASS
  1
AMGSETTINGSOBJ
  2
AmgSettingsObj
  3
"AcadM|Product Description: AutoCAD Mechanical 2000|Company: Autodesk"
 90
        0
280
     0
281
     0
  0
CLASS
  1
ACME_DOCUMENT
  2
AcMeDbDoc
  3
AcMeServices
 90
        0
280
     0
281
     0
  0
CLASS
  1
ACMESCOPE
  2
AcMeScope
  3
AcMeServices
 90
        0
280
     0
281
     0
  0
CLASS
  1
ACMECOMMANDHISTORY
  2
AcMeCommandHistory
  3
AcMeServices
 90
        0
280
     0
281
     0
  0
CLASS
  1
ACIMSYSVARMAN
  2
AcImSysVarManager
  3
AcMeServices
 90
        0
280
     0
281
     0
  0
CLASS
  1
ACIMREALSYSVAR
  2
AcImRealSysVar
  3
AcMeServices
 90
        0
280
     0
281
     0
  0
CLASS
  1
ACIMINTSYSVAR
  2
AcImIntSysVar
  3
AcMeServices
 90
        0
280
     0
281
     0
  0
CLASS
  1
ACMEDRAWINGMAN
  2
AcMeDrawingMan
  3
AcMeServices
 90
        0
280
     0
281
     0
  0
CLASS
  1
ACMEVIEW
  2
AcMeView
  3
AcMeServices
 90
        0
280
     0
281
     0
  0
CLASS
  1
ACDBENTITYCACHE
  2
AcMeEntityCache
  3
AcMeServices
 90
        0
280
     0
281
     0
  0
CLASS
  1
GSMANAGER
  2
AcMeGSManager
  3
AcMeServices
 90
        0
280
     0
281
     0
  0
CLASS
  1
AMDTINTERNALREACTOR
  2
AmdtInternalReactor
  3
AcMeServices
 90
        0
280
     0
281
     0
  0
CLASS
  1
ACMESTATEMGR
  2
AcMeStateMgr
  3
AcMeServices
 90
        0
280
     0
281
     0
  0
CLASS
  1
ACGREFMASTER
  2
AcGrefMaster
  3
AcAttribServices
 90
        0
280
     0
281
     0
  0
CLASS
  1
AM_DRAWING_MGR
  2
AcDmDwgMgr
  3
AcMechDwgViewMgmt
 90
        0
280
     0
281
     0
  0
CLASS
  1
AM_DWG_DOCUMENT
  2
AcDmDwgDocument
  3
AcMechDwgViewMgmt
 90
        0
280
     0
281
     0
  0
CLASS
  1
AM_DWG_SHEET
  2
AcDmSheet
  3
AcMechDwgViewMgmt
 90
        0
280
     0
281
     0
  0
CLASS
  1
AM_VIEWDIMPARMAP
  2
AcDmViewDimParMap
  3
AcMechDwgViewMgmt
 90
        0
280
     0
281
     0
  0
CLASS
  1
AM_DWGMGR_NAME
  2
AcDmDwgMgrName
  3
AcMechDwgViewMgmt
 90
        0
280
     0
281
     0
  0
CLASS
  1
ACME_DATABASE
  2
AcMeDbDatabase
  3
AcMeServices
 90
        0
280
     0
281
     0
  0
CLASS
  1
ACRFINSADJUSTERMGR
  2
AcRfInsAdjusterMgr
  3
AcMeServices
 90
        0
280
     0
281
     0
  0
CLASS
  1
ACGREFACADMASTER
  2
AcGrefacadMaster
  3
AcGrefServices
 90
        0
280
     0
281
     0
  0
CLASS
  1
AMDTMENUSTATEMGR
  2
AmdtMenuStateMgr
  3
McadcomServices
 90
        0
280
     0
281
     0
  0
CLASS
  1
AMDTMCOMMENUSTATE
  2
AmdtMcomMenuState
  3
McadcomServices
 90
        0
280
     0
281
     0
  0
CLASS
  1
AMIMASTER
  2
AmiMaster
  3
AmiServices
 90
        0
280
     0
281
     0
  0
CLASS
  1
ASAPP
  2
AcAsAppObject
  3
AutoSurfServices
 90
        0
280
     0
281
     0
  0
CLASS
  1
IM_STATIC_MAN
  2
AcImStaticVarManager
  3
AcMeServices
 90
        0
280
     0
281
     0
  0
CLASS
  1
ACIMSTRSYSVAR
  2
AcImStrSysVar
  3
AcMeServices
 90
        0
280
     0
281
     0
  0
CLASS
  1
ACIMDBLSTATICVAR
  2
AcImDblStaticVar
  3
AcMeServices
 90
        0
280
     0
281
     0
  0
CLASS
  1
ACIMSTRSTATICVAR
  2
AcImStrStaticVar
  3
AcMeServices
 90
        0
280
     0
281
     0
  0
CLASS
  1
ACIMINTSTATICVAR
  2
AcImIntStaticVar
  3
AcMeServices
 90
        0
280
     0
281
     0
  0
CLASS
  1
ACASGREFMASTER
  2
AcAsGrefMaster
  3
AutoSurfResolverServices
 90
        0
280
     0
281
     0
  0
CLASS
  1
ACADGREFMODULE
  2
AcAdGrefModule
  3
AdGrefServices
 90
        0
280
     0
281
     0
  0
CLASS
  1
AMDTMAPISURFMOUDULE
  2
AmdtMApiSurfModule
  3
MApiSurfServices
 90
        0
280
     0
281
     0
  0
CLASS
  1
MAPIAMMOUDLE
  2
MApiAmModule
  3
MApiAmServices
 90
        0
280
     0
281
     0
  0
CLASS
  1
AMDTADMENUSTATE
  2
AmdtAdMenuState
  3
DesignerServices
 90
        0
280
     0
281
     0
  0
CLASS
  1
ADAPPL
  2
AcAdAppl
  3
DesignerServices
 90
        0
280
     0
281
     0
  0
CLASS
  1
DEPMGR
  2
AcAdDepMgr
  3
DesignerServices
 90
        0
280
     0
281
     0
  0
CLASS
  1
PARAMMGR
  2
AcAdParamMgr
  3
DesignerServices
 90
        0
280
     0
281
     0
  0
CLASS
  1
PARAMSCOPE
  2
AcAdParamScope
  3
DesignerServices
 90
        0
280
     0
281
     0
  0
CLASS
  1
NAMEDAPPL
  2
AcAdNamedAppl
  3
DesignerServices
 90
        0
280
     0
281
     0
  0
CLASS
  1
AMDTDMMENUSTATE
  2
AmdtDmMenuState
  3
AcMechDwgViewMgmt
 90
        0
280
     0
281
     0
  0
CLASS
  1
MAPIADMODULE
  2
MApiAdModule
  3
MApiAdServices
 90
        0
280
     0
281
     0
  0
CLASS
  1
AMDTAMMENUSTATE
  2
AmdtAmMenuState
  3
DesignerAssemblies
 90
        0
280
     0
281
     0
  0
CLASS
  1
ACAMPROJECT
  2
AcAmProject
  3
DesignerAssemblies
 90
        0
280
     0
281
     0
  0
CLASS
  1
ACAMGRCOMPDEF
  2
AcAmGrCompDef
  3
DesignerAssemblies
 90
        0
280
     0
281
     0
  0
CLASS
  1
ACCMCONTEXT
  2
AcCmContext
  3
DesignerAssemblies
 90
        0
280
     0
281
     0
  0
CLASS
  1
ACAMCOMPDEF
  2
AcAmCompDef
  3
DesignerAssemblies
 90
        0
280
     0
281
     0
  0
CLASS
  1
ACAMCOMPDEFMGR
  2
AcAmCompDefMgr
  3
DesignerAssemblies
 90
        0
280
     0
281
     0
  0
CLASS
  1
AMCONTEXTMGR
  2
AcAmContextMgr
  3
DesignerAssemblies
 90
        0
280
     0
281
     0
  0
CLASS
  1
ACAMCONTEXTMODELER
  2
AcAmContextModeler
  3
DesignerAssemblies
 90
        0
280
     0
281
     0
  0
CLASS
  1
ACMDATADICTIONARY
  2
AcmDataDictionary
  3
"AcmSymBB|Product Description: AutoCAD Mechanical 2000|Company: Autodesk"
 90
        0
280
     0
281
     0
  0
CLASS
  1
ACMDATAENTRYBLOCK
  2
AcmDataEntryBlock
  3
"AcmSymBB|Product Description: AutoCAD Mechanical 2000|Company: Autodesk"
 90
        0
280
     0
281
     0
  0
CLASS
  1
CATALOGSTATE
  2
AcAmCatalogState
  3
DesignerAssemblies
 90
        0
280
     0
281
     0
  0
CLASS
  1
ACAMGRCOMPDEFSET
  2
AcAmGrCompDefSet
  3
DesignerAssemblies
 90
        0
280
     0
281
     0
  0
CLASS
  1
AMDTBROWSERDBTAB
  2
AmdtBrowserDbTab
  3
McadcomServices
 90
        0
280
     0
281
     0
  0
CLASS
  1
CBROWSERAPPOBJECT
  2
CBrowserAppObject
  3
McadcomServices
 90
        0
280
     0
281
     0
  0
CLASS
  1
DM_PLACEHOLDER
  2
AcDmSelsetPlaceholder
  3
AcMechDwgViewMgmt
 90
        0
280
     0
281
     0
  0
CLASS
  1
AMGOBJPROPCFG
  2
AmgObjPropCfg
  3
"AmgLay|Product Description: AutoCAD Mechanical 2000|Company: Autodesk"
 90
        1
280
     0
281
     0
  0
CLASS
  1
ACAMGFILTERDAT
  2
AcAmgFilterDat
  3
"AcadM|Product Description: AutoCAD Mechanical 2000|Company: Autodesk"
 90
        0
280
     0
281
     0
  0
CLASS
  1
AMDTFORMULAUPDATEDISPATCHER
  2
AmdtFormulaUpdateDispatcher
  3
AcMeServices
 90
        0
280
     0
281
     0
  0
CLASS
  1
LAYER_INDEX
  2
AcDbLayerIndex
  3
AutoCAD 2000
 90
        0
280
     0
281
     0
  0
CLASS
  1
IDBUFFER
  2
AcDbIdBuffer
  3
AutoCAD 2000
 90
        0
280
     0
281
     0
  0
CLASS
  1
DICTIONARYVAR
  2
AcDbDictionaryVar
  3
AutoCAD 2000
 90
        0
280
     0
281
     0
  0
ENDSEC
  0
SECTION
  2
TABLES
  0
TABLE
  2
VPORT
  5
8
330
0
100
AcDbSymbolTable
 70
     3
  0
VPORT
  5
42C
330
8
100
AcDbSymbolTableRecord
100
AcDbViewportTableRecord
  2
*Active
 70
     0
 10
0.0
 20
0.0
 11
1.0
 21
1.0
 12
-47.36842105263145
 22
-0.3033151059465808
 13
0.0
 23
0.0
 14
0.5
 24
0.5
 15
1.0
 25
1.0
 16
0.0
 26
0.0
 36
1.0
 17
447.3684210526315
 27
300.3033151059465
 37
0.0
 40
604.3478260869565
 41
1.489721886336154
 42
50.0
 43
0.0
 44
0.0
 50
0.0
 51
0.0
 71
     0
 72
 20000
 73
     1
 74
     1
 75
     0
 76
     0
 77
     0
 78
     0
281
     0
 65
     0
110
0.0
120
0.0
130
0.0
111
1.0
121
0.0
131
0.0
112
0.0
122
1.0
132
0.0
 79
     0
146
0.0
  0
ENDTAB
  0
TABLE
  2
LTYPE
  5
5
330
0
100
AcDbSymbolTable
 70
    19
  0
LTYPE
  5
13
330
5
100
AcDbSymbolTableRecord
100
AcDbLinetypeTableRecord
  2
ByBlock
 70
     0
  3

 72
    65
 73
     0
 40
0.0
  0
LTYPE
  5
14
330
5
100
AcDbSymbolTableRecord
100
AcDbLinetypeTableRecord
  2
ByLayer
 70
     0
  3

 72
    65
 73
     0
 40
0.0
  0
LTYPE
  5
15
330
5
100
AcDbSymbolTableRecord
100
AcDbLinetypeTableRecord
  2
CONTINUOUS
 70
     0
  3
Solid line
 72
    65
 73
     0
 40
0.0
  0
LTYPE
  5
23
330
5
100
AcDbSymbolTableRecord
100
AcDbLinetypeTableRecord
  2
BYLAYER
 70
     0
  3

 72
    65
 73
     0
 40
0.0
  0
LTYPE
  5
24
330
5
100
AcDbSymbolTableRecord
100
AcDbLinetypeTableRecord
  2
ITTEN1
 70
     0
  3

 72
    65
 73
     4
 40
8.199999999999999
 49
5.0
 74
     0
 49
-1.0
 74
     0
 49
1.199999999999999
 74
     0
 49
-1.0
 74
     0
  0
LTYPE
  5
25
330
5
100
AcDbSymbolTableRecord
100
AcDbLinetypeTableRecord
  2
TENSEN2
 70
     0
  3

 72
    65
 73
     2
 40
2.1
 49
1.5
 74
     0
 49
-0.6
 74
     0
  0
LTYPE
  5
348
330
5
100
AcDbSymbolTableRecord
100
AcDbLinetypeTableRecord
  2
HIDDEN
 70
     0
  3
Hidden __ __ __ __ __ __ __ __ __ __ __ __ __ _
 72
    65
 73
     2
 40
0.375
 49
0.25
 74
     0
 49
-0.125
 74
     0
  0
LTYPE
  5
349
330
5
100
AcDbSymbolTableRecord
100
AcDbLinetypeTableRecord
  2
PHANTOM2
 70
     0
  3
Phantom (.5x) ___ _ _ ___ _ _ ___ _ _ ___ _ _
 72
    65
 73
     6
 40
1.25
 49
0.625
 74
     0
 49
-0.125
 74
     0
 49
0.125
 74
     0
 49
-0.125
 74
     0
 49
0.125
 74
     0
 49
-0.125
 74
     0
  0
LTYPE
  5
34A
330
5
100
AcDbSymbolTableRecord
100
AcDbLinetypeTableRecord
  2
CENTER
 70
     0
  3
Center ____ _ ____ _ ____ _ ____ _ ____ _ ____
 72
    65
 73
     4
 40
2.0
 49
1.25
 74
     0
 49
-0.25
 74
     0
 49
0.25
 74
     0
 49
-0.25
 74
     0
  0
LTYPE
  5
3AC
330
5
100
AcDbSymbolTableRecord
100
AcDbLinetypeTableRecord
  2
ASULTYPE
 70
     0
  3
実線
 72
    65
 73
     2
 40
3.0
 49
2.5
 74
     0
 49
0.5
 74
     0
  0
LTYPE
  5
3AD
330
5
100
AcDbSymbolTableRecord
100
AcDbLinetypeTableRecord
  2
ASVLTYPE
 70
     0
  3
__ __ __ __ __ __ __ __ __ __ __ __ __ __ __ __ __ __ __ __ __
 72
    65
 73
     2
 40
0.75
 49
0.5
 74
     0
 49
-0.25
 74
     0
  0
LTYPE
  5
3EE
330
5
100
AcDbSymbolTableRecord
100
AcDbLinetypeTableRecord
  2
AM_ISO02W050
 70
     0
  3
__ __ __ __ __ __ __ __ __ __ __ __ __ __ __
 72
    65
 73
     2
 40
7.5
 49
6.0
 74
     0
 49
-1.5
 74
     0
  0
LTYPE
  5
3EF
330
5
100
AcDbSymbolTableRecord
100
AcDbLinetypeTableRecord
  2
AM_ISO08W050
 70
     0
  3
____ . ____ . ____ . ____ . ____ . ____ . ____
 72
    65
 73
     4
 40
18.0
 49
12.0
 74
     0
 49
-1.5
 74
     0
 49
3.0
 74
     0
 49
-1.5
 74
     0
  0
LTYPE
  5
3F0
330
5
100
AcDbSymbolTableRecord
100
AcDbLinetypeTableRecord
  2
AM_ISO09W050
 70
     0
  3
_____ . . _____ . . _____ . . ____ .. ____
 72
    65
 73
     6
 40
22.5
 49
12.0
 74
     0
 49
-1.5
 74
     0
 49
3.0
 74
     0
 49
-1.5
 74
     0
 49
3.0
 74
     0
 49
-1.5
 74
     0
  0
LTYPE
  5
3F1
330
5
100
AcDbSymbolTableRecord
100
AcDbLinetypeTableRecord
  2
Amconstr
 70
     0
  3
_______________________
 72
    65
 73
     2
 40
9999.0
 49
9999.0
 74
     0
 49
0.0
 74
     0
  0
LTYPE
  5
3F2
330
5
100
AcDbSymbolTableRecord
100
AcDbLinetypeTableRecord
  2
AM_ISO08W050x2
 70
     0
  3
__ . __ . __ . __ . __ . __
 72
    65
 73
     4
 40
9.0
 49
6.0
 74
     0
 49
-0.75
 74
     0
 49
1.5
 74
     0
 49
-0.75
 74
     0
  0
LTYPE
  5
3F3
330
5
100
AcDbSymbolTableRecord
100
AcDbLinetypeTableRecord
  2
AM_ISO02W050x2
 70
     0
  3
 _ _ _ _ _ _ _ _ _ _ _ _
 72
    65
 73
     2
 40
3.75
 49
3.0
 74
     0
 49
-0.75
 74
     0
  0
LTYPE
  5
3F6
330
5
100
AcDbSymbolTableRecord
100
AcDbLinetypeTableRecord
  2
Amzigzag
 70
     0
  3
/\/-/\/-/\/-/\/-/\/-/\/
 72
    65
 73
     2
 40
11.00009999999999
 49
0.0001
 74
     4
 75
   135
340
3F5
 46
0.04
 50
0.0
 44
0.0
 45
0.0
 49
-11.0
 74
     0
  0
LTYPE
  5
3F7
330
5
100
AcDbSymbolTableRecord
100
AcDbLinetypeTableRecord
  2
CENTER2
 70
     0
  3
Center (.5x) ___ _ ___ _ ___ _ ___ _ ___ _ ___
 72
    65
 73
     4
 40
1.125
 49
0.75
 74
     0
 49
-0.125
 74
     0
 49
0.125
 74
     0
 49
-0.125
 74
     0
  0
LTYPE
  5
3F8
330
5
100
AcDbSymbolTableRecord
100
AcDbLinetypeTableRecord
  2
HIDDEN2
 70
     0
  3
Hidden (.5x) _ _ _ _ _ _ _ _ _ _ _ _ _ _ _ _ _
 72
    65
 73
     2
 40
0.1875
 49
0.125
 74
     0
 49
-0.0625
 74
     0
  0
LTYPE
  5
3F9
330
5
100
AcDbSymbolTableRecord
100
AcDbLinetypeTableRecord
  2
Amzigzag2
 70
     0
  3
/\/-/\/-/\/-/\/-/\/-/\/
 72
    65
 73
     2
 40
0.4401
 49
0.0001
 74
     4
 75
   135
340
3F5
 46
0.0016
 50
0.0
 44
0.0
 45
0.0
 49
-0.4400000000000001
 74
     0
  0
ENDTAB
  0
TABLE
  2
LAYER
  5
2
330
0
100
AcDbSymbolTable
 70
     6
  0
LAYER
  5
10
330
2
100
AcDbSymbolTableRecord
100
AcDbLayerTableRecord
  2
0
 70
     0
 62
     7
  6
CONTINUOUS
370
    -3
390
F
  0
LAYER
  5
26
330
2
100
AcDbSymbolTableRecord
100
AcDbLayerTableRecord
  2
1
 70
     0
 62
     1
  6
ITTEN1
370
    -3
390
F
  0
LAYER
  5
27
330
2
100
AcDbSymbolTableRecord
100
AcDbLayerTableRecord
  2
2
 70
     0
 62
     2
  6
TENSEN2
370
    -3
390
F
  0
LAYER
  5
28
330
2
100
AcDbSymbolTableRecord
100
AcDbLayerTableRecord
  2
3
 70
     0
 62
     3
  6
CONTINUOUS
370
    -3
390
F
  0
LAYER
  5
29
330
2
100
AcDbSymbolTableRecord
100
AcDbLayerTableRecord
  2
4
 70
     0
 62
     6
  6
CONTINUOUS
370
    -3
390
F
  0
LAYER
  5
2A
330
2
100
AcDbSymbolTableRecord
100
AcDbLayerTableRecord
  2
5
 70
     0
 62
     6
  6
TENSEN2
370
    -3
390
F
  0
ENDTAB
  0
TABLE
  2
STYLE
  5
3
330
0
100
AcDbSymbolTable
 70
     4
  0
STYLE
  5
11
330
3
100
AcDbSymbolTableRecord
100
AcDbTextStyleTableRecord
  2
STANDARD
 70
     0
 40
0.0
 41
1.0
 50
0.0
 71
     0
 42
0.2
  3
txt
  4

  0
STYLE
  5
22
330
3
100
AcDbSymbolTableRecord
100
AcDbTextStyleTableRecord
  2
BIGFONT
 70
     0
 40
12.0
 41
0.8
 50
0.0
 71
     0
 42
12.0
  3

  4
bigfont
  0
STYLE
  5
2B
330
3
100
AcDbSymbolTableRecord
100
AcDbTextStyleTableRecord
  2
EXTFONT
 70
     0
 40
6.0
 41
0.8
 50
0.0
 71
     0
 42
6.0
  3
txt.shx
  4
extfont.shx
  0
STYLE
  5
3F5
330
3
100
AcDbSymbolTableRecord
100
AcDbTextStyleTableRecord
  2

 70
     1
 40
0.0
 41
1.0
 50
0.0
 71
     0
 42
12.0
  3
ltypeshp.shx
  4

  0
ENDTAB
  0
TABLE
  2
VIEW
  5
6
330
0
100
AcDbSymbolTable
 70
     0
  0
ENDTAB
  0
TABLE
  2
UCS
  5
7
330
0
100
AcDbSymbolTable
 70
     0
  0
ENDTAB
  0
TABLE
  2
APPID
  5
9
330
0
100
AcDbSymbolTable
 70
    12
  0
APPID
  5
12
330
9
100
AcDbSymbolTableRecord
100
AcDbRegAppTableRecord
  2
ACAD
 70
     0
  0
APPID
  5
327
330
9
100
AcDbSymbolTableRecord
100
AcDbRegAppTableRecord
  2
GENIUS_GENDIM_13
 70
     0
  0
APPID
  5
328
330
9
100
AcDbSymbolTableRecord
100
AcDbRegAppTableRecord
  2
GENIUS_GENDTOL_13
 70
     0
  0
APPID
  5
329
330
9
100
AcDbSymbolTableRecord
100
AcDbRegAppTableRecord
  2
GENIUS_GE3DTOL_13
 70
     0
  0
APPID
  5
32B
330
9
100
AcDbSymbolTableRecord
100
AcDbRegAppTableRecord
  2
MCAD_NO_VIS
 70
     0
  0
APPID
  5
32C
330
9
100
AcDbSymbolTableRecord
100
AcDbRegAppTableRecord
  2
ACAD_TEMP_GRAPHIC
 70
     0
  0
APPID
  5
35F
330
9
100
AcDbSymbolTableRecord
100
AcDbRegAppTableRecord
  2
AD_DRAW
 70
     0
  0
APPID
  5
362
330
9
100
AcDbSymbolTableRecord
100
AcDbRegAppTableRecord
  2
ACATTRIBSERVICES
 70
     0
  0
APPID
  5
3AE
330
9
100
AcDbSymbolTableRecord
100
AcDbRegAppTableRecord
  2
ASURF_PCURVE_APPNAME
 70
     0
  0
APPID
  5
3DD
330
9
100
AcDbSymbolTableRecord
100
AcDbRegAppTableRecord
  2
DESIGNERASSEMBLIES
 70
     0
  0
APPID
  5
3E5
330
9
100
AcDbSymbolTableRecord
100
AcDbRegAppTableRecord
  2
ACADM_DIM_EDIT
 70
     0
  0
APPID
  5
3E6
330
9
100
AcDbSymbolTableRecord
100
AcDbRegAppTableRecord
  2
AMDT_DM_ADJ
 70
     0
  0
ENDTAB
  0
TABLE
  2
DIMSTYLE
  5
A
330
0
100
AcDbSymbolTable
 70
     1
100
AcDbDimStyleTable
 71
     0
  0
DIMSTYLE
105
2C
330
A
100
AcDbSymbolTableRecord
100
AcDbDimStyleTableRecord
  2
STANDARD
 70
     0
279
     2
340
22
  0
ENDTAB
  0
TABLE
  2
BLOCK_RECORD
  5
1
330
0
100
AcDbSymbolTable
 70
     2
  0
BLOCK_RECORD
  5
1E
102
{ACAD_XDICTIONARY
360
420
102
}
330
1
100
AcDbSymbolTableRecord
100
AcDbBlockTableRecord
  2
*Model_Space
340
21
  0
BLOCK_RECORD
  5
1A
330
1
100
AcDbSymbolTableRecord
100
AcDbBlockTableRecord
  2
*Paper_Space
340
1D
  0
BLOCK_RECORD
  5
3D4
330
1
100
AcDbSymbolTableRecord
100
AcDbBlockTableRecord
  2
*U0
340
0
  0
ENDTAB
  0
ENDSEC
  0
SECTION
  2
BLOCKS
  0
BLOCK
  5
1F
330
1E
100
AcDbEntity
  8
0
100
AcDbBlockBegin
  2
*Model_Space
 70
     0
 10
0.0
 20
0.0
 30
0.0
  3
*Model_Space
  1

  0
ENDBLK
  5
20
330
1E
100
AcDbEntity
  8
0
100
AcDbBlockEnd
  0
BLOCK
  5
1B
330
1A
100
AcDbEntity
 67
     1
  8
0
100
AcDbBlockBegin
  2
*Paper_Space
 70
     0
 10
0.0
 20
0.0
 30
0.0
  3
*Paper_Space
  1

  0
ENDBLK
  5
1C
330
1A
100
AcDbEntity
 67
     1
  8
0
100
AcDbBlockEnd
  0
BLOCK
  5
3D5
330
3D4
100
AcDbEntity
  8
0
100
AcDbBlockBegin
  2
*U0
 70
     1
 10
0.0
 20
0.0
 30
0.0
  3
*U0
  1

  0
ENDBLK
  5
3D6
330
3D4
100
AcDbEntity
  8
0
100
AcDbBlockEnd
  0
ENDSEC
  0
SECTION
  2
ENTITIES
  0
LINE
  5
3E
330
1E
100
AcDbEntity
  8
0
100
AcDbLine
 10
209.5
 20
228.5
 30
0.0
 11
209.5
 21
243.5
 31
0.0
  0
LINE
  5
3F
330
1E
100
AcDbEntity
  8
0
100
AcDbLine
 10
209.5
 20
243.5
 30
0.0
 11
206.4999999999999
 21
246.4999999999998
 31
0.0
  0
LINE
  5
40
330
1E
100
AcDbEntity
  8
0
100
AcDbLine
 10
206.4999999999999
 20
246.4999999999998
 30
0.0
 11
181.4999999999998
 21
246.4999999999998
 31
0.0
  0
LINE
  5
41
330
1E
100
AcDbEntity
  8
0
100
AcDbLine
 10
181.4999999999998
 20
246.4999999999998
 30
0.0
 11
179.4999999999998
 21
248.4999999999998
 31
0.0
  0
LINE
  5
42
330
1E
100
AcDbEntity
  8
0
100
AcDbLine
 10
179.4999999999998
 20
248.4999999999998
 30
0.0
 11
179.4999999999998
 21
278.5
 31
0.0
  0
LINE
  5
43
330
1E
100
AcDbEntity
  8
0
100
AcDbLine
 10
100.5
 20
246.4999999999998
 30
0.0
 11
125.5
 21
246.4999999999998
 31
0.0
  0
LINE
  5
44
330
1E
100
AcDbEntity
  8
0
100
AcDbLine
 10
125.5
 20
246.4999999999998
 30
0.0
 11
127.5
 21
248.4999999999998
 31
0.0
  0
LINE
  5
45
330
1E
100
AcDbEntity
  8
0
100
AcDbLine
 10
127.5
 20
248.4999999999998
 30
0.0
 11
127.5
 21
278.5
 31
0.0
  0
LINE
  5
46
330
1E
100
AcDbEntity
  8
0
100
AcDbLine
 10
209.5
 20
228.5
 30
0.0
 11
176.5
 21
228.5
 31
0.0
  0
LINE
  5
47
330
1E
100
AcDbEntity
  8
0
100
AcDbLine
 10
97.5
 20
228.5
 30
0.0
 11
97.5
 21
243.5
 31
0.0
  0
LINE
  5
48
330
1E
100
AcDbEntity
  8
0
100
AcDbLine
 10
97.5
 20
243.5
 30
0.0
 11
100.5
 21
246.4999999999998
 31
0.0
  0
LINE
  5
49
330
1E
100
AcDbEntity
  8
0
100
AcDbLine
 10
176.5
 20
228.5
 30
0.0
 11
176.5
 21
243.5
 31
0.0
  0
LINE
  5
4A
330
1E
100
AcDbEntity
  8
0
100
AcDbLine
 10
176.5
 20
243.5
 30
0.0
 11
177.5
 21
244.4999999999998
 31
0.0
  0
LINE
  5
4B
330
1E
100
AcDbEntity
  8
0
100
AcDbLine
 10
177.5
 20
244.4999999999998
 30
0.0
 11
208.4999999999999
 21
244.4999999999998
 31
0.0
  0
LINE
  5
4C
330
1E
100
AcDbEntity
  8
0
100
AcDbLine
 10
130.4999999999998
 20
228.5
 30
0.0
 11
130.4999999999998
 21
243.5
 31
0.0
  0
LINE
  5
4D
330
1E
100
AcDbEntity
  8
0
100
AcDbLine
 10
130.4999999999998
 20
243.5
 30
0.0
 11
129.4999999999998
 21
244.4999999999998
 31
0.0
  0
LINE
  5
4E
330
1E
100
AcDbEntity
  8
0
100
AcDbLine
 10
129.4999999999998
 20
244.4999999999998
 30
0.0
 11
98.50000000000001
 21
244.4999999999998
 31
0.0
  0
LINE
  5
4F
330
1E
100
AcDbEntity
  8
1
100
AcDbLine
 10
198.5
 20
221.4999999999998
 30
0.0
 11
198.5
 21
251.5
 31
0.0
  0
LINE
  5
50
330
1E
100
AcDbEntity
  8
1
100
AcDbLine
 10
108.4999999999999
 20
221.4999999999998
 30
0.0
 11
108.4999999999999
 21
251.5
 31
0.0
  0
LINE
  5
51
330
1E
100
AcDbEntity
  8
2
100
AcDbLine
 10
114.0
 20
228.5
 30
0.0
 11
114.0
 21
246.4999999999998
 31
0.0
  0
LINE
  5
52
330
1E
100
AcDbEntity
  8
2
100
AcDbLine
 10
103.0
 20
228.5
 30
0.0
 11
103.0
 21
246.4999999999998
 31
0.0
  0
LINE
  5
53
330
1E
100
AcDbEntity
  8
2
100
AcDbLine
 10
204.0
 20
228.5
 30
0.0
 11
204.0
 21
246.4999999999998
 31
0.0
  0
LINE
  5
54
330
1E
100
AcDbEntity
  8
2
100
AcDbLine
 10
192.9999999999998
 20
228.5
 30
0.0
 11
192.9999999999998
 21
246.4999999999998
 31
0.0
  0
LINE
  5
55
330
1E
100
AcDbEntity
  8
0
100
AcDbLine
 10
176.5
 20
228.5
 30
0.0
 11
174.5
 21
231.4999999999999
 31
0.0
  0
LINE
  5
56
330
1E
100
AcDbEntity
  8
0
100
AcDbLine
 10
174.5
 20
231.4999999999999
 30
0.0
 11
132.4999999999998
 21
231.4999999999999
 31
0.0
  0
LINE
  5
57
330
1E
100
AcDbEntity
  8
0
100
AcDbLine
 10
132.4999999999998
 20
231.4999999999999
 30
0.0
 11
130.4999999999998
 21
228.5
 31
0.0
  0
LINE
  5
58
330
1E
100
AcDbEntity
  8
0
100
AcDbLine
 10
130.4999999999998
 20
228.5
 30
0.0
 11
97.5
 21
228.5
 31
0.0
  0
LINE
  5
59
330
1E
100
AcDbEntity
  8
0
100
AcDbLine
 10
153.5
 20
239.5
 30
0.0
 11
170.5
 21
239.5
 31
0.0
  0
LINE
  5
5A
330
1E
100
AcDbEntity
  8
0
100
AcDbLine
 10
153.5
 20
239.5
 30
0.0
 11
136.4999999999998
 21
239.5
 31
0.0
  0
LINE
  5
5B
330
1E
100
AcDbEntity
  8
0
100
AcDbLine
 10
173.5
 20
242.5
 30
0.0
 11
173.5
 21
254.4999999999999
 31
0.0
  0
LINE
  5
5C
330
1E
100
AcDbEntity
  8
0
100
AcDbLine
 10
133.4999999999998
 20
242.5
 30
0.0
 11
133.4999999999998
 21
254.4999999999999
 31
0.0
  0
ARC
  5
5D
330
1E
100
AcDbEntity
  8
0
100
AcDbCircle
 10
137.0
 20
243.0
 30
0.0
 40
3.535533905932736
100
AcDbArc
 50
188.130102354156
 51
261.869897645844
  0
ARC
  5
5E
330
1E
100
AcDbEntity
  8
0
100
AcDbCircle
 10
170.0
 20
243.0
 30
0.0
 40
3.535533905932736
100
AcDbArc
 50
278.130102354156
 51
351.8698976458438
  0
ARC
  5
60
330
1E
100
AcDbEntity
  8
0
100
AcDbCircle
 10
654.25
 20
254.2499999999999
 30
0.0
 40
3.259601202601323
100
AcDbArc
 50
57.52880770915155
 51
184.3987053549955
  0
ARC
  5
61
330
1E
100
AcDbEntity
  8
0
100
AcDbCircle
 10
687.9999999999999
 20
254.6666666666665
 30
0.0
 40
3.073181485764293
100
AcDbArc
 50
347.4711922908485
 51
130.6012946450042
  0
LINE
  5
62
330
1E
100
AcDbEntity
  8
0
100
AcDbLine
 10
645.0
 20
248.4999999999998
 30
0.0
 11
645.0
 21
278.5
 31
0.0
  0
LINE
  5
63
330
1E
100
AcDbEntity
  8
0
100
AcDbLine
 10
696.9999999999998
 20
248.4999999999998
 30
0.0
 11
696.9999999999998
 21
278.5
 31
0.0
  0
LINE
  5
64
330
1E
100
AcDbEntity
  8
0
100
AcDbLine
 10
648.0
 20
228.5
 30
0.0
 11
615.0
 21
228.5
 31
0.0
  0
LINE
  5
65
330
1E
100
AcDbEntity
  8
0
100
AcDbLine
 10
646.9999999999998
 20
244.4999999999998
 30
0.0
 11
616.0
 21
244.4999999999998
 31
0.0
  0
LINE
  5
66
330
1E
100
AcDbEntity
  8
0
100
AcDbLine
 10
617.9999999999998
 20
246.4999999999998
 30
0.0
 11
642.9999999999998
 21
246.4999999999998
 31
0.0
  0
LINE
  5
67
330
1E
100
AcDbEntity
  8
1
100
AcDbLine
 10
625.9999999999998
 20
222.5
 30
0.0
 11
625.9999999999998
 21
252.4999999999999
 31
0.0
  0
LINE
  5
68
330
1E
100
AcDbEntity
  8
2
100
AcDbLine
 10
620.5
 20
228.5
 30
0.0
 11
620.5
 21
246.4999999999998
 31
0.0
  0
LINE
  5
69
330
1E
100
AcDbEntity
  8
2
100
AcDbLine
 10
631.5
 20
228.5
 30
0.0
 11
631.5
 21
246.4999999999998
 31
0.0
  0
LINE
  5
6A
330
1E
100
AcDbEntity
  8
0
100
AcDbLine
 10
615.0
 20
228.5
 30
0.0
 11
615.0
 21
243.5
 31
0.0
  0
LINE
  5
6B
330
1E
100
AcDbEntity
  8
0
100
AcDbLine
 10
615.0
 20
243.5
 30
0.0
 11
617.9999999999998
 21
246.4999999999998
 31
0.0
  0
ARC
  5
6D
330
1E
100
AcDbEntity
  8
0
100
AcDbCircle
 10
670.9999999999999
 20
277.0
 30
0.0
 40
25.0
100
AcDbArc
 50
233.1301023541559
 51
306.8698976458438
  0
LINE
  5
6E
330
1E
100
AcDbEntity
  8
0
100
AcDbLine
 10
670.9999999999999
 20
239.5
 30
0.0
 11
687.9999999999999
 21
239.5
 31
0.0
  0
LINE
  5
6F
330
1E
100
AcDbEntity
  8
0
100
AcDbLine
 10
691.9999999999999
 20
231.4999999999999
 30
0.0
 11
650.0
 21
231.4999999999999
 31
0.0
  0
LINE
  5
70
330
1E
100
AcDbEntity
  8
0
100
AcDbLine
 10
670.9999999999999
 20
239.5
 30
0.0
 11
654.0
 21
239.5
 31
0.0
  0
ARC
  5
71
330
1E
100
AcDbEntity
  8
0
100
AcDbCircle
 10
654.4999999999999
 20
243.0
 30
0.0
 40
3.535533905932736
100
AcDbArc
 50
188.130102354156
 51
261.869897645844
  0
LINE
  5
72
330
1E
100
AcDbEntity
  8
0
100
AcDbLine
 10
648.0
 20
228.5
 30
0.0
 11
648.0
 21
243.5
 31
0.0
  0
LINE
  5
73
330
1E
100
AcDbEntity
  8
0
100
AcDbLine
 10
650.0
 20
231.4999999999999
 30
0.0
 11
648.0
 21
228.5
 31
0.0
  0
LINE
  5
74
330
1E
100
AcDbEntity
  8
0
100
AcDbLine
 10
642.9999999999998
 20
246.4999999999998
 30
0.0
 11
645.0
 21
248.4999999999998
 31
0.0
  0
LINE
  5
75
330
1E
100
AcDbEntity
  8
0
100
AcDbLine
 10
650.9999999999998
 20
242.5
 30
0.0
 11
650.9999999999998
 21
254.4999999999999
 31
0.0
  0
LINE
  5
76
330
1E
100
AcDbEntity
  8
0
100
AcDbLine
 10
648.0
 20
243.5
 30
0.0
 11
646.9999999999998
 21
244.4999999999998
 31
0.0
  0
LINE
  5
77
330
1E
100
AcDbEntity
  8
1
100
AcDbLine
 10
716.0
 20
222.5
 30
0.0
 11
716.0
 21
252.4999999999999
 31
0.0
  0
LINE
  5
78
330
1E
100
AcDbEntity
  8
0
100
AcDbLine
 10
727.0
 20
228.5
 30
0.0
 11
694.0
 21
228.5
 31
0.0
  0
LINE
  5
79
330
1E
100
AcDbEntity
  8
0
100
AcDbLine
 10
695.0
 20
244.4999999999998
 30
0.0
 11
726.0
 21
244.4999999999998
 31
0.0
  0
LINE
  5
7A
330
1E
100
AcDbEntity
  8
0
100
AcDbLine
 10
724.0
 20
246.4999999999998
 30
0.0
 11
699.0
 21
246.4999999999998
 31
0.0
  0
ARC
  5
7B
330
1E
100
AcDbEntity
  8
0
100
AcDbCircle
 10
687.5
 20
243.0
 30
0.0
 40
3.535533905932736
100
AcDbArc
 50
278.130102354156
 51
351.8698976458438
  0
LINE
  5
7C
330
1E
100
AcDbEntity
  8
0
100
AcDbLine
 10
694.0
 20
228.5
 30
0.0
 11
694.0
 21
243.5
 31
0.0
  0
LINE
  5
7D
330
1E
100
AcDbEntity
  8
0
100
AcDbLine
 10
694.0
 20
228.5
 30
0.0
 11
691.9999999999999
 21
231.4999999999999
 31
0.0
  0
LINE
  5
7E
330
1E
100
AcDbEntity
  8
0
100
AcDbLine
 10
691.0
 20
242.5
 30
0.0
 11
691.0
 21
254.4999999999999
 31
0.0
  0
LINE
  5
7F
330
1E
100
AcDbEntity
  8
0
100
AcDbLine
 10
699.0
 20
246.4999999999998
 30
0.0
 11
696.9999999999998
 21
248.4999999999998
 31
0.0
  0
LINE
  5
80
330
1E
100
AcDbEntity
  8
0
100
AcDbLine
 10
694.0
 20
243.5
 30
0.0
 11
695.0
 21
244.4999999999998
 31
0.0
  0
LINE
  5
81
330
1E
100
AcDbEntity
  8
2
100
AcDbLine
 10
710.5
 20
228.5
 30
0.0
 11
710.5
 21
246.4999999999998
 31
0.0
  0
LINE
  5
82
330
1E
100
AcDbEntity
  8
2
100
AcDbLine
 10
721.4999999999999
 20
228.5
 30
0.0
 11
721.4999999999999
 21
246.4999999999998
 31
0.0
  0
LINE
  5
83
330
1E
100
AcDbEntity
  8
0
100
AcDbLine
 10
727.0
 20
228.5
 30
0.0
 11
727.0
 21
243.5
 31
0.0
  0
LINE
  5
84
330
1E
100
AcDbEntity
  8
0
100
AcDbLine
 10
727.0
 20
243.5
 30
0.0
 11
724.0
 21
246.4999999999998
 31
0.0
  0
LINE
  5
85
330
1E
100
AcDbEntity
  8
0
100
AcDbLine
 10
475.9999999999999
 20
228.5
 30
0.0
 11
456.0
 21
228.5
 31
0.0
  0
LINE
  5
86
330
1E
100
AcDbEntity
  8
0
100
AcDbLine
 10
456.0
 20
228.5
 30
0.0
 11
456.0
 21
243.5
 31
0.0
  0
LINE
  5
87
330
1E
100
AcDbEntity
  8
0
100
AcDbLine
 10
475.9999999999999
 20
228.5
 30
0.0
 11
495.9999999999999
 21
228.5
 31
0.0
  0
LINE
  5
88
330
1E
100
AcDbEntity
  8
0
100
AcDbLine
 10
495.9999999999999
 20
228.5
 30
0.0
 11
495.9999999999999
 21
243.5
 31
0.0
  0
LINE
  5
89
330
1E
100
AcDbEntity
  8
0
100
AcDbLine
 10
495.9999999999999
 20
243.5
 30
0.0
 11
495.0
 21
244.4999999999998
 31
0.0
  0
LINE
  5
8A
330
1E
100
AcDbEntity
  8
0
100
AcDbLine
 10
495.0
 20
244.4999999999998
 30
0.0
 11
457.0
 21
244.4999999999998
 31
0.0
  0
LINE
  5
8B
330
1E
100
AcDbEntity
  8
0
100
AcDbLine
 10
457.0
 20
244.4999999999998
 30
0.0
 11
456.0
 21
243.5
 31
0.0
  0
LINE
  5
8C
330
1E
100
AcDbEntity
  8
0
100
AcDbLine
 10
491.5
 20
244.4999999999998
 30
0.0
 11
490.5
 21
246.4999999999998
 31
0.0
  0
LINE
  5
8D
330
1E
100
AcDbEntity
  8
0
100
AcDbLine
 10
490.5
 20
246.4999999999998
 30
0.0
 11
461.5
 21
246.4999999999998
 31
0.0
  0
LINE
  5
8E
330
1E
100
AcDbEntity
  8
0
100
AcDbLine
 10
461.5
 20
246.4999999999998
 30
0.0
 11
460.5
 21
244.4999999999998
 31
0.0
  0
LINE
  5
8F
330
1E
100
AcDbEntity
  8
0
100
AcDbLine
 10
491.9999999999999
 20
244.4999999999998
 30
0.0
 11
491.9999999999999
 21
303.5
 31
0.0
  0
LINE
  5
90
330
1E
100
AcDbEntity
  8
0
100
AcDbLine
 10
491.9999999999999
 20
303.5
 30
0.0
 11
491.0
 21
304.4999999999999
 31
0.0
  0
LINE
  5
91
330
1E
100
AcDbEntity
  8
0
100
AcDbLine
 10
491.0
 20
304.4999999999999
 30
0.0
 11
458.0
 21
304.4999999999999
 31
0.0
  0
LINE
  5
92
330
1E
100
AcDbEntity
  8
0
100
AcDbLine
 10
458.0
 20
304.4999999999999
 30
0.0
 11
457.0
 21
303.5
 31
0.0
  0
LINE
  5
93
330
1E
100
AcDbEntity
  8
0
100
AcDbLine
 10
460.0
 20
252.4999999999999
 30
0.0
 11
460.0
 21
244.4999999999998
 31
0.0
  0
LINE
  5
94
330
1E
100
AcDbEntity
  8
0
100
AcDbLine
 10
460.0
 20
252.4999999999999
 30
0.0
 11
460.0
 21
275.6752527843663
 31
0.0
  0
LINE
  5
95
330
1E
100
AcDbEntity
  8
2
100
AcDbLine
 10
481.5
 20
228.5
 30
0.0
 11
481.5
 21
246.4999999999998
 31
0.0
  0
LINE
  5
96
330
1E
100
AcDbEntity
  8
2
100
AcDbLine
 10
470.5
 20
228.5
 30
0.0
 11
470.5
 21
246.4999999999998
 31
0.0
  0
LINE
  5
97
330
1E
100
AcDbEntity
  8
2
100
AcDbLine
 10
491.9999999999999
 20
244.4999999999998
 30
0.0
 11
491.9999999999999
 21
231.4999999999999
 31
0.0
  0
LINE
  5
98
330
1E
100
AcDbEntity
  8
2
100
AcDbLine
 10
460.0
 20
244.4999999999998
 30
0.0
 11
460.0
 21
231.4999999999999
 31
0.0
  0
LINE
  5
99
330
1E
100
AcDbEntity
  8
2
100
AcDbLine
 10
460.0
 20
252.4999999999999
 30
0.0
 11
467.4999999999999
 21
250.4999999999999
 31
0.0
  0
LINE
  5
9A
330
1E
100
AcDbEntity
  8
2
100
AcDbLine
 10
467.4999999999999
 20
250.4999999999999
 30
0.0
 11
467.4999999999999
 21
242.5
 31
0.0
  0
LINE
  5
9B
330
1E
100
AcDbEntity
  8
2
100
AcDbLine
 10
467.4999999999999
 20
242.5
 30
0.0
 11
460.0
 21
239.5
 31
0.0
  0
LINE
  5
9C
330
1E
100
AcDbEntity
  8
2
100
AcDbLine
 10
491.9999999999999
 20
252.4999999999999
 30
0.0
 11
484.4999999999999
 21
250.4999999999999
 31
0.0
  0
LINE
  5
9D
330
1E
100
AcDbEntity
  8
2
100
AcDbLine
 10
484.4999999999999
 20
250.4999999999999
 30
0.0
 11
484.4999999999999
 21
242.5
 31
0.0
  0
LINE
  5
9E
330
1E
100
AcDbEntity
  8
2
100
AcDbLine
 10
484.4999999999999
 20
242.5
 30
0.0
 11
491.9999999999999
 21
239.5
 31
0.0
  0
LINE
  5
9F
330
1E
100
AcDbEntity
  8
4
100
AcDbLine
 10
353.0
 20
343.5
 30
0.0
 11
351.0
 21
341.5
 31
0.0
  0
LINE
  5
A0
330
1E
100
AcDbEntity
  8
4
100
AcDbLine
 10
351.0
 20
341.5
 30
0.0
 11
351.0
 21
325.4999999999999
 31
0.0
  0
LINE
  5
A1
330
1E
100
AcDbEntity
  8
4
100
AcDbLine
 10
351.0
 20
325.4999999999999
 30
0.0
 11
353.0
 21
323.4999999999998
 31
0.0
  0
LINE
  5
A2
330
1E
100
AcDbEntity
  8
4
100
AcDbLine
 10
353.0
 20
323.4999999999998
 30
0.0
 11
353.0
 21
343.5
 31
0.0
  0
LINE
  5
A3
330
1E
100
AcDbEntity
  8
4
100
AcDbLine
 10
351.0
 20
341.5
 30
0.0
 11
364.9999999999999
 21
341.5
 31
0.0
  0
LINE
  5
A4
330
1E
100
AcDbEntity
  8
4
100
AcDbLine
 10
351.0
 20
325.4999999999999
 30
0.0
 11
364.9999999999999
 21
325.4999999999999
 31
0.0
  0
LINE
  5
A5
330
1E
100
AcDbEntity
  8
4
100
AcDbLine
 10
391.0
 20
350.4999999999998
 30
0.0
 11
399.0
 21
350.4999999999998
 31
0.0
  0
LINE
  5
A6
330
1E
100
AcDbEntity
  8
4
100
AcDbLine
 10
399.0
 20
350.4999999999998
 30
0.0
 11
400.9999999999999
 21
348.4999999999998
 31
0.0
  0
LINE
  5
A7
330
1E
100
AcDbEntity
  8
4
100
AcDbLine
 10
400.9999999999999
 20
348.4999999999998
 30
0.0
 11
400.9999999999999
 21
318.5
 31
0.0
  0
LINE
  5
A8
330
1E
100
AcDbEntity
  8
4
100
AcDbLine
 10
400.9999999999999
 20
318.5
 30
0.0
 11
399.0
 21
316.5
 31
0.0
  0
LINE
  5
A9
330
1E
100
AcDbEntity
  8
4
100
AcDbLine
 10
399.0
 20
316.5
 30
0.0
 11
391.0
 21
316.5
 31
0.0
  0
LINE
  5
AA
330
1E
100
AcDbEntity
  8
4
100
AcDbLine
 10
391.0
 20
316.5
 30
0.0
 11
389.0
 21
318.5
 31
0.0
  0
LINE
  5
AB
330
1E
100
AcDbEntity
  8
4
100
AcDbLine
 10
389.0
 20
318.5
 30
0.0
 11
389.0
 21
348.4999999999998
 31
0.0
  0
LINE
  5
AC
330
1E
100
AcDbEntity
  8
4
100
AcDbLine
 10
389.0
 20
348.4999999999998
 30
0.0
 11
391.0
 21
350.4999999999998
 31
0.0
  0
ARC
  5
AD
330
1E
100
AcDbEntity
  8
4
100
AcDbCircle
 10
406.0
 20
333.4999999999999
 30
0.0
 40
17.0
100
AcDbArc
 50
151.927513064147
 51
208.0724869358528
  0
ARC
  5
AE
330
1E
100
AcDbEntity
  8
4
100
AcDbCircle
 10
395.0625
 20
345.9999999999998
 30
0.0
 40
6.0625
100
AcDbArc
 50
132.0750220508436
 51
227.9249779491562
  0
ARC
  5
AF
330
1E
100
AcDbEntity
  8
4
100
AcDbCircle
 10
394.9375
 20
345.9999999999998
 30
0.0
 40
6.0625
100
AcDbArc
 50
312.0750220508436
 51
47.92497794915639
  0
ARC
  5
B0
330
1E
100
AcDbEntity
  8
4
100
AcDbCircle
 10
383.9999999999999
 20
333.4999999999999
 30
0.0
 40
17.0
100
AcDbArc
 50
331.9275130641469
 51
28.07248693585297
  0
ARC
  5
B1
330
1E
100
AcDbEntity
  8
4
100
AcDbCircle
 10
394.9375
 20
320.9999999999999
 30
0.0
 40
6.0625
100
AcDbArc
 50
312.0750220508436
 51
47.92497794915634
  0
ARC
  5
B2
330
1E
100
AcDbEntity
  8
4
100
AcDbCircle
 10
395.0625
 20
320.9999999999999
 30
0.0
 40
6.0625
100
AcDbArc
 50
132.0750220508436
 51
227.9249779491562
  0
ARC
  5
B3
330
1E
100
AcDbEntity
  8
4
100
AcDbCircle
 10
370.9375
 20
345.9999999999998
 30
0.0
 40
6.0625
100
AcDbArc
 50
312.0750220508436
 51
47.92497794915639
  0
ARC
  5
B4
330
1E
100
AcDbEntity
  8
4
100
AcDbCircle
 10
371.0625
 20
345.9999999999998
 30
0.0
 40
6.0625
100
AcDbArc
 50
132.0750220508436
 51
227.9249779491562
  0
LINE
  5
B5
330
1E
100
AcDbEntity
  8
4
100
AcDbLine
 10
364.9999999999999
 20
348.4999999999998
 30
0.0
 11
366.9999999999999
 21
350.4999999999998
 31
0.0
  0
LINE
  5
B6
330
1E
100
AcDbEntity
  8
4
100
AcDbLine
 10
375.0
 20
350.4999999999998
 30
0.0
 11
377.0
 21
348.4999999999998
 31
0.0
  0
LINE
  5
B7
330
1E
100
AcDbEntity
  8
4
100
AcDbLine
 10
375.0
 20
316.5
 30
0.0
 11
366.9999999999999
 21
316.5
 31
0.0
  0
ARC
  5
B8
330
1E
100
AcDbEntity
  8
4
100
AcDbCircle
 10
382.0
 20
333.4999999999999
 30
0.0
 40
17.0
100
AcDbArc
 50
151.927513064147
 51
208.0724869358528
  0
LINE
  5
B9
330
1E
100
AcDbEntity
  8
4
100
AcDbLine
 10
364.9999999999999
 20
318.5
 30
0.0
 11
364.9999999999999
 21
348.4999999999998
 31
0.0
  0
ARC
  5
BA
330
1E
100
AcDbEntity
  8
4
100
AcDbCircle
 10
371.0625
 20
320.9999999999999
 30
0.0
 40
6.0625
100
AcDbArc
 50
132.0750220508436
 51
227.9249779491562
  0
LINE
  5
BB
330
1E
100
AcDbEntity
  8
4
100
AcDbLine
 10
366.9999999999999
 20
316.5
 30
0.0
 11
364.9999999999999
 21
318.5
 31
0.0
  0
ARC
  5
BC
330
1E
100
AcDbEntity
  8
4
100
AcDbCircle
 10
360.0
 20
333.4999999999999
 30
0.0
 40
17.0
100
AcDbArc
 50
331.9275130641469
 51
28.07248693585297
  0
LINE
  5
BD
330
1E
100
AcDbEntity
  8
4
100
AcDbLine
 10
377.0
 20
348.4999999999998
 30
0.0
 11
377.0
 21
318.5
 31
0.0
  0
ARC
  5
BE
330
1E
100
AcDbEntity
  8
4
100
AcDbCircle
 10
370.9375
 20
320.9999999999999
 30
0.0
 40
6.0625
100
AcDbArc
 50
312.0750220508436
 51
47.92497794915634
  0
LINE
  5
BF
330
1E
100
AcDbEntity
  8
4
100
AcDbLine
 10
377.0
 20
318.5
 30
0.0
 11
375.0
 21
316.5
 31
0.0
  0
LINE
  5
C0
330
1E
100
AcDbEntity
  8
4
100
AcDbLine
 10
366.9999999999999
 20
350.4999999999998
 30
0.0
 11
375.0
 21
350.4999999999998
 31
0.0
  0
LINE
  5
C1
330
1E
100
AcDbEntity
  8
4
100
AcDbLine
 10
364.9999999999999
 20
343.5
 30
0.0
 11
353.0
 21
343.5
 31
0.0
  0
LINE
  5
C2
330
1E
100
AcDbEntity
  8
4
100
AcDbLine
 10
389.0
 20
343.5
 30
0.0
 11
377.0
 21
343.5
 31
0.0
  0
LINE
  5
C3
330
1E
100
AcDbEntity
  8
4
100
AcDbLine
 10
364.9999999999999
 20
323.4999999999998
 30
0.0
 11
353.0
 21
323.4999999999998
 31
0.0
  0
LINE
  5
C4
330
1E
100
AcDbEntity
  8
4
100
AcDbLine
 10
389.0
 20
323.4999999999998
 30
0.0
 11
377.0
 21
323.4999999999998
 31
0.0
  0
LINE
  5
C5
330
1E
100
AcDbEntity
  8
4
100
AcDbLine
 10
366.9999999999999
 20
341.5
 30
0.0
 11
375.0
 21
341.5
 31
0.0
  0
LINE
  5
C6
330
1E
100
AcDbEntity
  8
4
100
AcDbLine
 10
377.0
 20
341.5
 30
0.0
 11
389.0
 21
341.5
 31
0.0
  0
LINE
  5
C7
330
1E
100
AcDbEntity
  8
4
100
AcDbLine
 10
366.9999999999999
 20
325.4999999999999
 30
0.0
 11
375.0
 21
325.4999999999999
 31
0.0
  0
LINE
  5
C8
330
1E
100
AcDbEntity
  8
4
100
AcDbLine
 10
377.0
 20
325.4999999999999
 30
0.0
 11
389.0
 21
325.4999999999999
 31
0.0
  0
LINE
  5
C9
330
1E
100
AcDbEntity
  8
4
100
AcDbLine
 10
391.0
 20
341.5
 30
0.0
 11
399.0
 21
341.5
 31
0.0
  0
LINE
  5
CA
330
1E
100
AcDbEntity
  8
4
100
AcDbLine
 10
391.0
 20
325.4999999999999
 30
0.0
 11
399.0
 21
325.4999999999999
 31
0.0
  0
TEXT
  5
CB
330
1E
100
AcDbEntity
  8
3
100
AcDbText
 10
647.4328577026373
 20
50.92905242422097
 30
0.0
 40
12.0
  1
スタンド・スパンナー
 41
0.8
  7
BIGFONT
100
AcDbText
  0
LINE
  5
CC
330
1E
100
AcDbEntity
  8
4
100
AcDbLine
 10
400.9999999999999
 20
93.49999999999999
 30
0.0
 11
400.9999999999999
 21
63.5
 31
0.0
  0
LINE
  5
CD
330
1E
100
AcDbEntity
  8
4
100
AcDbLine
 10
389.0
 20
63.5
 30
0.0
 11
389.0
 21
93.49999999999999
 31
0.0
  0
LINE
  5
CE
330
1E
100
AcDbEntity
  8
4
100
AcDbLine
 10
377.0
 20
93.49999999999999
 30
0.0
 11
377.0
 21
63.5
 31
0.0
  0
ARC
  5
CF
330
1E
100
AcDbEntity
  8
4
100
AcDbCircle
 10
395.0625
 20
90.99999999999999
 30
0.0
 40
6.0625
100
AcDbArc
 50
132.0750220508436
 51
227.9249779491562
  0
ARC
  5
D0
330
1E
100
AcDbEntity
  8
4
100
AcDbCircle
 10
394.9375
 20
90.99999999999999
 30
0.0
 40
6.0625
100
AcDbArc
 50
312.0750220508436
 51
47.92497794915639
  0
ARC
  5
D1
330
1E
100
AcDbEntity
  8
4
100
AcDbCircle
 10
370.9375
 20
90.99999999999999
 30
0.0
 40
6.0625
100
AcDbArc
 50
312.0750220508436
 51
47.92497794915639
  0
LINE
  5
D2
330
1E
100
AcDbEntity
  8
4
100
AcDbLine
 10
353.0
 20
88.49999999999999
 30
0.0
 11
351.0
 21
86.5
 31
0.0
  0
LINE
  5
D3
330
1E
100
AcDbEntity
  8
4
100
AcDbLine
 10
353.0
 20
68.5
 30
0.0
 11
353.0
 21
88.49999999999999
 31
0.0
  0
LINE
  5
D4
330
1E
100
AcDbEntity
  8
4
100
AcDbLine
 10
364.9999999999999
 20
63.5
 30
0.0
 11
364.9999999999999
 21
93.49999999999999
 31
0.0
  0
ARC
  5
D5
330
1E
100
AcDbEntity
  8
4
100
AcDbCircle
 10
371.0625
 20
90.99999999999999
 30
0.0
 40
6.0625
100
AcDbArc
 50
132.0750220508436
 51
227.9249779491562
  0
LINE
  5
D6
330
1E
100
AcDbEntity
  8
4
100
AcDbLine
 10
375.0
 20
61.5
 30
0.0
 11
366.9999999999999
 21
61.5
 31
0.0
  0
LINE
  5
D7
330
1E
100
AcDbEntity
  8
4
100
AcDbLine
 10
366.9999999999999
 20
86.5
 30
0.0
 11
375.0
 21
86.5
 31
0.0
  0
LINE
  5
D8
330
1E
100
AcDbEntity
  8
4
100
AcDbLine
 10
366.9999999999999
 20
70.5
 30
0.0
 11
375.0
 21
70.5
 31
0.0
  0
ARC
  5
D9
330
1E
100
AcDbEntity
  8
4
100
AcDbCircle
 10
371.0625
 20
66.0
 30
0.0
 40
6.0625
100
AcDbArc
 50
132.0750220508436
 51
227.9249779491562
  0
LINE
  5
DA
330
1E
100
AcDbEntity
  8
4
100
AcDbLine
 10
351.0
 20
70.5
 30
0.0
 11
353.0
 21
68.5
 31
0.0
  0
LINE
  5
DB
330
1E
100
AcDbEntity
  8
4
100
AcDbLine
 10
364.9999999999999
 20
68.5
 30
0.0
 11
353.0
 21
68.5
 31
0.0
  0
LINE
  5
DC
330
1E
100
AcDbEntity
  8
4
100
AcDbLine
 10
366.9999999999999
 20
61.5
 30
0.0
 11
364.9999999999999
 21
63.5
 31
0.0
  0
LINE
  5
DD
330
1E
100
AcDbEntity
  8
4
100
AcDbLine
 10
351.0
 20
86.5
 30
0.0
 11
364.9999999999999
 21
86.5
 31
0.0
  0
LINE
  5
DE
330
1E
100
AcDbEntity
  8
4
100
AcDbLine
 10
351.0
 20
70.5
 30
0.0
 11
364.9999999999999
 21
70.5
 31
0.0
  0
LINE
  5
DF
330
1E
100
AcDbEntity
  8
4
100
AcDbLine
 10
351.0
 20
86.5
 30
0.0
 11
351.0
 21
70.5
 31
0.0
  0
ARC
  5
E0
330
1E
100
AcDbEntity
  8
4
100
AcDbCircle
 10
382.0
 20
78.5
 30
0.0
 40
17.0
100
AcDbArc
 50
151.927513064147
 51
208.0724869358528
  0
LINE
  5
E1
330
1E
100
AcDbEntity
  8
4
100
AcDbLine
 10
399.0
 20
61.5
 30
0.0
 11
391.0
 21
61.5
 31
0.0
  0
LINE
  5
E2
330
1E
100
AcDbEntity
  8
4
100
AcDbLine
 10
391.0
 20
86.5
 30
0.0
 11
399.0
 21
86.5
 31
0.0
  0
LINE
  5
E3
330
1E
100
AcDbEntity
  8
4
100
AcDbLine
 10
391.0
 20
70.5
 30
0.0
 11
399.0
 21
70.5
 31
0.0
  0
ARC
  5
E4
330
1E
100
AcDbEntity
  8
4
100
AcDbCircle
 10
395.0625
 20
66.0
 30
0.0
 40
6.0625
100
AcDbArc
 50
132.0750220508436
 51
227.9249779491562
  0
ARC
  5
E5
330
1E
100
AcDbEntity
  8
4
100
AcDbCircle
 10
370.9375
 20
66.0
 30
0.0
 40
6.0625
100
AcDbArc
 50
312.0750220508436
 51
47.92497794915634
  0
LINE
  5
E6
330
1E
100
AcDbEntity
  8
4
100
AcDbLine
 10
389.0
 20
68.5
 30
0.0
 11
377.0
 21
68.5
 31
0.0
  0
LINE
  5
E7
330
1E
100
AcDbEntity
  8
4
100
AcDbLine
 10
377.0
 20
63.5
 30
0.0
 11
375.0
 21
61.5
 31
0.0
  0
LINE
  5
E8
330
1E
100
AcDbEntity
  8
4
100
AcDbLine
 10
391.0
 20
61.5
 30
0.0
 11
389.0
 21
63.5
 31
0.0
  0
LINE
  5
E9
330
1E
100
AcDbEntity
  8
4
100
AcDbLine
 10
377.0
 20
86.5
 30
0.0
 11
389.0
 21
86.5
 31
0.0
  0
LINE
  5
EA
330
1E
100
AcDbEntity
  8
4
100
AcDbLine
 10
377.0
 20
70.5
 30
0.0
 11
389.0
 21
70.5
 31
0.0
  0
ARC
  5
EB
330
1E
100
AcDbEntity
  8
4
100
AcDbCircle
 10
360.0
 20
78.5
 30
0.0
 40
17.0
100
AcDbArc
 50
331.9275130641469
 51
28.07248693585297
  0
ARC
  5
EC
330
1E
100
AcDbEntity
  8
4
100
AcDbCircle
 10
406.0
 20
78.5
 30
0.0
 40
17.0
100
AcDbArc
 50
151.927513064147
 51
208.0724869358528
  0
ARC
  5
ED
330
1E
100
AcDbEntity
  8
4
100
AcDbCircle
 10
394.9375
 20
66.0
 30
0.0
 40
6.0625
100
AcDbArc
 50
312.0750220508436
 51
47.92497794915634
  0
LINE
  5
EE
330
1E
100
AcDbEntity
  8
4
100
AcDbLine
 10
400.9999999999999
 20
63.5
 30
0.0
 11
399.0
 21
61.5
 31
0.0
  0
ARC
  5
EF
330
1E
100
AcDbEntity
  8
4
100
AcDbCircle
 10
383.9999999999999
 20
78.5
 30
0.0
 40
17.0
100
AcDbArc
 50
331.9275130641469
 51
28.07248693585297
  0
LINE
  5
F0
330
1E
100
AcDbEntity
  8
4
100
AcDbLine
 10
366.9999999999999
 20
95.5
 30
0.0
 11
375.0
 21
95.5
 31
0.0
  0
LINE
  5
F1
330
1E
100
AcDbEntity
  8
4
100
AcDbLine
 10
364.9999999999999
 20
88.49999999999999
 30
0.0
 11
353.0
 21
88.49999999999999
 31
0.0
  0
LINE
  5
F2
330
1E
100
AcDbEntity
  8
4
100
AcDbLine
 10
364.9999999999999
 20
93.49999999999999
 30
0.0
 11
366.9999999999999
 21
95.5
 31
0.0
  0
LINE
  5
F3
330
1E
100
AcDbEntity
  8
4
100
AcDbLine
 10
391.0
 20
95.5
 30
0.0
 11
399.0
 21
95.5
 31
0.0
  0
LINE
  5
F4
330
1E
100
AcDbEntity
  8
4
100
AcDbLine
 10
389.0
 20
88.49999999999999
 30
0.0
 11
377.0
 21
88.49999999999999
 31
0.0
  0
LINE
  5
F5
330
1E
100
AcDbEntity
  8
4
100
AcDbLine
 10
375.0
 20
95.5
 30
0.0
 11
377.0
 21
93.49999999999999
 31
0.0
  0
LINE
  5
F6
330
1E
100
AcDbEntity
  8
4
100
AcDbLine
 10
389.0
 20
93.49999999999999
 30
0.0
 11
391.0
 21
95.5
 31
0.0
  0
LINE
  5
F7
330
1E
100
AcDbEntity
  8
4
100
AcDbLine
 10
399.0
 20
95.5
 30
0.0
 11
400.9999999999999
 21
93.49999999999999
 31
0.0
  0
LINE
  5
F8
330
1E
100
AcDbEntity
  8
1
100
AcDbLine
 10
475.9999999999999
 20
13.0
 30
0.0
 11
475.9999999999999
 21
141.5
 31
0.0
  0
CIRCLE
  5
F9
330
1E
100
AcDbEntity
  8
0
100
AcDbCircle
 10
475.9999999999999
 20
33.5
 30
0.0
 40
5.5
  0
LINE
  5
FA
330
1E
100
AcDbEntity
  8
1
100
AcDbLine
 10
464.5
 20
33.5
 30
0.0
 11
487.9999999999999
 21
33.5
 31
0.0
  0
LINE
  5
FB
330
1E
100
AcDbEntity
  8
0
100
AcDbLine
 10
475.9999999999999
 20
22.5
 30
0.0
 11
495.0
 21
22.5
 31
0.0
  0
LINE
  5
FC
330
1E
100
AcDbEntity
  8
0
100
AcDbLine
 10
456.0
 20
23.5
 30
0.0
 11
456.0
 21
54.5
 31
0.0
  0
LINE
  5
FD
330
1E
100
AcDbEntity
  8
0
100
AcDbLine
 10
475.9999999999999
 20
22.5
 30
0.0
 11
457.0
 21
22.5
 31
0.0
  0
LINE
  5
FE
330
1E
100
AcDbEntity
  8
0
100
AcDbLine
 10
457.0
 20
22.5
 30
0.0
 11
456.0
 21
23.5
 31
0.0
  0
LINE
  5
FF
330
1E
100
AcDbEntity
  8
0
100
AcDbLine
 10
456.0
 20
54.5
 30
0.0
 11
457.0
 21
55.5
 31
0.0
  0
LINE
  5
100
330
1E
100
AcDbEntity
  8
0
100
AcDbLine
 10
495.9999999999999
 20
23.5
 30
0.0
 11
495.9999999999999
 21
54.5
 31
0.0
  0
LINE
  5
101
330
1E
100
AcDbEntity
  8
0
100
AcDbLine
 10
495.0
 20
22.5
 30
0.0
 11
495.9999999999999
 21
23.5
 31
0.0
  0
LINE
  5
102
330
1E
100
AcDbEntity
  8
0
100
AcDbLine
 10
495.0
 20
55.5
 30
0.0
 11
491.9999999999999
 21
55.5
 31
0.0
  0
LINE
  5
103
330
1E
100
AcDbEntity
  8
0
100
AcDbLine
 10
495.9999999999999
 20
54.5
 30
0.0
 11
495.0
 21
55.5
 31
0.0
  0
CIRCLE
  5
104
330
1E
100
AcDbEntity
  8
0
100
AcDbCircle
 10
475.9999999999999
 20
123.5
 30
0.0
 40
5.5
  0
LINE
  5
105
330
1E
100
AcDbEntity
  8
1
100
AcDbLine
 10
464.5
 20
123.5
 30
0.0
 11
487.9999999999999
 21
123.5
 31
0.0
  0
LINE
  5
106
330
1E
100
AcDbEntity
  8
0
100
AcDbLine
 10
495.0
 20
134.4999999999998
 30
0.0
 11
457.0
 21
134.4999999999998
 31
0.0
  0
LINE
  5
107
330
1E
100
AcDbEntity
  8
0
100
AcDbLine
 10
456.0
 20
133.4999999999998
 30
0.0
 11
456.0
 21
102.4999999999999
 31
0.0
  0
LINE
  5
108
330
1E
100
AcDbEntity
  8
0
100
AcDbLine
 10
456.0
 20
102.4999999999999
 30
0.0
 11
457.0
 21
101.5
 31
0.0
  0
LINE
  5
109
330
1E
100
AcDbEntity
  8
0
100
AcDbLine
 10
457.0
 20
134.4999999999998
 30
0.0
 11
456.0
 21
133.4999999999998
 31
0.0
  0
LINE
  5
10A
330
1E
100
AcDbEntity
  8
0
100
AcDbLine
 10
495.9999999999999
 20
133.4999999999998
 30
0.0
 11
495.9999999999999
 21
102.4999999999999
 31
0.0
  0
LINE
  5
10B
330
1E
100
AcDbEntity
  8
0
100
AcDbLine
 10
495.0
 20
101.5
 30
0.0
 11
491.9999999999999
 21
101.5
 31
0.0
  0
LINE
  5
10C
330
1E
100
AcDbEntity
  8
0
100
AcDbLine
 10
495.9999999999999
 20
102.4999999999999
 30
0.0
 11
495.0
 21
101.5
 31
0.0
  0
LINE
  5
10D
330
1E
100
AcDbEntity
  8
0
100
AcDbLine
 10
495.0
 20
134.4999999999998
 30
0.0
 11
495.9999999999999
 21
133.4999999999998
 31
0.0
  0
LINE
  5
10E
330
1E
100
AcDbEntity
  8
2
100
AcDbLine
 10
491.0
 20
104.4999999999999
 30
0.0
 11
458.0
 21
104.4999999999999
 31
0.0
  0
LINE
  5
10F
330
1E
100
AcDbEntity
  8
2
100
AcDbLine
 10
491.0
 20
52.5
 30
0.0
 11
458.0
 21
52.5
 31
0.0
  0
LINE
  5
110
330
1E
100
AcDbEntity
  8
2
100
AcDbLine
 10
491.0
 20
104.4999999999999
 30
0.0
 11
491.9999999999999
 21
103.4999999999999
 31
0.0
  0
LINE
  5
111
330
1E
100
AcDbEntity
  8
2
100
AcDbLine
 10
458.0
 20
52.5
 30
0.0
 11
457.0
 21
53.5
 31
0.0
  0
LINE
  5
112
330
1E
100
AcDbEntity
  8
2
100
AcDbLine
 10
491.0
 20
52.5
 30
0.0
 11
491.9999999999999
 21
53.5
 31
0.0
  0
LINE
  5
113
330
1E
100
AcDbEntity
  8
0
100
AcDbLine
 10
491.9999999999999
 20
55.5
 30
0.0
 11
491.9999999999999
 21
101.5
 31
0.0
  0
LINE
  5
114
330
1E
100
AcDbEntity
  8
2
100
AcDbLine
 10
491.9999999999999
 20
103.4999999999999
 30
0.0
 11
491.9999999999999
 21
101.5
 31
0.0
  0
LINE
  5
115
330
1E
100
AcDbEntity
  8
2
100
AcDbLine
 10
457.0
 20
53.5
 30
0.0
 11
457.0
 21
55.5
 31
0.0
  0
LINE
  5
116
330
1E
100
AcDbEntity
  8
2
100
AcDbLine
 10
491.9999999999999
 20
53.5
 30
0.0
 11
491.9999999999999
 21
55.5
 31
0.0
  0
LINE
  5
117
330
1E
100
AcDbEntity
  8
0
100
AcDbLine
 10
491.9999999999999
 20
101.5
 30
0.0
 11
457.0
 21
101.5
 31
0.0
  0
LINE
  5
118
330
1E
100
AcDbEntity
  8
0
100
AcDbLine
 10
491.9999999999999
 20
55.5
 30
0.0
 11
457.0
 21
55.5
 31
0.0
  0
LINE
  5
119
330
1E
100
AcDbEntity
  8
1
100
AcDbLine
 10
500.0
 20
278.5
 30
0.0
 11
423.0
 21
278.5
 31
0.0
  0
LINE
  5
11A
330
1E
100
AcDbEntity
  8
1
100
AcDbLine
 10
475.9999999999999
 20
310.9999999999998
 30
0.0
 11
475.9999999999999
 21
220.9999999999999
 31
0.0
  0
LINE
  5
11B
330
1E
100
AcDbEntity
  8
1
100
AcDbLine
 10
670.9999999999999
 20
310.4999999999999
 30
0.0
 11
670.9999999999999
 21
222.0
 31
0.0
  0
LINE
  5
11C
330
1E
100
AcDbEntity
  8
4
100
AcDbLine
 10
420.9999999999999
 20
88.49999999999999
 30
0.0
 11
400.9999999999999
 21
88.49999999999999
 31
0.0
  0
LINE
  5
11D
330
1E
100
AcDbEntity
  8
4
100
AcDbLine
 10
420.9999999999999
 20
86.5
 30
0.0
 11
400.9999999999999
 21
86.5
 31
0.0
  0
LINE
  5
11E
330
1E
100
AcDbEntity
  8
4
100
AcDbLine
 10
420.9999999999999
 20
70.5
 30
0.0
 11
400.9999999999999
 21
70.5
 31
0.0
  0
LINE
  5
11F
330
1E
100
AcDbEntity
  8
4
100
AcDbLine
 10
420.9999999999999
 20
68.5
 30
0.0
 11
400.9999999999999
 21
68.5
 31
0.0
  0
LINE
  5
120
330
1E
100
AcDbEntity
  8
4
100
AcDbLine
 10
420.9999999999999
 20
343.5
 30
0.0
 11
400.9999999999999
 21
343.5
 31
0.0
  0
LINE
  5
121
330
1E
100
AcDbEntity
  8
4
100
AcDbLine
 10
420.9999999999999
 20
341.5
 30
0.0
 11
400.9999999999999
 21
341.5
 31
0.0
  0
LINE
  5
122
330
1E
100
AcDbEntity
  8
4
100
AcDbLine
 10
420.9999999999999
 20
325.4999999999999
 30
0.0
 11
400.9999999999999
 21
325.4999999999999
 31
0.0
  0
LINE
  5
123
330
1E
100
AcDbEntity
  8
4
100
AcDbLine
 10
420.9999999999999
 20
323.4999999999998
 30
0.0
 11
400.4999999999999
 21
323.4999999999998
 31
0.0
  0
ARC
  5
12A
330
1E
100
AcDbEntity
  8
0
100
AcDbCircle
 10
243.3999999999998
 20
312.1432432432432
 30
0.0
 40
69.99487996510481
100
AcDbArc
 50
167.7454716092234
 51
198.4426445086107
  0
CIRCLE
  5
12B
330
1E
100
AcDbEntity
  8
0
100
AcDbCircle
 10
153.5
 20
278.5
 30
0.0
 40
9.0
  0
CIRCLE
  5
12C
330
1E
100
AcDbEntity
  8
0
100
AcDbCircle
 10
153.5
 20
278.5
 30
0.0
 40
9.5
  0
POLYLINE
  5
12D
330
1E
100
AcDbEntity
  8
0
100
AcDb2dPolyline
 66
     1
 10
0.0
 20
0.0
 30
0.0
 70
     1
  0
VERTEX
  5
12E
330
12D
100
AcDbEntity
  8
0
100
AcDbVertex
100
AcDb2dVertex
 10
153.5
 20
283.9999999999998
 30
0.0
  0
VERTEX
  5
12F
330
12D
100
AcDbEntity
  8
0
100
AcDbVertex
100
AcDb2dVertex
 10
148.7368602791854
 20
281.25
 30
0.0
  0
VERTEX
  5
130
330
12D
100
AcDbEntity
  8
0
100
AcDbVertex
100
AcDb2dVertex
 10
148.7368602791854
 20
275.7499999999998
 30
0.0
  0
VERTEX
  5
131
330
12D
100
AcDbEntity
  8
0
100
AcDbVertex
100
AcDb2dVertex
 10
153.5
 20
272.9999999999999
 30
0.0
  0
VERTEX
  5
132
330
12D
100
AcDbEntity
  8
0
100
AcDbVertex
100
AcDb2dVertex
 10
158.2631397208144
 20
275.7499999999998
 30
0.0
  0
VERTEX
  5
133
330
12D
100
AcDbEntity
  8
0
100
AcDbVertex
100
AcDb2dVertex
 10
158.2631397208144
 20
281.25
 30
0.0
  0
SEQEND
  5
134
330
12D
100
AcDbEntity
  8
0
  0
POLYLINE
  5
135
330
1E
100
AcDbEntity
  8
4
100
AcDb2dPolyline
 66
     1
 10
0.0
 20
0.0
 30
0.0
 70
     1
  0
VERTEX
  5
136
330
135
100
AcDbEntity
  8
4
100
AcDbVertex
100
AcDb2dVertex
 10
153.5
 20
350.4999999999998
 30
0.0
  0
VERTEX
  5
137
330
135
100
AcDbEntity
  8
4
100
AcDbVertex
100
AcDb2dVertex
 10
138.7775681356645
 20
341.9999999999999
 30
0.0
  0
VERTEX
  5
138
330
135
100
AcDbEntity
  8
4
100
AcDbVertex
100
AcDb2dVertex
 10
138.7775681356645
 20
325.0
 30
0.0
  0
VERTEX
  5
139
330
135
100
AcDbEntity
  8
4
100
AcDbVertex
100
AcDb2dVertex
 10
153.5
 20
316.5
 30
0.0
  0
VERTEX
  5
13A
330
135
100
AcDbEntity
  8
4
100
AcDbVertex
100
AcDb2dVertex
 10
168.2224318643353
 20
325.0
 30
0.0
  0
VERTEX
  5
13B
330
135
100
AcDbEntity
  8
4
100
AcDbVertex
100
AcDb2dVertex
 10
168.2224318643353
 20
341.9999999999999
 30
0.0
  0
SEQEND
  5
13C
330
135
100
AcDbEntity
  8
4
  0
CIRCLE
  5
13D
330
1E
100
AcDbEntity
  8
4
100
AcDbCircle
 10
153.5
 20
333.4999999999999
 30
0.0
 40
14.5
  0
CIRCLE
  5
13E
330
1E
100
AcDbEntity
  8
4
100
AcDbCircle
 10
153.5
 20
333.4999999999999
 30
0.0
 40
8.0
  0
CIRCLE
  5
13F
330
1E
100
AcDbEntity
  8
0
100
AcDbCircle
 10
153.5
 20
333.4999999999999
 30
0.0
 40
10.0
  0
LINE
  5
140
330
1E
100
AcDbEntity
  8
0
100
AcDbLine
 10
177.718150021132
 20
287.9847975301958
 30
0.0
 11
176.9980536716913
 21
290.0219596224262
 31
0.0
  0
ARC
  5
141
330
1E
100
AcDbEntity
  8
0
100
AcDbCircle
 10
56.19444444444447
 20
311.5427927927928
 30
0.0
 40
77.36541544988273
100
AcDbArc
 50
345.5270321364475
 51
11.52495937788657
  0
ARC
  5
142
330
1E
100
AcDbEntity
  8
0
100
AcDbCircle
 10
153.5
 20
278.5
 30
0.0
 40
26.0
100
AcDbArc
 50
153.0645423904077
 51
21.35201995945137
  0
ARC
  5
143
330
1E
100
AcDbEntity
  8
0
100
AcDbCircle
 10
120.8222393436564
 20
295.2266645289512
 30
0.0
 40
10.71184116971651
100
AcDbArc
 50
332.4587667741341
 51
343.6599598899105
  0
LINE
  5
144
330
1E
100
AcDbEntity
  8
1
100
AcDbLine
 10
153.5
 20
313.5
 30
0.0
 11
153.5
 21
220.5
 31
0.0
  0
LINE
  5
145
330
1E
100
AcDbEntity
  8
1
100
AcDbLine
 10
118.5
 20
278.5
 30
0.0
 11
189.0
 21
278.5
 31
0.0
  0
LINE
  5
146
330
1E
100
AcDbEntity
  8
1
100
AcDbLine
 10
153.5
 20
363.5
 30
0.0
 11
153.5
 21
242.5
 31
0.0
  0
LINE
  5
147
330
1E
100
AcDbEntity
  8
1
100
AcDbLine
 10
182.5
 20
333.4999999999999
 30
0.0
 11
123.5
 21
333.4999999999999
 31
0.0
  0
ARC
  5
148
330
1E
100
AcDbEntity
  8
0
100
AcDbCircle
 10
153.5
 20
278.5
 30
0.0
 40
23.5
100
AcDbArc
 50
153.4349488229219
 51
26.56505117707798
  0
ARC
  5
149
330
1E
100
AcDbEntity
  8
0
100
AcDbCircle
 10
230.2448453608247
 20
307.5386597938144
 30
0.0
 40
58.74665685171418
100
AcDbArc
 50
163.2186546560418
 51
198.3952042541628
  0
ARC
  5
14A
330
1E
100
AcDbEntity
  8
0
100
AcDbCircle
 10
76.75515463917526
 20
307.5386597938144
 30
0.0
 40
58.74665685171418
100
AcDbArc
 50
341.6047957458371
 51
16.78134534395809
  0
ARC
  5
14B
330
1E
100
AcDbEntity
  8
0
100
AcDbCircle
 10
170.2527352790133
 20
254.7513676395066
 30
0.0
 40
3.256979253596043
100
AcDbArc
 50
355.5736159192163
 51
113.1640833949285
  0
ARC
  5
14C
330
1E
100
AcDbEntity
  8
0
100
AcDbCircle
 10
137.1404738609874
 20
254.0157156834075
 30
0.0
 40
3.672544245047326
100
AcDbArc
 50
74.71016779564227
 51
172.4225559527362
  0
LINE
  5
14D
330
1E
100
AcDbEntity
  8
1
100
AcDbLine
 10
700.0
 20
333.4999999999999
 30
0.0
 11
641.0
 21
333.4999999999999
 31
0.0
  0
CIRCLE
  5
14E
330
1E
100
AcDbEntity
  8
0
100
AcDbCircle
 10
670.9999999999999
 20
333.4999999999999
 30
0.0
 40
22.5
  0
LINE
  5
14F
330
1E
100
AcDbEntity
  8
1
100
AcDbLine
 10
636.0
 20
278.5
 30
0.0
 11
706.5
 21
278.5
 31
0.0
  0
ARC
  5
150
330
1E
100
AcDbEntity
  8
0
100
AcDbCircle
 10
573.6944444444445
 20
311.5427927927928
 30
0.0
 40
77.36541544988273
100
AcDbArc
 50
345.5270321364475
 51
11.52495937788657
  0
ARC
  5
151
330
1E
100
AcDbEntity
  8
0
100
AcDbCircle
 10
638.3222393436565
 20
295.2266645289512
 30
0.0
 40
10.71184116971651
100
AcDbArc
 50
332.4587667741341
 51
343.6599598899105
  0
LINE
  5
152
330
1E
100
AcDbEntity
  8
0
100
AcDbLine
 10
695.218150021132
 20
287.9847975301958
 30
0.0
 11
694.4980536716914
 21
290.0219596224262
 31
0.0
  0
ARC
  5
153
330
1E
100
AcDbEntity
  8
0
100
AcDbCircle
 10
760.8999999999999
 20
312.1432432432432
 30
0.0
 40
69.99487996510481
100
AcDbArc
 50
167.7454716092234
 51
198.4426445086107
  0
LINE
  5
154
330
1E
100
AcDbEntity
  8
1
100
AcDbLine
 10
670.9999999999999
 20
362.5
 30
0.0
 11
670.9999999999999
 21
246.4999999999998
 31
0.0
  0
CIRCLE
  5
155
330
1E
100
AcDbEntity
  8
0
100
AcDbCircle
 10
153.5
 20
333.4999999999999
 30
0.0
 40
20.0
  0
CIRCLE
  5
156
330
1E
100
AcDbEntity
  8
0
100
AcDbCircle
 10
153.5
 20
333.4999999999999
 30
0.0
 40
22.5
  0
ARC
  5
157
330
1E
100
AcDbEntity
  8
0
100
AcDbCircle
 10
670.9999999999999
 20
278.5
 30
0.0
 40
26.0
100
AcDbArc
 50
0.0
 51
180.0
  0
CIRCLE
  5
158
330
1E
100
AcDbEntity
  8
0
100
AcDbCircle
 10
670.9999999999999
 20
278.5
 30
0.0
 40
6.0
  0
CIRCLE
  5
159
330
1E
100
AcDbEntity
  8
3
100
AcDbCircle
 10
670.9999999999999
 20
278.5
 30
0.0
 40
5.0
  0
CIRCLE
  5
15A
330
1E
100
AcDbEntity
  8
0
100
AcDbCircle
 10
670.9999999999999
 20
333.4999999999999
 30
0.0
 40
15.5
  0
CIRCLE
  5
15B
330
1E
100
AcDbEntity
  8
4
100
AcDbCircle
 10
670.9999999999999
 20
333.4999999999999
 30
0.0
 40
15.0
  0
LINE
  5
164
330
1E
100
AcDbEntity
  8
2
100
AcDbLine
 10
649.0
 20
336.5
 30
0.0
 11
661.0
 21
336.5
 31
0.0
  0
LINE
  5
165
330
1E
100
AcDbEntity
  8
2
100
AcDbLine
 10
649.0
 20
335.9999999999998
 30
0.0
 11
661.0
 21
335.9999999999998
 31
0.0
  0
LINE
  5
166
330
1E
100
AcDbEntity
  8
2
100
AcDbLine
 10
649.0
 20
331.0
 30
0.0
 11
661.0
 21
331.0
 31
0.0
  0
LINE
  5
167
330
1E
100
AcDbEntity
  8
2
100
AcDbLine
 10
649.0
 20
330.5
 30
0.0
 11
661.0
 21
330.5
 31
0.0
  0
LINE
  5
168
330
1E
100
AcDbEntity
  8
2
100
AcDbLine
 10
660.5
 20
336.5
 30
0.0
 11
661.0
 21
335.9999999999998
 31
0.0
  0
LINE
  5
169
330
1E
100
AcDbEntity
  8
2
100
AcDbLine
 10
661.0
 20
335.9999999999998
 30
0.0
 11
661.0
 21
331.0
 31
0.0
  0
LINE
  5
16A
330
1E
100
AcDbEntity
  8
2
100
AcDbLine
 10
661.0
 20
331.0
 30
0.0
 11
660.5
 21
330.5
 31
0.0
  0
LINE
  5
16B
330
1E
100
AcDbEntity
  8
2
100
AcDbLine
 10
660.5
 20
330.5
 30
0.0
 11
660.5
 21
336.5
 31
0.0
  0
LINE
  5
16C
330
1E
100
AcDbEntity
  8
2
100
AcDbLine
 10
654.4999999999999
 20
336.5
 30
0.0
 11
654.4999999999999
 21
335.0
 31
0.0
  0
LINE
  5
16D
330
1E
100
AcDbEntity
  8
2
100
AcDbLine
 10
654.4999999999999
 20
335.0
 30
0.0
 11
655.4999999999998
 21
335.0
 31
0.0
  0
LINE
  5
16E
330
1E
100
AcDbEntity
  8
2
100
AcDbLine
 10
655.4999999999998
 20
335.0
 30
0.0
 11
655.4999999999998
 21
332.0
 31
0.0
  0
LINE
  5
16F
330
1E
100
AcDbEntity
  8
2
100
AcDbLine
 10
655.4999999999998
 20
332.0
 30
0.0
 11
654.4999999999999
 21
332.0
 31
0.0
  0
LINE
  5
170
330
1E
100
AcDbEntity
  8
2
100
AcDbLine
 10
654.4999999999999
 20
332.0
 30
0.0
 11
654.4999999999999
 21
330.5
 31
0.0
  0
LINE
  5
171
330
1E
100
AcDbEntity
  8
2
100
AcDbLine
 10
654.4999999999999
 20
330.5
 30
0.0
 11
654.0
 21
331.0
 31
0.0
  0
LINE
  5
172
330
1E
100
AcDbEntity
  8
2
100
AcDbLine
 10
654.0
 20
331.0
 30
0.0
 11
654.0
 21
332.0
 31
0.0
  0
LINE
  5
173
330
1E
100
AcDbEntity
  8
2
100
AcDbLine
 10
654.0
 20
332.0
 30
0.0
 11
654.4999999999999
 21
332.0
 31
0.0
  0
LINE
  5
174
330
1E
100
AcDbEntity
  8
2
100
AcDbLine
 10
654.4999999999999
 20
335.0
 30
0.0
 11
654.0
 21
335.0
 31
0.0
  0
LINE
  5
175
330
1E
100
AcDbEntity
  8
2
100
AcDbLine
 10
654.0
 20
335.0
 30
0.0
 11
654.0
 21
335.9999999999998
 31
0.0
  0
LINE
  5
176
330
1E
100
AcDbEntity
  8
2
100
AcDbLine
 10
654.0
 20
335.9999999999998
 30
0.0
 11
654.4999999999999
 21
336.5
 31
0.0
  0
LINE
  5
177
330
1E
100
AcDbEntity
  8
1
100
AcDbLine
 10
440.0
 20
361.5
 30
0.0
 11
440.0
 21
247.5
 31
0.0
  0
LINE
  5
178
330
1E
100
AcDbEntity
  8
0
100
AcDbLine
 10
440.0
 20
356.0
 30
0.0
 11
446.4999999999999
 21
356.0
 31
0.0
  0
LINE
  5
179
330
1E
100
AcDbEntity
  8
0
100
AcDbLine
 10
446.4999999999999
 20
356.0
 30
0.0
 11
447.5
 21
355.0
 31
0.0
  0
LINE
  5
17A
330
1E
100
AcDbEntity
  8
0
100
AcDbLine
 10
447.5
 20
355.0
 30
0.0
 11
447.5
 21
304.4999999999999
 31
0.0
  0
LINE
  5
17B
330
1E
100
AcDbEntity
  8
0
100
AcDbLine
 10
447.5
 20
304.4999999999999
 30
0.0
 11
457.0122950819672
 21
303.6352459016392
 31
0.0
  0
LINE
  5
17C
330
1E
100
AcDbEntity
  8
0
100
AcDbLine
 10
458.4999999999999
 20
253.5
 30
0.0
 11
457.5
 21
252.4999999999999
 31
0.0
  0
LINE
  5
17D
330
1E
100
AcDbEntity
  8
0
100
AcDbLine
 10
457.5
 20
252.4999999999999
 30
0.0
 11
433.4999999999999
 21
252.4999999999999
 31
0.0
  0
LINE
  5
17E
330
1E
100
AcDbEntity
  8
0
100
AcDbLine
 10
433.4999999999999
 20
252.4999999999999
 30
0.0
 11
432.5
 21
253.5
 31
0.0
  0
LINE
  5
17F
330
1E
100
AcDbEntity
  8
0
100
AcDbLine
 10
432.5
 20
253.5
 30
0.0
 11
432.5
 21
310.9999999999998
 31
0.0
  0
LINE
  5
180
330
1E
100
AcDbEntity
  8
0
100
AcDbLine
 10
432.5
 20
310.9999999999998
 30
0.0
 11
420.9999999999999
 21
313.5
 31
0.0
  0
LINE
  5
181
330
1E
100
AcDbEntity
  8
0
100
AcDbLine
 10
420.9999999999999
 20
313.5
 30
0.0
 11
420.9999999999999
 21
353.5
 31
0.0
  0
LINE
  5
182
330
1E
100
AcDbEntity
  8
0
100
AcDbLine
 10
420.9999999999999
 20
353.5
 30
0.0
 11
432.5
 21
356.0
 31
0.0
  0
LINE
  5
183
330
1E
100
AcDbEntity
  8
0
100
AcDbLine
 10
432.5
 20
356.0
 30
0.0
 11
440.0
 21
356.0
 31
0.0
  0
LINE
  5
184
330
1E
100
AcDbEntity
  8
0
100
AcDbLine
 10
432.5
 20
310.9999999999998
 30
0.0
 11
432.5
 21
322.9999999999999
 31
0.0
  0
LINE
  5
185
330
1E
100
AcDbEntity
  8
2
100
AcDbLine
 10
447.5
 20
349.0
 30
0.0
 11
435.5
 21
349.0
 31
0.0
  0
LINE
  5
186
330
1E
100
AcDbEntity
  8
2
100
AcDbLine
 10
435.5
 20
349.0
 30
0.0
 11
435.5
 21
343.5
 31
0.0
  0
LINE
  5
187
330
1E
100
AcDbEntity
  8
2
100
AcDbLine
 10
435.5
 20
343.5
 30
0.0
 11
435.5
 21
341.5
 31
0.0
  0
LINE
  5
188
330
1E
100
AcDbEntity
  8
2
100
AcDbLine
 10
435.5
 20
341.5
 30
0.0
 11
420.9999999999999
 21
341.5
 31
0.0
  0
LINE
  5
189
330
1E
100
AcDbEntity
  8
2
100
AcDbLine
 10
435.5
 20
343.5
 30
0.0
 11
420.9999999999999
 21
343.5
 31
0.0
  0
LINE
  5
18A
330
1E
100
AcDbEntity
  8
2
100
AcDbLine
 10
447.5
 20
318.0
 30
0.0
 11
435.5
 21
318.0
 31
0.0
  0
LINE
  5
18B
330
1E
100
AcDbEntity
  8
2
100
AcDbLine
 10
435.5
 20
318.0
 30
0.0
 11
435.5
 21
325.4999999999999
 31
0.0
  0
LINE
  5
18C
330
1E
100
AcDbEntity
  8
2
100
AcDbLine
 10
435.5
 20
325.4999999999999
 30
0.0
 11
420.9999999999999
 21
325.4999999999999
 31
0.0
  0
LINE
  5
18D
330
1E
100
AcDbEntity
  8
2
100
AcDbLine
 10
435.5
 20
323.4999999999998
 30
0.0
 11
420.9999999999999
 21
323.4999999999998
 31
0.0
  0
LINE
  5
18E
330
1E
100
AcDbEntity
  8
1
100
AcDbLine
 10
425.0
 20
278.5
 30
0.0
 11
463.9999999999999
 21
278.5
 31
0.0
  0
LINE
  5
18F
330
1E
100
AcDbEntity
  8
2
100
AcDbLine
 10
432.5
 20
287.9999999999999
 30
0.0
 11
443.5
 21
287.9999999999999
 31
0.0
  0
LINE
  5
190
330
1E
100
AcDbEntity
  8
2
100
AcDbLine
 10
443.5
 20
287.9999999999999
 30
0.0
 11
443.5
 21
284.5
 31
0.0
  0
LINE
  5
191
330
1E
100
AcDbEntity
  8
2
100
AcDbLine
 10
452.5
 20
293.5
 30
0.0
 11
452.5
 21
263.5
 31
0.0
  0
LINE
  5
192
330
1E
100
AcDbEntity
  8
2
100
AcDbLine
 10
452.5
 20
263.5
 30
0.0
 11
455.4999999999999
 21
262.5
 31
0.0
  0
LINE
  5
193
330
1E
100
AcDbEntity
  8
2
100
AcDbLine
 10
443.5
 20
284.5
 30
0.0
 11
452.5
 21
284.5
 31
0.0
  0
LINE
  5
194
330
1E
100
AcDbEntity
  8
2
100
AcDbLine
 10
432.5
 20
268.9999999999999
 30
0.0
 11
443.5
 21
268.9999999999999
 31
0.0
  0
LINE
  5
195
330
1E
100
AcDbEntity
  8
2
100
AcDbLine
 10
443.5
 20
268.9999999999999
 30
0.0
 11
443.5
 21
272.5
 31
0.0
  0
LINE
  5
196
330
1E
100
AcDbEntity
  8
2
100
AcDbLine
 10
443.5
 20
272.5
 30
0.0
 11
452.5
 21
272.5
 31
0.0
  0
LINE
  5
197
330
1E
100
AcDbEntity
  8
5
100
AcDbLine
 10
435.5
 20
348.4999999999998
 30
0.0
 11
447.5
 21
348.4999999999998
 31
0.0
  0
LINE
  5
198
330
1E
100
AcDbEntity
  8
5
100
AcDbLine
 10
435.5
 20
318.5
 30
0.0
 11
447.5
 21
318.5
 31
0.0
  0
LINE
  5
199
330
1E
100
AcDbEntity
  8
4
100
AcDbLine
 10
447.5
 20
348.4999999999998
 30
0.0
 11
448.5
 21
348.4999999999998
 31
0.0
  0
LINE
  5
19A
330
1E
100
AcDbEntity
  8
4
100
AcDbLine
 10
448.5
 20
348.4999999999998
 30
0.0
 11
449.4999999999999
 21
347.5
 31
0.0
  0
LINE
  5
19B
330
1E
100
AcDbEntity
  8
4
100
AcDbLine
 10
449.4999999999999
 20
347.5
 30
0.0
 11
449.4999999999999
 21
319.5
 31
0.0
  0
LINE
  5
19C
330
1E
100
AcDbEntity
  8
4
100
AcDbLine
 10
449.4999999999999
 20
319.5
 30
0.0
 11
448.5
 21
318.5
 31
0.0
  0
LINE
  5
19D
330
1E
100
AcDbEntity
  8
4
100
AcDbLine
 10
448.5
 20
318.5
 30
0.0
 11
447.5
 21
318.5
 31
0.0
  0
LINE
  5
1A3
330
1E
100
AcDbEntity
  8
2
100
AcDbLine
 10
456.5
 20
284.5
 30
0.0
 11
491.9999999999999
 21
284.5
 31
0.0
  0
LINE
  5
1A4
330
1E
100
AcDbEntity
  8
2
100
AcDbLine
 10
456.5
 20
283.4999999999999
 30
0.0
 11
491.9999999999999
 21
283.4999999999999
 31
0.0
  0
LINE
  5
1A5
330
1E
100
AcDbEntity
  8
2
100
AcDbLine
 10
456.5
 20
272.5
 30
0.0
 11
491.9999999999999
 21
272.5
 31
0.0
  0
LINE
  5
1A6
330
1E
100
AcDbEntity
  8
2
100
AcDbLine
 10
456.5
 20
273.4999999999998
 30
0.0
 11
491.9999999999999
 21
273.4999999999998
 31
0.0
  0
LINE
  5
1A7
330
1E
100
AcDbEntity
  8
2
100
AcDbLine
 10
432.5
 20
278.5
 30
0.0
 11
432.5
 21
286.5
 31
0.0
  0
LINE
  5
1A8
330
1E
100
AcDbEntity
  8
2
100
AcDbLine
 10
432.5
 20
286.5
 30
0.0
 11
433.4999999999999
 21
287.5
 31
0.0
  0
LINE
  5
1A9
330
1E
100
AcDbEntity
  8
2
100
AcDbLine
 10
433.4999999999999
 20
287.5
 30
0.0
 11
443.5
 21
287.5
 31
0.0
  0
LINE
  5
1AA
330
1E
100
AcDbEntity
  8
2
100
AcDbLine
 10
432.5
 20
270.5
 30
0.0
 11
433.4999999999999
 21
269.4999999999998
 31
0.0
  0
LINE
  5
1AB
330
1E
100
AcDbEntity
  8
2
100
AcDbLine
 10
433.4999999999999
 20
269.4999999999998
 30
0.0
 11
443.5
 21
269.4999999999998
 31
0.0
  0
LINE
  5
1AC
330
1E
100
AcDbEntity
  8
2
100
AcDbLine
 10
452.5
 20
284.5
 30
0.0
 11
456.5
 21
284.5
 31
0.0
  0
LINE
  5
1AD
330
1E
100
AcDbEntity
  8
2
100
AcDbLine
 10
443.5
 20
284.5
 30
0.0
 11
444.5
 21
283.4999999999999
 31
0.0
  0
LINE
  5
1AE
330
1E
100
AcDbEntity
  8
2
100
AcDbLine
 10
444.5
 20
283.4999999999999
 30
0.0
 11
456.5
 21
283.4999999999999
 31
0.0
  0
LINE
  5
1AF
330
1E
100
AcDbEntity
  8
2
100
AcDbLine
 10
443.5
 20
272.5
 30
0.0
 11
444.5
 21
273.4999999999998
 31
0.0
  0
LINE
  5
1B0
330
1E
100
AcDbEntity
  8
2
100
AcDbLine
 10
444.5
 20
273.4999999999998
 30
0.0
 11
456.5
 21
273.4999999999998
 31
0.0
  0
LINE
  5
1B1
330
1E
100
AcDbEntity
  8
2
100
AcDbLine
 10
452.5
 20
272.5
 30
0.0
 11
456.5
 21
272.5
 31
0.0
  0
LINE
  5
1B2
330
1E
100
AcDbEntity
  8
2
100
AcDbLine
 10
443.5
 20
284.5
 30
0.0
 11
443.5
 21
272.5
 31
0.0
  0
LINE
  5
1B3
330
1E
100
AcDbEntity
  8
2
100
AcDbLine
 10
444.5
 20
283.4999999999999
 30
0.0
 11
444.5
 21
273.4999999999998
 31
0.0
  0
LINE
  5
1B4
330
1E
100
AcDbEntity
  8
2
100
AcDbLine
 10
477.0
 20
272.5
 30
0.0
 11
478.5
 21
273.4999999999998
 31
0.0
  0
LINE
  5
1B5
330
1E
100
AcDbEntity
  8
2
100
AcDbLine
 10
478.5
 20
273.4999999999998
 30
0.0
 11
478.5
 21
283.4999999999999
 31
0.0
  0
LINE
  5
1B6
330
1E
100
AcDbEntity
  8
2
100
AcDbLine
 10
478.5
 20
283.4999999999999
 30
0.0
 11
477.0
 21
284.5
 31
0.0
  0
LINE
  5
1B7
330
1E
100
AcDbEntity
  8
2
100
AcDbLine
 10
477.0
 20
284.5
 30
0.0
 11
477.0
 21
272.5
 31
0.0
  0
LINE
  5
1B8
330
1E
100
AcDbEntity
  8
0
100
AcDbLine
 10
460.0
 20
55.5
 30
0.0
 11
460.0
 21
101.5
 31
0.0
  0
LINE
  5
1B9
330
1E
100
AcDbEntity
  8
2
100
AcDbLine
 10
458.0
 20
104.4999999999999
 30
0.0
 11
457.0
 21
103.4999999999999
 31
0.0
  0
LINE
  5
1BA
330
1E
100
AcDbEntity
  8
2
100
AcDbLine
 10
457.0
 20
103.4999999999999
 30
0.0
 11
457.0
 21
101.5
 31
0.0
  0
LINE
  5
1BB
330
1E
100
AcDbEntity
  8
2
100
AcDbLine
 10
444.5
 20
83.49999999999999
 30
0.0
 11
444.5
 21
73.5
 31
0.0
  0
LINE
  5
1BC
330
1E
100
AcDbEntity
  8
2
100
AcDbLine
 10
443.5
 20
84.50000000000001
 30
0.0
 11
443.5
 21
72.5
 31
0.0
  0
LINE
  5
1BD
330
1E
100
AcDbEntity
  8
2
100
AcDbLine
 10
452.5
 20
93.49999999999999
 30
0.0
 11
452.5
 21
63.5
 31
0.0
  0
LINE
  5
1BE
330
1E
100
AcDbEntity
  8
2
100
AcDbLine
 10
444.5
 20
73.5
 30
0.0
 11
456.5
 21
73.5
 31
0.0
  0
LINE
  5
1BF
330
1E
100
AcDbEntity
  8
2
100
AcDbLine
 10
443.5
 20
72.5
 30
0.0
 11
452.5
 21
72.5
 31
0.0
  0
LINE
  5
1C0
330
1E
100
AcDbEntity
  8
2
100
AcDbLine
 10
433.4999999999999
 20
69.5
 30
0.0
 11
443.5
 21
69.5
 31
0.0
  0
LINE
  5
1C1
330
1E
100
AcDbEntity
  8
2
100
AcDbLine
 10
432.5
 20
69.0
 30
0.0
 11
443.5
 21
69.0
 31
0.0
  0
LINE
  5
1C2
330
1E
100
AcDbEntity
  8
2
100
AcDbLine
 10
432.5
 20
70.5
 30
0.0
 11
433.4999999999999
 21
69.5
 31
0.0
  0
LINE
  5
1C3
330
1E
100
AcDbEntity
  8
2
100
AcDbLine
 10
443.5
 20
72.5
 30
0.0
 11
444.5
 21
73.5
 31
0.0
  0
LINE
  5
1C4
330
1E
100
AcDbEntity
  8
2
100
AcDbLine
 10
443.5
 20
69.0
 30
0.0
 11
443.5
 21
72.5
 31
0.0
  0
LINE
  5
1C5
330
1E
100
AcDbEntity
  8
2
100
AcDbLine
 10
452.5
 20
63.5
 30
0.0
 11
456.0463500430903
 21
62.31788331896986
 31
0.0
  0
LINE
  5
1C6
330
1E
100
AcDbEntity
  8
2
100
AcDbLine
 10
452.5
 20
72.5
 30
0.0
 11
456.5
 21
72.5
 31
0.0
  0
LINE
  5
1C7
330
1E
100
AcDbEntity
  8
2
100
AcDbLine
 10
444.5
 20
83.49999999999999
 30
0.0
 11
456.5
 21
83.49999999999999
 31
0.0
  0
LINE
  5
1C8
330
1E
100
AcDbEntity
  8
2
100
AcDbLine
 10
443.5
 20
84.50000000000001
 30
0.0
 11
452.5
 21
84.50000000000001
 31
0.0
  0
LINE
  5
1C9
330
1E
100
AcDbEntity
  8
2
100
AcDbLine
 10
433.4999999999999
 20
87.5
 30
0.0
 11
443.5
 21
87.5
 31
0.0
  0
LINE
  5
1CA
330
1E
100
AcDbEntity
  8
2
100
AcDbLine
 10
432.5
 20
88.0
 30
0.0
 11
443.5
 21
88.0
 31
0.0
  0
LINE
  5
1CB
330
1E
100
AcDbEntity
  8
2
100
AcDbLine
 10
432.5
 20
86.5
 30
0.0
 11
433.4999999999999
 21
87.5
 31
0.0
  0
LINE
  5
1CC
330
1E
100
AcDbEntity
  8
2
100
AcDbLine
 10
432.5
 20
78.5
 30
0.0
 11
432.5
 21
86.5
 31
0.0
  0
LINE
  5
1CD
330
1E
100
AcDbEntity
  8
2
100
AcDbLine
 10
443.5
 20
84.50000000000001
 30
0.0
 11
444.5
 21
83.49999999999999
 31
0.0
  0
LINE
  5
1CE
330
1E
100
AcDbEntity
  8
2
100
AcDbLine
 10
443.5
 20
88.0
 30
0.0
 11
443.5
 21
84.50000000000001
 31
0.0
  0
LINE
  5
1CF
330
1E
100
AcDbEntity
  8
2
100
AcDbLine
 10
452.5
 20
84.50000000000001
 30
0.0
 11
456.5
 21
84.50000000000001
 31
0.0
  0
LINE
  5
1D0
330
1E
100
AcDbEntity
  8
0
100
AcDbLine
 10
432.5
 20
78.5
 30
0.0
 11
432.5
 21
103.4999999999999
 31
0.0
  0
LINE
  5
1D1
330
1E
100
AcDbEntity
  8
0
100
AcDbLine
 10
432.5
 20
103.4999999999999
 30
0.0
 11
433.4999999999999
 21
104.4999999999999
 31
0.0
  0
LINE
  5
1D2
330
1E
100
AcDbEntity
  8
0
100
AcDbLine
 10
433.4999999999999
 20
104.4999999999999
 30
0.0
 11
456.0
 21
104.4999999999999
 31
0.0
  0
LINE
  5
1D3
330
1E
100
AcDbEntity
  8
0
100
AcDbLine
 10
432.5
 20
78.5
 30
0.0
 11
432.5
 21
53.5
 31
0.0
  0
LINE
  5
1D4
330
1E
100
AcDbEntity
  8
0
100
AcDbLine
 10
432.5
 20
53.5
 30
0.0
 11
433.4999999999999
 21
52.5
 31
0.0
  0
LINE
  5
1D5
330
1E
100
AcDbEntity
  8
0
100
AcDbLine
 10
433.4999999999999
 20
52.5
 30
0.0
 11
456.0
 21
52.5
 31
0.0
  0
LINE
  5
1D6
330
1E
100
AcDbEntity
  8
2
100
AcDbLine
 10
456.5
 20
84.50000000000001
 30
0.0
 11
491.9999999999999
 21
84.50000000000001
 31
0.0
  0
LINE
  5
1D7
330
1E
100
AcDbEntity
  8
2
100
AcDbLine
 10
456.5
 20
83.49999999999999
 30
0.0
 11
491.9999999999999
 21
83.49999999999999
 31
0.0
  0
LINE
  5
1D8
330
1E
100
AcDbEntity
  8
2
100
AcDbLine
 10
455.4999999999999
 20
73.5
 30
0.0
 11
491.9999999999999
 21
73.5
 31
0.0
  0
LINE
  5
1D9
330
1E
100
AcDbEntity
  8
2
100
AcDbLine
 10
456.0
 20
72.5
 30
0.0
 11
491.9999999999999
 21
72.5
 31
0.0
  0
LINE
  5
1DA
330
1E
100
AcDbEntity
  8
2
100
AcDbLine
 10
478.5
 20
73.5
 30
0.0
 11
478.5
 21
83.49999999999999
 31
0.0
  0
LINE
  5
1DB
330
1E
100
AcDbEntity
  8
2
100
AcDbLine
 10
478.5
 20
83.49999999999999
 30
0.0
 11
477.0
 21
84.50000000000001
 31
0.0
  0
LINE
  5
1DC
330
1E
100
AcDbEntity
  8
2
100
AcDbLine
 10
477.0
 20
84.50000000000001
 30
0.0
 11
477.0
 21
72.5
 31
0.0
  0
LINE
  5
1DD
330
1E
100
AcDbEntity
  8
2
100
AcDbLine
 10
477.0
 20
72.5
 30
0.0
 11
478.5
 21
73.5
 31
0.0
  0
LINE
  5
1DE
330
1E
100
AcDbEntity
  8
0
100
AcDbLine
 10
420.9999999999999
 20
78.5
 30
0.0
 11
420.9999999999999
 21
98.50000000000001
 31
0.0
  0
LINE
  5
1DF
330
1E
100
AcDbEntity
  8
0
100
AcDbLine
 10
420.9999999999999
 20
78.5
 30
0.0
 11
420.9999999999999
 21
58.5
 31
0.0
  0
LINE
  5
1E0
330
1E
100
AcDbEntity
  8
0
100
AcDbLine
 10
420.9999999999999
 20
98.50000000000001
 30
0.0
 11
432.5
 21
101.0
 31
0.0
  0
LINE
  5
1E1
330
1E
100
AcDbEntity
  8
0
100
AcDbLine
 10
420.9999999999999
 20
58.5
 30
0.0
 11
432.5
 21
56.0
 31
0.0
  0
LINE
  5
1E2
330
1E
100
AcDbEntity
  8
2
100
AcDbLine
 10
432.5
 20
101.0
 30
0.0
 11
446.4999999999999
 21
101.0
 31
0.0
  0
LINE
  5
1E3
330
1E
100
AcDbEntity
  8
2
100
AcDbLine
 10
446.4999999999999
 20
101.0
 30
0.0
 11
447.5
 21
100.0
 31
0.0
  0
LINE
  5
1E4
330
1E
100
AcDbEntity
  8
2
100
AcDbLine
 10
447.5
 20
100.0
 30
0.0
 11
447.5
 21
57.0
 31
0.0
  0
LINE
  5
1E5
330
1E
100
AcDbEntity
  8
2
100
AcDbLine
 10
447.5
 20
57.0
 30
0.0
 11
446.4999999999999
 21
56.0
 31
0.0
  0
LINE
  5
1E6
330
1E
100
AcDbEntity
  8
2
100
AcDbLine
 10
446.4999999999999
 20
56.0
 30
0.0
 11
432.5
 21
56.0
 31
0.0
  0
LINE
  5
1E7
330
1E
100
AcDbEntity
  8
2
100
AcDbLine
 10
447.5
 20
94.0
 30
0.0
 11
435.5
 21
94.0
 31
0.0
  0
LINE
  5
1E8
330
1E
100
AcDbEntity
  8
2
100
AcDbLine
 10
435.5
 20
94.0
 30
0.0
 11
435.5
 21
88.49999999999999
 31
0.0
  0
LINE
  5
1E9
330
1E
100
AcDbEntity
  8
2
100
AcDbLine
 10
435.5
 20
88.49999999999999
 30
0.0
 11
420.9999999999999
 21
88.49999999999999
 31
0.0
  0
LINE
  5
1EA
330
1E
100
AcDbEntity
  8
2
100
AcDbLine
 10
447.5
 20
63.0
 30
0.0
 11
435.5
 21
63.0
 31
0.0
  0
LINE
  5
1EB
330
1E
100
AcDbEntity
  8
2
100
AcDbLine
 10
435.5
 20
63.0
 30
0.0
 11
435.5
 21
68.5
 31
0.0
  0
LINE
  5
1EC
330
1E
100
AcDbEntity
  8
2
100
AcDbLine
 10
435.5
 20
68.5
 30
0.0
 11
420.9999999999999
 21
68.5
 31
0.0
  0
LINE
  5
1ED
330
1E
100
AcDbEntity
  8
2
100
AcDbLine
 10
435.5
 20
68.5
 30
0.0
 11
435.5
 21
70.5
 31
0.0
  0
LINE
  5
1EE
330
1E
100
AcDbEntity
  8
2
100
AcDbLine
 10
435.5
 20
70.5
 30
0.0
 11
420.9999999999999
 21
70.5
 31
0.0
  0
LINE
  5
1EF
330
1E
100
AcDbEntity
  8
5
100
AcDbLine
 10
435.5
 20
93.49999999999999
 30
0.0
 11
448.5
 21
93.49999999999999
 31
0.0
  0
LINE
  5
1F0
330
1E
100
AcDbEntity
  8
5
100
AcDbLine
 10
448.5
 20
93.49999999999999
 30
0.0
 11
449.4999999999999
 21
92.5
 31
0.0
  0
LINE
  5
1F1
330
1E
100
AcDbEntity
  8
5
100
AcDbLine
 10
435.5
 20
63.5
 30
0.0
 11
448.5
 21
63.5
 31
0.0
  0
LINE
  5
1F2
330
1E
100
AcDbEntity
  8
5
100
AcDbLine
 10
448.5
 20
63.5
 30
0.0
 11
449.4999999999999
 21
64.5
 31
0.0
  0
LINE
  5
1F3
330
1E
100
AcDbEntity
  8
5
100
AcDbLine
 10
449.4999999999999
 20
64.5
 30
0.0
 11
449.4999999999999
 21
92.5
 31
0.0
  0
LINE
  5
1F8
330
1E
100
AcDbEntity
  8
5
100
AcDbLine
 10
432.5
 20
84.50000000000001
 30
0.0
 11
439.5
 21
84.50000000000001
 31
0.0
  0
LINE
  5
1F9
330
1E
100
AcDbEntity
  8
5
100
AcDbLine
 10
439.5
 20
84.50000000000001
 30
0.0
 11
439.5
 21
72.5
 31
0.0
  0
LINE
  5
1FA
330
1E
100
AcDbEntity
  8
5
100
AcDbLine
 10
439.5
 20
72.5
 30
0.0
 11
432.5
 21
72.5
 31
0.0
  0
LINE
  5
1FB
330
1E
100
AcDbEntity
  8
5
100
AcDbLine
 10
432.5
 20
81.5
 30
0.0
 11
439.5
 21
81.5
 31
0.0
  0
LINE
  5
1FC
330
1E
100
AcDbEntity
  8
5
100
AcDbLine
 10
432.5
 20
76.0
 30
0.0
 11
439.5
 21
76.0
 31
0.0
  0
LINE
  5
1FD
330
1E
100
AcDbEntity
  8
2
100
AcDbLine
 10
435.5
 20
88.49999999999999
 30
0.0
 11
435.5
 21
86.5
 31
0.0
  0
LINE
  5
1FE
330
1E
100
AcDbEntity
  8
2
100
AcDbLine
 10
435.5
 20
86.5
 30
0.0
 11
420.9999999999999
 21
86.5
 31
0.0
  0
LINE
  5
1FF
330
1E
100
AcDbEntity
  8
1
100
AcDbLine
 10
429.0
 20
339.9999999999999
 30
0.0
 11
429.0
 21
326.5
 31
0.0
  0
CIRCLE
  5
200
330
1E
100
AcDbEntity
  8
0
100
AcDbCircle
 10
429.0
 20
333.4999999999999
 30
0.0
 40
3.0
  0
CIRCLE
  5
201
330
1E
100
AcDbEntity
  8
0
100
AcDbCircle
 10
429.0
 20
333.4999999999999
 30
0.0
 40
2.5
  0
POLYLINE
  5
202
330
1E
100
AcDbEntity
  8
0
100
AcDb2dPolyline
 66
     1
 10
0.0
 20
0.0
 30
0.0
 70
     1
  0
VERTEX
  5
203
330
202
100
AcDbEntity
  8
0
100
AcDbVertex
100
AcDb2dVertex
 10
429.0
 20
335.0
 30
0.0
  0
VERTEX
  5
204
330
202
100
AcDbEntity
  8
0
100
AcDbVertex
100
AcDb2dVertex
 10
427.7009618943234
 20
334.25
 30
0.0
  0
VERTEX
  5
205
330
202
100
AcDbEntity
  8
0
100
AcDbVertex
100
AcDb2dVertex
 10
427.7009618943232
 20
332.75
 30
0.0
  0
VERTEX
  5
206
330
202
100
AcDbEntity
  8
0
100
AcDbVertex
100
AcDb2dVertex
 10
429.0
 20
332.0
 30
0.0
  0
VERTEX
  5
207
330
202
100
AcDbEntity
  8
0
100
AcDbVertex
100
AcDb2dVertex
 10
430.2990381056766
 20
332.75
 30
0.0
  0
VERTEX
  5
208
330
202
100
AcDbEntity
  8
0
100
AcDbVertex
100
AcDb2dVertex
 10
430.2990381056766
 20
334.25
 30
0.0
  0
SEQEND
  5
209
330
202
100
AcDbEntity
  8
0
  0
LINE
  5
20A
330
1E
100
AcDbEntity
  8
2
100
AcDbLine
 10
175.5
 20
336.5
 30
0.0
 11
168.5
 21
336.5
 31
0.0
  0
LINE
  5
20B
330
1E
100
AcDbEntity
  8
2
100
AcDbLine
 10
175.5
 20
335.9999999999998
 30
0.0
 11
168.5
 21
335.9999999999998
 31
0.0
  0
LINE
  5
20C
330
1E
100
AcDbEntity
  8
2
100
AcDbLine
 10
175.5
 20
331.0
 30
0.0
 11
168.5
 21
331.0
 31
0.0
  0
LINE
  5
20D
330
1E
100
AcDbEntity
  8
2
100
AcDbLine
 10
175.5
 20
330.5
 30
0.0
 11
168.5
 21
330.5
 31
0.0
  0
LINE
  5
20E
330
1E
100
AcDbEntity
  8
2
100
AcDbLine
 10
168.5
 20
335.9999999999998
 30
0.0
 11
168.5
 21
331.0
 31
0.0
  0
LINE
  5
20F
330
1E
100
AcDbEntity
  8
2
100
AcDbLine
 10
168.5
 20
331.0
 30
0.0
 11
168.9999999999998
 21
330.5
 31
0.0
  0
LINE
  5
210
330
1E
100
AcDbEntity
  8
2
100
AcDbLine
 10
168.9999999999998
 20
330.5
 30
0.0
 11
168.9999999999998
 21
336.5
 31
0.0
  0
LINE
  5
211
330
1E
100
AcDbEntity
  8
2
100
AcDbLine
 10
168.9999999999998
 20
336.5
 30
0.0
 11
168.5
 21
335.9999999999998
 31
0.0
  0
LINE
  5
212
330
1E
100
AcDbEntity
  8
2
100
AcDbLine
 10
172.9999999999998
 20
336.5
 30
0.0
 11
172.9999999999998
 21
335.0
 31
0.0
  0
LINE
  5
213
330
1E
100
AcDbEntity
  8
2
100
AcDbLine
 10
172.9999999999998
 20
335.0
 30
0.0
 11
171.9999999999998
 21
335.0
 31
0.0
  0
LINE
  5
214
330
1E
100
AcDbEntity
  8
2
100
AcDbLine
 10
171.9999999999998
 20
335.0
 30
0.0
 11
171.9999999999998
 21
332.0
 31
0.0
  0
LINE
  5
215
330
1E
100
AcDbEntity
  8
2
100
AcDbLine
 10
171.9999999999998
 20
332.0
 30
0.0
 11
172.9999999999998
 21
332.0
 31
0.0
  0
LINE
  5
216
330
1E
100
AcDbEntity
  8
2
100
AcDbLine
 10
172.9999999999998
 20
332.0
 30
0.0
 11
172.9999999999998
 21
330.5
 31
0.0
  0
LINE
  5
217
330
1E
100
AcDbEntity
  8
2
100
AcDbLine
 10
172.9999999999998
 20
330.5
 30
0.0
 11
173.5
 21
331.0
 31
0.0
  0
LINE
  5
218
330
1E
100
AcDbEntity
  8
2
100
AcDbLine
 10
173.5
 20
331.0
 30
0.0
 11
173.5
 21
332.0
 31
0.0
  0
LINE
  5
219
330
1E
100
AcDbEntity
  8
2
100
AcDbLine
 10
173.5
 20
332.0
 30
0.0
 11
172.9999999999998
 21
332.0
 31
0.0
  0
LINE
  5
21A
330
1E
100
AcDbEntity
  8
2
100
AcDbLine
 10
172.9999999999998
 20
336.5
 30
0.0
 11
173.5
 21
335.9999999999998
 31
0.0
  0
LINE
  5
21B
330
1E
100
AcDbEntity
  8
2
100
AcDbLine
 10
173.5
 20
335.9999999999998
 30
0.0
 11
173.5
 21
335.0
 31
0.0
  0
LINE
  5
21C
330
1E
100
AcDbEntity
  8
2
100
AcDbLine
 10
173.5
 20
335.0
 30
0.0
 11
172.9999999999998
 21
335.0
 31
0.0
  0
ARC
  5
21D
330
1E
100
AcDbEntity
  8
4
100
AcDbCircle
 10
394.9375
 20
479.4999999999999
 30
0.0
 40
6.0625
100
AcDbArc
 50
312.0750220508436
 51
47.92497794915634
  0
LINE
  5
21E
330
1E
100
AcDbEntity
  8
4
100
AcDbLine
 10
400.9999999999999
 20
477.0
 30
0.0
 11
399.0
 21
475.0
 31
0.0
  0
ARC
  5
21F
330
1E
100
AcDbEntity
  8
4
100
AcDbCircle
 10
383.9999999999999
 20
491.9999999999999
 30
0.0
 40
17.0
100
AcDbArc
 50
331.9275130641469
 51
28.07248693585297
  0
ARC
  5
220
330
1E
100
AcDbEntity
  8
4
100
AcDbCircle
 10
394.9375
 20
504.4999999999999
 30
0.0
 40
6.0625
100
AcDbArc
 50
312.0750220508436
 51
47.92497794915639
  0
LINE
  5
221
330
1E
100
AcDbEntity
  8
4
100
AcDbLine
 10
399.0
 20
508.9999999999999
 30
0.0
 11
400.9999999999999
 21
507.0
 31
0.0
  0
LINE
  5
222
330
1E
100
AcDbEntity
  8
4
100
AcDbLine
 10
364.9999999999999
 20
477.0
 30
0.0
 11
364.9999999999999
 21
507.0
 31
0.0
  0
ARC
  5
223
330
1E
100
AcDbEntity
  8
4
100
AcDbCircle
 10
371.0625
 20
479.4999999999999
 30
0.0
 40
6.0625
100
AcDbArc
 50
132.0750220508436
 51
227.9249779491562
  0
LINE
  5
224
330
1E
100
AcDbEntity
  8
4
100
AcDbLine
 10
389.0
 20
477.0
 30
0.0
 11
389.0
 21
507.0
 31
0.0
  0
LINE
  5
225
330
1E
100
AcDbEntity
  8
4
100
AcDbLine
 10
377.0
 20
507.0
 30
0.0
 11
377.0
 21
477.0
 31
0.0
  0
ARC
  5
226
330
1E
100
AcDbEntity
  8
4
100
AcDbCircle
 10
370.9375
 20
479.4999999999999
 30
0.0
 40
6.0625
100
AcDbArc
 50
312.0750220508436
 51
47.92497794915634
  0
ARC
  5
227
330
1E
100
AcDbEntity
  8
4
100
AcDbCircle
 10
395.0625
 20
479.4999999999999
 30
0.0
 40
6.0625
100
AcDbArc
 50
132.0750220508436
 51
227.9249779491562
  0
LINE
  5
228
330
1E
100
AcDbEntity
  8
4
100
AcDbLine
 10
375.0
 20
475.0
 30
0.0
 11
366.9999999999999
 21
475.0
 31
0.0
  0
LINE
  5
229
330
1E
100
AcDbEntity
  8
4
100
AcDbLine
 10
366.9999999999999
 20
475.0
 30
0.0
 11
364.9999999999999
 21
477.0
 31
0.0
  0
LINE
  5
22A
330
1E
100
AcDbEntity
  8
4
100
AcDbLine
 10
377.0
 20
477.0
 30
0.0
 11
375.0
 21
475.0
 31
0.0
  0
LINE
  5
22B
330
1E
100
AcDbEntity
  8
4
100
AcDbLine
 10
399.0
 20
475.0
 30
0.0
 11
391.0
 21
475.0
 31
0.0
  0
LINE
  5
22C
330
1E
100
AcDbEntity
  8
4
100
AcDbLine
 10
391.0
 20
475.0
 30
0.0
 11
389.0
 21
477.0
 31
0.0
  0
LINE
  5
22D
330
1E
100
AcDbEntity
  8
4
100
AcDbLine
 10
366.9999999999999
 20
483.9999999999999
 30
0.0
 11
375.0
 21
483.9999999999999
 31
0.0
  0
LINE
  5
22E
330
1E
100
AcDbEntity
  8
4
100
AcDbLine
 10
366.9999999999999
 20
500.0
 30
0.0
 11
375.0
 21
500.0
 31
0.0
  0
LINE
  5
22F
330
1E
100
AcDbEntity
  8
4
100
AcDbLine
 10
366.9999999999999
 20
508.9999999999999
 30
0.0
 11
375.0
 21
508.9999999999999
 31
0.0
  0
ARC
  5
230
330
1E
100
AcDbEntity
  8
4
100
AcDbCircle
 10
371.0625
 20
504.4999999999999
 30
0.0
 40
6.0625
100
AcDbArc
 50
132.0750220508436
 51
227.9249779491562
  0
LINE
  5
231
330
1E
100
AcDbEntity
  8
4
100
AcDbLine
 10
364.9999999999999
 20
502.0
 30
0.0
 11
353.0
 21
502.0
 31
0.0
  0
LINE
  5
232
330
1E
100
AcDbEntity
  8
4
100
AcDbLine
 10
364.9999999999999
 20
482.0
 30
0.0
 11
353.0
 21
482.0
 31
0.0
  0
LINE
  5
233
330
1E
100
AcDbEntity
  8
4
100
AcDbLine
 10
351.0
 20
500.0
 30
0.0
 11
364.9999999999999
 21
500.0
 31
0.0
  0
LINE
  5
234
330
1E
100
AcDbEntity
  8
4
100
AcDbLine
 10
351.0
 20
483.9999999999999
 30
0.0
 11
364.9999999999999
 21
483.9999999999999
 31
0.0
  0
LINE
  5
235
330
1E
100
AcDbEntity
  8
4
100
AcDbLine
 10
353.0
 20
482.0
 30
0.0
 11
353.0
 21
502.0
 31
0.0
  0
LINE
  5
236
330
1E
100
AcDbEntity
  8
4
100
AcDbLine
 10
351.0
 20
500.0
 30
0.0
 11
351.0
 21
483.9999999999999
 31
0.0
  0
LINE
  5
237
330
1E
100
AcDbEntity
  8
4
100
AcDbLine
 10
351.0
 20
483.9999999999999
 30
0.0
 11
353.0
 21
482.0
 31
0.0
  0
LINE
  5
238
330
1E
100
AcDbEntity
  8
4
100
AcDbLine
 10
353.0
 20
502.0
 30
0.0
 11
351.0
 21
500.0
 31
0.0
  0
ARC
  5
239
330
1E
100
AcDbEntity
  8
4
100
AcDbCircle
 10
382.0
 20
491.9999999999999
 30
0.0
 40
17.0
100
AcDbArc
 50
151.927513064147
 51
208.0724869358528
  0
LINE
  5
23A
330
1E
100
AcDbEntity
  8
4
100
AcDbLine
 10
364.9999999999999
 20
507.0
 30
0.0
 11
366.9999999999999
 21
508.9999999999999
 31
0.0
  0
ARC
  5
23B
330
1E
100
AcDbEntity
  8
4
100
AcDbCircle
 10
370.9375
 20
504.4999999999999
 30
0.0
 40
6.0625
100
AcDbArc
 50
312.0750220508436
 51
47.92497794915639
  0
ARC
  5
23C
330
1E
100
AcDbEntity
  8
4
100
AcDbCircle
 10
395.0625
 20
504.4999999999999
 30
0.0
 40
6.0625
100
AcDbArc
 50
132.0750220508436
 51
227.9249779491562
  0
LINE
  5
23D
330
1E
100
AcDbEntity
  8
4
100
AcDbLine
 10
389.0
 20
482.0
 30
0.0
 11
377.0
 21
482.0
 31
0.0
  0
LINE
  5
23E
330
1E
100
AcDbEntity
  8
4
100
AcDbLine
 10
377.0
 20
483.9999999999999
 30
0.0
 11
389.0
 21
483.9999999999999
 31
0.0
  0
LINE
  5
23F
330
1E
100
AcDbEntity
  8
4
100
AcDbLine
 10
377.0
 20
500.0
 30
0.0
 11
389.0
 21
500.0
 31
0.0
  0
LINE
  5
240
330
1E
100
AcDbEntity
  8
4
100
AcDbLine
 10
389.0
 20
502.0
 30
0.0
 11
377.0
 21
502.0
 31
0.0
  0
ARC
  5
241
330
1E
100
AcDbEntity
  8
4
100
AcDbCircle
 10
360.0
 20
491.9999999999999
 30
0.0
 40
17.0
100
AcDbArc
 50
331.9275130641469
 51
28.07248693585297
  0
ARC
  5
242
330
1E
100
AcDbEntity
  8
4
100
AcDbCircle
 10
406.0
 20
491.9999999999999
 30
0.0
 40
17.0
100
AcDbArc
 50
151.927513064147
 51
208.0724869358528
  0
LINE
  5
243
330
1E
100
AcDbEntity
  8
4
100
AcDbLine
 10
391.0
 20
483.9999999999999
 30
0.0
 11
399.0
 21
483.9999999999999
 31
0.0
  0
LINE
  5
244
330
1E
100
AcDbEntity
  8
4
100
AcDbLine
 10
391.0
 20
500.0
 30
0.0
 11
399.0
 21
500.0
 31
0.0
  0
LINE
  5
245
330
1E
100
AcDbEntity
  8
4
100
AcDbLine
 10
375.0
 20
508.9999999999999
 30
0.0
 11
377.0
 21
507.0
 31
0.0
  0
LINE
  5
246
330
1E
100
AcDbEntity
  8
4
100
AcDbLine
 10
391.0
 20
508.9999999999999
 30
0.0
 11
399.0
 21
508.9999999999999
 31
0.0
  0
LINE
  5
247
330
1E
100
AcDbEntity
  8
4
100
AcDbLine
 10
389.0
 20
507.0
 30
0.0
 11
391.0
 21
508.9999999999999
 31
0.0
  0
LINE
  5
248
330
1E
100
AcDbEntity
  8
0
100
AcDbLine
 10
495.9999999999999
 20
546.9999999999998
 30
0.0
 11
495.9999999999999
 21
516.0
 31
0.0
  0
LINE
  5
249
330
1E
100
AcDbEntity
  8
1
100
AcDbLine
 10
475.9999999999999
 20
426.4999999999999
 30
0.0
 11
475.9999999999999
 21
554.9999999999998
 31
0.0
  0
LINE
  5
24A
330
1E
100
AcDbEntity
  8
0
100
AcDbLine
 10
456.0
 20
546.9999999999998
 30
0.0
 11
456.0
 21
517.9999999999998
 31
0.0
  0
LINE
  5
24B
330
1E
100
AcDbEntity
  8
2
100
AcDbLine
 10
456.0
 20
486.0
 30
0.0
 11
491.9999999999999
 21
486.0
 31
0.0
  0
LINE
  5
24C
330
1E
100
AcDbEntity
  8
2
100
AcDbLine
 10
455.4999999999999
 20
487.0
 30
0.0
 11
491.9999999999999
 21
487.0
 31
0.0
  0
LINE
  5
24D
330
1E
100
AcDbEntity
  8
2
100
AcDbLine
 10
456.5
 20
496.9999999999999
 30
0.0
 11
491.9999999999999
 21
496.9999999999999
 31
0.0
  0
LINE
  5
24E
330
1E
100
AcDbEntity
  8
2
100
AcDbLine
 10
456.5
 20
498.0
 30
0.0
 11
491.9999999999999
 21
498.0
 31
0.0
  0
LINE
  5
24F
330
1E
100
AcDbEntity
  8
0
100
AcDbLine
 10
475.9999999999999
 20
436.0
 30
0.0
 11
457.0
 21
436.0
 31
0.0
  0
LINE
  5
250
330
1E
100
AcDbEntity
  8
4
100
AcDbLine
 10
400.9999999999999
 20
507.0
 30
0.0
 11
400.9999999999999
 21
477.0
 31
0.0
  0
LINE
  5
251
330
1E
100
AcDbEntity
  8
2
100
AcDbLine
 10
435.5
 20
476.4999999999999
 30
0.0
 11
435.5
 21
482.0
 31
0.0
  0
LINE
  5
252
330
1E
100
AcDbEntity
  8
0
100
AcDbLine
 10
420.9999999999999
 20
491.9999999999999
 30
0.0
 11
420.9999999999999
 21
471.9999999999999
 31
0.0
  0
LINE
  5
253
330
1E
100
AcDbEntity
  8
0
100
AcDbLine
 10
432.5
 20
491.9999999999999
 30
0.0
 11
432.5
 21
466.9999999999999
 31
0.0
  0
LINE
  5
254
330
1E
100
AcDbEntity
  8
2
100
AcDbLine
 10
452.5
 20
507.0
 30
0.0
 11
452.5
 21
477.0
 31
0.0
  0
LINE
  5
255
330
1E
100
AcDbEntity
  8
0
100
AcDbLine
 10
420.9999999999999
 20
471.9999999999999
 30
0.0
 11
432.5
 21
469.5
 31
0.0
  0
LINE
  5
256
330
1E
100
AcDbEntity
  8
0
100
AcDbLine
 10
456.0
 20
437.0
 30
0.0
 11
456.0
 21
466.0
 31
0.0
  0
LINE
  5
257
330
1E
100
AcDbEntity
  8
0
100
AcDbLine
 10
457.0
 20
436.0
 30
0.0
 11
456.0
 21
437.0
 31
0.0
  0
LINE
  5
258
330
1E
100
AcDbEntity
  8
2
100
AcDbLine
 10
447.5
 20
476.4999999999999
 30
0.0
 11
435.5
 21
476.4999999999999
 31
0.0
  0
LINE
  5
259
330
1E
100
AcDbEntity
  8
0
100
AcDbLine
 10
433.4999999999999
 20
466.0
 30
0.0
 11
456.0
 21
466.0
 31
0.0
  0
LINE
  5
25A
330
1E
100
AcDbEntity
  8
0
100
AcDbLine
 10
432.5
 20
466.9999999999999
 30
0.0
 11
433.4999999999999
 21
466.0
 31
0.0
  0
LINE
  5
25B
330
1E
100
AcDbEntity
  8
2
100
AcDbLine
 10
452.5
 20
477.0
 30
0.0
 11
455.9499999999998
 21
475.8499999999998
 31
0.0
  0
LINE
  5
25C
330
1E
100
AcDbEntity
  8
2
100
AcDbLine
 10
435.5
 20
500.0
 30
0.0
 11
420.9999999999999
 21
500.0
 31
0.0
  0
LINE
  5
25D
330
1E
100
AcDbEntity
  8
2
100
AcDbLine
 10
435.5
 20
483.9999999999999
 30
0.0
 11
420.9999999999999
 21
483.9999999999999
 31
0.0
  0
LINE
  5
25E
330
1E
100
AcDbEntity
  8
2
100
AcDbLine
 10
435.5
 20
482.0
 30
0.0
 11
420.9999999999999
 21
482.0
 31
0.0
  0
LINE
  5
25F
330
1E
100
AcDbEntity
  8
2
100
AcDbLine
 10
435.5
 20
502.0
 30
0.0
 11
420.9999999999999
 21
502.0
 31
0.0
  0
LINE
  5
260
330
1E
100
AcDbEntity
  8
0
100
AcDbLine
 10
420.9999999999999
 20
512.0
 30
0.0
 11
432.5
 21
514.5
 31
0.0
  0
LINE
  5
261
330
1E
100
AcDbEntity
  8
0
100
AcDbLine
 10
420.9999999999999
 20
491.9999999999999
 30
0.0
 11
420.9999999999999
 21
512.0
 31
0.0
  0
LINE
  5
262
330
1E
100
AcDbEntity
  8
4
100
AcDbLine
 10
420.9999999999999
 20
483.9999999999999
 30
0.0
 11
400.9999999999999
 21
483.9999999999999
 31
0.0
  0
LINE
  5
263
330
1E
100
AcDbEntity
  8
4
100
AcDbLine
 10
420.9999999999999
 20
482.0
 30
0.0
 11
400.9999999999999
 21
482.0
 31
0.0
  0
LINE
  5
264
330
1E
100
AcDbEntity
  8
4
100
AcDbLine
 10
420.9999999999999
 20
502.0
 30
0.0
 11
400.9999999999999
 21
502.0
 31
0.0
  0
LINE
  5
265
330
1E
100
AcDbEntity
  8
4
100
AcDbLine
 10
420.9999999999999
 20
500.0
 30
0.0
 11
400.9999999999999
 21
500.0
 31
0.0
  0
LINE
  5
266
330
1E
100
AcDbEntity
  8
2
100
AcDbLine
 10
435.5
 20
507.5
 30
0.0
 11
435.5
 21
502.0
 31
0.0
  0
LINE
  5
267
330
1E
100
AcDbEntity
  8
0
100
AcDbLine
 10
432.5
 20
491.9999999999999
 30
0.0
 11
432.5
 21
516.9999999999999
 31
0.0
  0
LINE
  5
268
330
1E
100
AcDbEntity
  8
2
100
AcDbLine
 10
443.5
 20
498.0
 30
0.0
 11
452.5
 21
498.0
 31
0.0
  0
LINE
  5
269
330
1E
100
AcDbEntity
  8
2
100
AcDbLine
 10
444.5
 20
496.9999999999999
 30
0.0
 11
456.5
 21
496.9999999999999
 31
0.0
  0
LINE
  5
26A
330
1E
100
AcDbEntity
  8
2
100
AcDbLine
 10
443.5
 20
486.0
 30
0.0
 11
452.5
 21
486.0
 31
0.0
  0
LINE
  5
26B
330
1E
100
AcDbEntity
  8
2
100
AcDbLine
 10
444.5
 20
487.0
 30
0.0
 11
456.5
 21
487.0
 31
0.0
  0
LINE
  5
26C
330
1E
100
AcDbEntity
  8
5
100
AcDbLine
 10
439.5
 20
498.0
 30
0.0
 11
439.5
 21
486.0
 31
0.0
  0
LINE
  5
26D
330
1E
100
AcDbEntity
  8
2
100
AcDbLine
 10
443.5
 20
498.0
 30
0.0
 11
443.5
 21
486.0
 31
0.0
  0
LINE
  5
26E
330
1E
100
AcDbEntity
  8
2
100
AcDbLine
 10
444.5
 20
496.9999999999999
 30
0.0
 11
444.5
 21
487.0
 31
0.0
  0
LINE
  5
26F
330
1E
100
AcDbEntity
  8
5
100
AcDbLine
 10
432.5
 20
489.5
 30
0.0
 11
439.5
 21
489.5
 31
0.0
  0
LINE
  5
270
330
1E
100
AcDbEntity
  8
5
100
AcDbLine
 10
439.5
 20
486.0
 30
0.0
 11
432.5
 21
486.0
 31
0.0
  0
LINE
  5
271
330
1E
100
AcDbEntity
  8
2
100
AcDbLine
 10
432.5
 20
482.5
 30
0.0
 11
443.5
 21
482.5
 31
0.0
  0
LINE
  5
272
330
1E
100
AcDbEntity
  8
2
100
AcDbLine
 10
433.4999999999999
 20
483.0
 30
0.0
 11
443.5
 21
483.0
 31
0.0
  0
LINE
  5
273
330
1E
100
AcDbEntity
  8
2
100
AcDbLine
 10
435.5
 20
482.0
 30
0.0
 11
435.5
 21
483.9999999999999
 31
0.0
  0
LINE
  5
274
330
1E
100
AcDbEntity
  8
2
100
AcDbLine
 10
432.5
 20
483.9999999999999
 30
0.0
 11
433.4999999999999
 21
483.0
 31
0.0
  0
LINE
  5
276
330
1E
100
AcDbEntity
  8
2
100
AcDbLine
 10
443.5
 20
482.5
 30
0.0
 11
443.5
 21
486.0
 31
0.0
  0
LINE
  5
277
330
1E
100
AcDbEntity
  8
2
100
AcDbLine
 10
443.5
 20
486.0
 30
0.0
 11
444.5
 21
487.0
 31
0.0
  0
LINE
  5
278
330
1E
100
AcDbEntity
  8
5
100
AcDbLine
 10
432.5
 20
495.0
 30
0.0
 11
439.5
 21
495.0
 31
0.0
  0
LINE
  5
279
330
1E
100
AcDbEntity
  8
5
100
AcDbLine
 10
432.5
 20
498.0
 30
0.0
 11
439.5
 21
498.0
 31
0.0
  0
LINE
  5
27A
330
1E
100
AcDbEntity
  8
2
100
AcDbLine
 10
432.5
 20
501.4999999999999
 30
0.0
 11
443.5
 21
501.4999999999999
 31
0.0
  0
LINE
  5
27B
330
1E
100
AcDbEntity
  8
2
100
AcDbLine
 10
433.4999999999999
 20
500.9999999999999
 30
0.0
 11
443.5
 21
500.9999999999999
 31
0.0
  0
LINE
  5
27C
330
1E
100
AcDbEntity
  8
2
100
AcDbLine
 10
435.5
 20
502.0
 30
0.0
 11
435.5
 21
500.0
 31
0.0
  0
LINE
  5
27D
330
1E
100
AcDbEntity
  8
2
100
AcDbLine
 10
432.5
 20
491.9999999999999
 30
0.0
 11
432.5
 21
500.0
 31
0.0
  0
LINE
  5
27E
330
1E
100
AcDbEntity
  8
2
100
AcDbLine
 10
432.5
 20
500.0
 30
0.0
 11
433.4999999999999
 21
500.9999999999999
 31
0.0
  0
LINE
  5
280
330
1E
100
AcDbEntity
  8
2
100
AcDbLine
 10
443.5
 20
501.4999999999999
 30
0.0
 11
443.5
 21
498.0
 31
0.0
  0
LINE
  5
281
330
1E
100
AcDbEntity
  8
2
100
AcDbLine
 10
443.5
 20
498.0
 30
0.0
 11
444.5
 21
496.9999999999999
 31
0.0
  0
LINE
  5
282
330
1E
100
AcDbEntity
  8
2
100
AcDbLine
 10
452.5
 20
486.0
 30
0.0
 11
456.5
 21
486.0
 31
0.0
  0
LINE
  5
283
330
1E
100
AcDbEntity
  8
2
100
AcDbLine
 10
452.5
 20
498.0
 30
0.0
 11
456.5
 21
498.0
 31
0.0
  0
LINE
  5
284
330
1E
100
AcDbEntity
  8
2
100
AcDbLine
 10
447.5
 20
507.5
 30
0.0
 11
435.5
 21
507.5
 31
0.0
  0
LINE
  5
285
330
1E
100
AcDbEntity
  8
0
100
AcDbLine
 10
433.4999999999999
 20
517.9999999999998
 30
0.0
 11
456.0
 21
517.9999999999998
 31
0.0
  0
LINE
  5
286
330
1E
100
AcDbEntity
  8
0
100
AcDbLine
 10
432.5
 20
516.9999999999999
 30
0.0
 11
433.4999999999999
 21
517.9999999999998
 31
0.0
  0
LINE
  5
287
330
1E
100
AcDbEntity
  8
0
100
AcDbLine
 10
491.9999999999999
 20
469.0
 30
0.0
 11
491.9999999999999
 21
515.0
 31
0.0
  0
LINE
  5
288
330
1E
100
AcDbEntity
  8
0
100
AcDbLine
 10
495.0
 20
469.0
 30
0.0
 11
491.9999999999999
 21
469.0
 31
0.0
  0
LINE
  5
289
330
1E
100
AcDbEntity
  8
0
100
AcDbLine
 10
475.9999999999999
 20
436.0
 30
0.0
 11
495.0
 21
436.0
 31
0.0
  0
LINE
  5
28A
330
1E
100
AcDbEntity
  8
1
100
AcDbLine
 10
463.9999999999999
 20
446.9999999999999
 30
0.0
 11
487.5
 21
446.9999999999999
 31
0.0
  0
LINE
  5
28B
330
1E
100
AcDbEntity
  8
0
100
AcDbLine
 10
495.9999999999999
 20
437.0
 30
0.0
 11
495.9999999999999
 21
467.9999999999999
 31
0.0
  0
LINE
  5
28C
330
1E
100
AcDbEntity
  8
0
100
AcDbLine
 10
495.0
 20
436.0
 30
0.0
 11
495.9999999999999
 21
437.0
 31
0.0
  0
LINE
  5
28D
330
1E
100
AcDbEntity
  8
0
100
AcDbLine
 10
495.9999999999999
 20
467.9999999999999
 30
0.0
 11
495.0
 21
469.0
 31
0.0
  0
LINE
  5
28E
330
1E
100
AcDbEntity
  8
0
100
AcDbLine
 10
495.0
 20
515.0
 30
0.0
 11
491.9999999999999
 21
515.0
 31
0.0
  0
LINE
  5
28F
330
1E
100
AcDbEntity
  8
2
100
AcDbLine
 10
477.0
 20
486.0
 30
0.0
 11
478.5
 21
487.0
 31
0.0
  0
LINE
  5
290
330
1E
100
AcDbEntity
  8
2
100
AcDbLine
 10
478.5
 20
496.9999999999999
 30
0.0
 11
477.0
 21
498.0
 31
0.0
  0
LINE
  5
291
330
1E
100
AcDbEntity
  8
2
100
AcDbLine
 10
477.0
 20
498.0
 30
0.0
 11
477.0
 21
486.0
 31
0.0
  0
LINE
  5
292
330
1E
100
AcDbEntity
  8
2
100
AcDbLine
 10
478.5
 20
487.0
 30
0.0
 11
478.5
 21
496.9999999999999
 31
0.0
  0
LINE
  5
293
330
1E
100
AcDbEntity
  8
0
100
AcDbLine
 10
495.9999999999999
 20
516.0
 30
0.0
 11
495.0
 21
515.0
 31
0.0
  0
LINE
  5
294
330
1E
100
AcDbEntity
  8
0
100
AcDbLine
 10
495.0
 20
548.0
 30
0.0
 11
457.0
 21
548.0
 31
0.0
  0
LINE
  5
295
330
1E
100
AcDbEntity
  8
0
100
AcDbLine
 10
457.0
 20
548.0
 30
0.0
 11
456.0
 21
546.9999999999998
 31
0.0
  0
LINE
  5
296
330
1E
100
AcDbEntity
  8
0
100
AcDbLine
 10
495.0
 20
548.0
 30
0.0
 11
495.9999999999999
 21
546.9999999999998
 31
0.0
  0
LINE
  5
297
330
1E
100
AcDbEntity
  8
0
100
AcDbLine
 10
491.9999999999999
 20
469.0
 30
0.0
 11
491.9999999999999
 21
466.9999999999999
 31
0.0
  0
LINE
  5
298
330
1E
100
AcDbEntity
  8
0
100
AcDbLine
 10
491.9999999999999
 20
466.9999999999999
 30
0.0
 11
491.0
 21
466.0
 31
0.0
  0
LINE
  5
299
330
1E
100
AcDbEntity
  8
0
100
AcDbLine
 10
491.0
 20
466.0
 30
0.0
 11
458.0
 21
466.0
 31
0.0
  0
LINE
  5
29A
330
1E
100
AcDbEntity
  8
0
100
AcDbLine
 10
458.0
 20
466.0
 30
0.0
 11
457.0
 21
467.4999999999999
 31
0.0
  0
LINE
  5
29B
330
1E
100
AcDbEntity
  8
0
100
AcDbLine
 10
491.9999999999999
 20
515.0
 30
0.0
 11
491.9999999999999
 21
516.9999999999999
 31
0.0
  0
LINE
  5
29C
330
1E
100
AcDbEntity
  8
0
100
AcDbLine
 10
491.9999999999999
 20
516.9999999999999
 30
0.0
 11
491.0
 21
517.9999999999998
 31
0.0
  0
LINE
  5
29D
330
1E
100
AcDbEntity
  8
0
100
AcDbLine
 10
457.0
 20
516.9999999999999
 30
0.0
 11
458.0
 21
517.9999999999998
 31
0.0
  0
LINE
  5
29E
330
1E
100
AcDbEntity
  8
0
100
AcDbLine
 10
491.0
 20
517.9999999999998
 30
0.0
 11
458.0
 21
517.9999999999998
 31
0.0
  0
LINE
  5
29F
330
1E
100
AcDbEntity
  8
0
100
AcDbLine
 10
432.5
 20
514.5
 30
0.0
 11
446.4999999999999
 21
514.5
 31
0.0
  0
LINE
  5
2A0
330
1E
100
AcDbEntity
  8
0
100
AcDbLine
 10
446.4999999999999
 20
514.5
 30
0.0
 11
447.5
 21
513.4999999999998
 31
0.0
  0
LINE
  5
2A1
330
1E
100
AcDbEntity
  8
0
100
AcDbLine
 10
447.5
 20
513.4999999999998
 30
0.0
 11
447.5
 21
470.5
 31
0.0
  0
LINE
  5
2A2
330
1E
100
AcDbEntity
  8
0
100
AcDbLine
 10
447.5
 20
470.5
 30
0.0
 11
446.4999999999999
 21
469.5
 31
0.0
  0
LINE
  5
2A3
330
1E
100
AcDbEntity
  8
0
100
AcDbLine
 10
446.4999999999999
 20
469.5
 30
0.0
 11
432.5
 21
469.5
 31
0.0
  0
LINE
  5
2A4
330
1E
100
AcDbEntity
  8
4
100
AcDbLine
 10
448.5
 20
507.0
 30
0.0
 11
449.4999999999999
 21
506.0
 31
0.0
  0
LINE
  5
2A5
330
1E
100
AcDbEntity
  8
4
100
AcDbLine
 10
449.4999999999999
 20
506.0
 30
0.0
 11
449.4999999999999
 21
478.0
 31
0.0
  0
LINE
  5
2A6
330
1E
100
AcDbEntity
  8
4
100
AcDbLine
 10
448.5
 20
477.0
 30
0.0
 11
449.4999999999999
 21
478.0
 31
0.0
  0
LINE
  5
2A9
330
1E
100
AcDbEntity
  8
4
100
AcDbLine
 10
448.5
 20
507.0
 30
0.0
 11
447.5
 21
507.0
 31
0.0
  0
LINE
  5
2AA
330
1E
100
AcDbEntity
  8
4
100
AcDbLine
 10
448.5
 20
477.0
 30
0.0
 11
447.5
 21
477.0
 31
0.0
  0
LINE
  5
2AB
330
1E
100
AcDbEntity
  8
5
100
AcDbLine
 10
447.5
 20
507.0
 30
0.0
 11
435.5
 21
507.0
 31
0.0
  0
LINE
  5
2AE
330
1E
100
AcDbEntity
  8
5
100
AcDbLine
 10
447.5
 20
477.0
 30
0.0
 11
435.5
 21
477.0
 31
0.0
  0
LINE
  5
2AF
330
1E
100
AcDbEntity
  8
2
100
AcDbLine
 10
460.0
 20
469.0
 30
0.0
 11
460.0
 21
515.0
 31
0.0
  0
LINE
  5
2B0
330
1E
100
AcDbEntity
  8
2
100
AcDbLine
 10
491.9999999999999
 20
515.0
 30
0.0
 11
457.0
 21
515.0
 31
0.0
  0
LINE
  5
2B1
330
1E
100
AcDbEntity
  8
2
100
AcDbLine
 10
491.9999999999999
 20
469.0
 30
0.0
 11
457.0
 21
469.0
 31
0.0
  0
LINE
  5
2B2
330
1E
100
AcDbEntity
  8
0
100
AcDbLine
 10
456.0
 20
517.9999999999998
 30
0.0
 11
457.0
 21
516.9999999999999
 31
0.0
  0
LINE
  5
2B3
330
1E
100
AcDbEntity
  8
0
100
AcDbLine
 10
456.0
 20
466.0
 30
0.0
 11
457.0
 21
467.4999999999999
 31
0.0
  0
LINE
  5
2B4
330
1E
100
AcDbEntity
  8
0
100
AcDbLine
 10
491.5
 20
531.5
 30
0.0
 11
491.5
 21
517.9999999999998
 31
0.0
  0
LINE
  5
2B5
330
1E
100
AcDbEntity
  8
0
100
AcDbLine
 10
460.5
 20
531.5
 30
0.0
 11
460.5
 21
517.9999999999998
 31
0.0
  0
LINE
  5
2B6
330
1E
100
AcDbEntity
  8
1
100
AcDbLine
 10
464.5
 20
537.0
 30
0.0
 11
487.9999999999999
 21
537.0
 31
0.0
  0
ARC
  5
2B7
330
1E
100
AcDbEntity
  8
0
100
AcDbCircle
 10
475.9999999999999
 20
531.5
 30
0.0
 40
15.5
100
AcDbArc
 50
0.0
 51
180.0
  0
CIRCLE
  5
2B8
330
1E
100
AcDbEntity
  8
0
100
AcDbCircle
 10
475.9999999999999
 20
537.0
 30
0.0
 40
5.5
  0
LINE
  5
2B9
330
1E
100
AcDbEntity
  8
1
100
AcDbLine
 10
464.5
 20
446.9999999999999
 30
0.0
 11
487.9999999999999
 21
446.9999999999999
 31
0.0
  0
ARC
  5
2BA
330
1E
100
AcDbEntity
  8
0
100
AcDbCircle
 10
475.9999999999999
 20
452.5
 30
0.0
 40
15.5
100
AcDbArc
 50
180.0
 51
0.0
  0
LINE
  5
2BB
330
1E
100
AcDbEntity
  8
0
100
AcDbLine
 10
460.5
 20
452.5
 30
0.0
 11
460.5
 21
466.0
 31
0.0
  0
CIRCLE
  5
2BC
330
1E
100
AcDbEntity
  8
0
100
AcDbCircle
 10
475.9999999999999
 20
446.9999999999999
 30
0.0
 40
5.5
  0
LINE
  5
2BD
330
1E
100
AcDbEntity
  8
0
100
AcDbLine
 10
491.5
 20
452.5
 30
0.0
 11
491.5
 21
466.0
 31
0.0
  0
LINE
  5
2BE
330
1E
100
AcDbEntity
  8
1
100
AcDbLine
 10
502.0
 20
491.9999999999999
 30
0.0
 11
341.9999999999999
 21
491.9999999999999
 31
0.0
  0
LINE
  5
2BF
330
1E
100
AcDbEntity
  8
1
100
AcDbLine
 10
456.0
 20
333.4999999999999
 30
0.0
 11
341.9999999999999
 21
333.4999999999999
 31
0.0
  0
LINE
  5
2C0
330
1E
100
AcDbEntity
  8
1
100
AcDbLine
 10
504.9999999999999
 20
78.5
 30
0.0
 11
341.0
 21
78.5
 31
0.0
  0
ARC
  5
2C1
330
1E
100
AcDbEntity
  8
2
100
AcDbCircle
 10
153.5
 20
278.5
 30
0.0
 40
55.0
100
AcDbArc
 50
353.1986851760184
 51
186.8636919146269
  0
ARC
  5
2C2
330
1E
100
AcDbEntity
  8
2
100
AcDbCircle
 10
153.5
 20
278.5
 30
0.0
 40
77.5
100
AcDbArc
 50
351.8174770021786
 51
187.8152935467668
  0
ARC
  5
2C3
330
1E
100
AcDbEntity
  8
2
100
AcDbCircle
 10
670.9999999999999
 20
278.5
 30
0.0
 40
55.0
100
AcDbArc
 50
350.1120111844222
 51
190.0690626988893
  0
ARC
  5
2C4
330
1E
100
AcDbEntity
  8
2
100
AcDbCircle
 10
670.9999999999999
 20
278.5
 30
0.0
 40
77.5
100
AcDbArc
 50
348.1113419603719
 51
191.9651288377488
  0
TEXT
  5
2C5
330
1E
100
AcDbEntity
  8
3
100
AcDbText
 10
646.5634942556436
 20
28.88513389249992
 30
0.0
 40
12.0
  1
ＳＴ－５０Ｒ－９０
 41
0.8
  7
BIGFONT
100
AcDbText
  0
LINE
  5
2C6
330
1E
100
AcDbEntity
  8
4
100
AcDbLine
 10
402.0
 20
502.0
 30
0.0
 11
400.9999999999999
 21
502.0
 31
0.0
  0
LINE
  5
2C7
330
1E
100
AcDbEntity
  8
4
100
AcDbLine
 10
403.0
 20
500.0
 30
0.0
 11
400.9999999999999
 21
500.0
 31
0.0
  0
LINE
  5
2C8
330
1E
100
AcDbEntity
  8
4
100
AcDbLine
 10
402.0
 20
483.9999999999999
 30
0.0
 11
400.9999999999999
 21
483.9999999999999
 31
0.0
  0
LINE
  5
2C9
330
1E
100
AcDbEntity
  8
4
100
AcDbLine
 10
402.5
 20
482.0
 30
0.0
 11
400.9999999999999
 21
482.0
 31
0.0
  0
LINE
  5
2CA
330
1E
100
AcDbEntity
  8
4
100
AcDbLine
 10
402.0
 20
341.5
 30
0.0
 11
400.9999999999999
 21
341.5
 31
0.0
  0
LINE
  5
2CB
330
1E
100
AcDbEntity
  8
4
100
AcDbLine
 10
402.0
 20
325.4999999999999
 30
0.0
 11
400.9999999999999
 21
325.4999999999999
 31
0.0
  0
LINE
  5
2CC
330
1E
100
AcDbEntity
  8
4
100
AcDbLine
 10
402.5
 20
323.4999999999998
 30
0.0
 11
400.9999999999999
 21
323.4999999999998
 31
0.0
  0
LINE
  5
2CD
330
1E
100
AcDbEntity
  8
4
100
AcDbLine
 10
402.0
 20
88.49999999999999
 30
0.0
 11
400.9999999999999
 21
88.49999999999999
 31
0.0
  0
LINE
  5
2CE
330
1E
100
AcDbEntity
  8
4
100
AcDbLine
 10
402.5
 20
86.5
 30
0.0
 11
400.9999999999999
 21
86.5
 31
0.0
  0
LINE
  5
2CF
330
1E
100
AcDbEntity
  8
4
100
AcDbLine
 10
402.5
 20
70.5
 30
0.0
 11
400.9999999999999
 21
70.5
 31
0.0
  0
LINE
  5
2D0
330
1E
100
AcDbEntity
  8
4
100
AcDbLine
 10
402.5
 20
68.5
 30
0.0
 11
400.9999999999999
 21
68.5
 31
0.0
  0
LINE
  5
2D1
330
1E
100
AcDbEntity
  8
2
100
AcDbLine
 10
491.9999999999999
 20
231.4999999999999
 30
0.0
 11
460.0
 21
231.4999999999999
 31
0.0
  0
LINE
  5
2D2
330
1E
100
AcDbEntity
  8
2
100
AcDbLine
 10
455.9499999999998
 20
508.15
 30
0.0
 11
452.5
 21
507.0
 31
0.0
  0
LINE
  5
2D3
330
1E
100
AcDbEntity
  8
3
100
AcDbLine
 10
457.0
 20
467.4999999999999
 30
0.0
 11
458.0
 21
467.9999999999999
 31
0.0
  0
LINE
  5
2D4
330
1E
100
AcDbEntity
  8
3
100
AcDbLine
 10
458.0
 20
467.9999999999999
 30
0.0
 11
456.0
 21
470.0
 31
0.0
  0
LINE
  5
2D5
330
1E
100
AcDbEntity
  8
3
100
AcDbLine
 10
456.0
 20
470.0
 30
0.0
 11
458.0
 21
471.9999999999999
 31
0.0
  0
LINE
  5
2D6
330
1E
100
AcDbEntity
  8
3
100
AcDbLine
 10
458.0
 20
471.9999999999999
 30
0.0
 11
456.0
 21
474.0
 31
0.0
  0
LINE
  5
2D7
330
1E
100
AcDbEntity
  8
3
100
AcDbLine
 10
456.0
 20
474.0
 30
0.0
 11
458.0
 21
475.9999999999999
 31
0.0
  0
LINE
  5
2D8
330
1E
100
AcDbEntity
  8
3
100
AcDbLine
 10
458.0
 20
475.9999999999999
 30
0.0
 11
456.0
 21
478.0
 31
0.0
  0
LINE
  5
2D9
330
1E
100
AcDbEntity
  8
3
100
AcDbLine
 10
456.0
 20
478.0
 30
0.0
 11
458.0
 21
479.9999999999999
 31
0.0
  0
LINE
  5
2DA
330
1E
100
AcDbEntity
  8
3
100
AcDbLine
 10
458.0
 20
479.9999999999999
 30
0.0
 11
456.0
 21
482.0
 31
0.0
  0
LINE
  5
2DB
330
1E
100
AcDbEntity
  8
3
100
AcDbLine
 10
456.0
 20
482.0
 30
0.0
 11
458.0
 21
483.9999999999999
 31
0.0
  0
LINE
  5
2DC
330
1E
100
AcDbEntity
  8
3
100
AcDbLine
 10
458.0
 20
483.9999999999999
 30
0.0
 11
456.0
 21
486.0
 31
0.0
  0
LINE
  5
2DD
330
1E
100
AcDbEntity
  8
3
100
AcDbLine
 10
456.0
 20
486.0
 30
0.0
 11
458.0
 21
487.9999999999999
 31
0.0
  0
LINE
  5
2DE
330
1E
100
AcDbEntity
  8
3
100
AcDbLine
 10
458.0
 20
487.9999999999999
 30
0.0
 11
456.0
 21
490.0
 31
0.0
  0
LINE
  5
2DF
330
1E
100
AcDbEntity
  8
3
100
AcDbLine
 10
456.0
 20
490.0
 30
0.0
 11
458.0
 21
491.9999999999999
 31
0.0
  0
LINE
  5
2E0
330
1E
100
AcDbEntity
  8
3
100
AcDbLine
 10
458.0
 20
491.9999999999999
 30
0.0
 11
456.0
 21
494.0
 31
0.0
  0
LINE
  5
2E1
330
1E
100
AcDbEntity
  8
3
100
AcDbLine
 10
456.0
 20
494.0
 30
0.0
 11
458.0
 21
495.9999999999999
 31
0.0
  0
LINE
  5
2E2
330
1E
100
AcDbEntity
  8
3
100
AcDbLine
 10
458.0
 20
495.9999999999999
 30
0.0
 11
456.0
 21
498.0
 31
0.0
  0
LINE
  5
2E3
330
1E
100
AcDbEntity
  8
3
100
AcDbLine
 10
456.0
 20
498.0
 30
0.0
 11
458.0
 21
500.0
 31
0.0
  0
LINE
  5
2E4
330
1E
100
AcDbEntity
  8
3
100
AcDbLine
 10
458.0
 20
500.0
 30
0.0
 11
456.0
 21
502.0
 31
0.0
  0
LINE
  5
2E5
330
1E
100
AcDbEntity
  8
3
100
AcDbLine
 10
456.0
 20
502.0
 30
0.0
 11
458.0
 21
504.0
 31
0.0
  0
LINE
  5
2E6
330
1E
100
AcDbEntity
  8
3
100
AcDbLine
 10
458.0
 20
504.0
 30
0.0
 11
456.0
 21
506.0
 31
0.0
  0
LINE
  5
2E7
330
1E
100
AcDbEntity
  8
3
100
AcDbLine
 10
456.0
 20
506.0
 30
0.0
 11
458.0
 21
508.0
 31
0.0
  0
LINE
  5
2E8
330
1E
100
AcDbEntity
  8
3
100
AcDbLine
 10
458.0
 20
508.0
 30
0.0
 11
456.0
 21
510.0
 31
0.0
  0
LINE
  5
2E9
330
1E
100
AcDbEntity
  8
3
100
AcDbLine
 10
456.0
 20
510.0
 30
0.0
 11
458.0
 21
512.0
 31
0.0
  0
LINE
  5
2EA
330
1E
100
AcDbEntity
  8
3
100
AcDbLine
 10
458.0
 20
512.0
 30
0.0
 11
456.0
 21
513.9999999999998
 31
0.0
  0
LINE
  5
2EB
330
1E
100
AcDbEntity
  8
3
100
AcDbLine
 10
456.0
 20
513.9999999999998
 30
0.0
 11
458.0
 21
516.0
 31
0.0
  0
LINE
  5
2EC
330
1E
100
AcDbEntity
  8
3
100
AcDbLine
 10
458.0
 20
516.0
 30
0.0
 11
457.0
 21
516.9999999999999
 31
0.0
  0
LINE
  5
2ED
330
1E
100
AcDbEntity
  8
2
100
AcDbLine
 10
455.6499999999998
 20
294.55
 30
0.0
 11
452.5
 21
293.5
 31
0.0
  0
LINE
  5
2EE
330
1E
100
AcDbEntity
  8
3
100
AcDbLine
 10
457.0
 20
303.5
 30
0.0
 11
456.0
 21
302.0
 31
0.0
  0
LINE
  5
2EF
330
1E
100
AcDbEntity
  8
3
100
AcDbLine
 10
456.0
 20
302.0
 30
0.0
 11
458.0
 21
300.0
 31
0.0
  0
LINE
  5
2F0
330
1E
100
AcDbEntity
  8
3
100
AcDbLine
 10
458.0
 20
300.0
 30
0.0
 11
456.0
 21
298.0
 31
0.0
  0
LINE
  5
2F1
330
1E
100
AcDbEntity
  8
3
100
AcDbLine
 10
456.0
 20
298.0
 30
0.0
 11
458.0
 21
295.9999999999999
 31
0.0
  0
LINE
  5
2F2
330
1E
100
AcDbEntity
  8
3
100
AcDbLine
 10
458.0
 20
295.9999999999999
 30
0.0
 11
456.0
 21
293.9999999999999
 31
0.0
  0
LINE
  5
2F3
330
1E
100
AcDbEntity
  8
3
100
AcDbLine
 10
456.0
 20
293.9999999999999
 30
0.0
 11
458.0
 21
291.9999999999999
 31
0.0
  0
LINE
  5
2F4
330
1E
100
AcDbEntity
  8
3
100
AcDbLine
 10
458.0
 20
291.9999999999999
 30
0.0
 11
456.0
 21
290.0
 31
0.0
  0
LINE
  5
2F5
330
1E
100
AcDbEntity
  8
3
100
AcDbLine
 10
456.0
 20
290.0
 30
0.0
 11
458.0
 21
287.9999999999999
 31
0.0
  0
LINE
  5
2F6
330
1E
100
AcDbEntity
  8
3
100
AcDbLine
 10
458.0
 20
287.9999999999999
 30
0.0
 11
456.0
 21
285.9999999999999
 31
0.0
  0
LINE
  5
2F7
330
1E
100
AcDbEntity
  8
3
100
AcDbLine
 10
456.0
 20
285.9999999999999
 30
0.0
 11
458.0
 21
283.9999999999998
 31
0.0
  0
LINE
  5
2F8
330
1E
100
AcDbEntity
  8
3
100
AcDbLine
 10
458.0
 20
283.9999999999998
 30
0.0
 11
456.0
 21
281.9999999999998
 31
0.0
  0
LINE
  5
2F9
330
1E
100
AcDbEntity
  8
3
100
AcDbLine
 10
456.0
 20
281.9999999999998
 30
0.0
 11
458.0
 21
280.0
 31
0.0
  0
LINE
  5
2FA
330
1E
100
AcDbEntity
  8
3
100
AcDbLine
 10
458.0
 20
280.0
 30
0.0
 11
456.0
 21
278.0
 31
0.0
  0
LINE
  5
2FB
330
1E
100
AcDbEntity
  8
3
100
AcDbLine
 10
456.0
 20
278.0
 30
0.0
 11
458.0
 21
276.0
 31
0.0
  0
LINE
  5
2FC
330
1E
100
AcDbEntity
  8
3
100
AcDbLine
 10
458.0
 20
276.0
 30
0.0
 11
456.0
 21
274.0
 31
0.0
  0
LINE
  5
2FD
330
1E
100
AcDbEntity
  8
3
100
AcDbLine
 10
456.0
 20
274.0
 30
0.0
 11
458.0
 21
272.0
 31
0.0
  0
LINE
  5
2FE
330
1E
100
AcDbEntity
  8
3
100
AcDbLine
 10
458.0
 20
272.0
 30
0.0
 11
456.0
 21
270.0
 31
0.0
  0
LINE
  5
2FF
330
1E
100
AcDbEntity
  8
3
100
AcDbLine
 10
456.0
 20
270.0
 30
0.0
 11
458.0
 21
268.0
 31
0.0
  0
LINE
  5
300
330
1E
100
AcDbEntity
  8
3
100
AcDbLine
 10
458.0
 20
268.0
 30
0.0
 11
456.0
 21
266.0
 31
0.0
  0
LINE
  5
301
330
1E
100
AcDbEntity
  8
3
100
AcDbLine
 10
456.0
 20
266.0
 30
0.0
 11
458.0
 21
264.0
 31
0.0
  0
LINE
  5
302
330
1E
100
AcDbEntity
  8
3
100
AcDbLine
 10
458.0
 20
264.0
 30
0.0
 11
456.0
 21
262.0
 31
0.0
  0
LINE
  5
303
330
1E
100
AcDbEntity
  8
3
100
AcDbLine
 10
456.0
 20
262.0
 30
0.0
 11
458.0
 21
260.0
 31
0.0
  0
LINE
  5
304
330
1E
100
AcDbEntity
  8
3
100
AcDbLine
 10
458.0
 20
260.0
 30
0.0
 11
456.0
 21
258.0
 31
0.0
  0
LINE
  5
305
330
1E
100
AcDbEntity
  8
3
100
AcDbLine
 10
456.0
 20
258.0
 30
0.0
 11
458.0
 21
256.0
 31
0.0
  0
LINE
  5
306
330
1E
100
AcDbEntity
  8
3
100
AcDbLine
 10
458.0
 20
256.0
 30
0.0
 11
456.0
 21
254.0
 31
0.0
  0
LINE
  5
307
330
1E
100
AcDbEntity
  8
0
100
AcDbLine
 10
458.0499999999998
 20
253.15
 30
0.0
 11
460.0
 21
252.4999999999999
 31
0.0
  0
LINE
  5
308
330
1E
100
AcDbEntity
  8
3
100
AcDbLine
 10
456.0
 20
254.0
 30
0.0
 11
458.0
 21
253.0
 31
0.0
  0
LINE
  5
309
330
1E
100
AcDbEntity
  8
2
100
AcDbLine
 10
456.0717543344483
 20
94.69058477814948
 30
0.0
 11
452.5
 21
93.49999999999999
 31
0.0
  0
LINE
  5
30A
330
1E
100
AcDbEntity
  8
3
100
AcDbLine
 10
457.0
 20
101.5
 30
0.0
 11
458.0
 21
100.0
 31
0.0
  0
LINE
  5
30B
330
1E
100
AcDbEntity
  8
3
100
AcDbLine
 10
458.0
 20
100.0
 30
0.0
 11
456.0
 21
98.0
 31
0.0
  0
LINE
  5
30C
330
1E
100
AcDbEntity
  8
3
100
AcDbLine
 10
456.0
 20
98.0
 30
0.0
 11
458.0
 21
96.0
 31
0.0
  0
LINE
  5
30D
330
1E
100
AcDbEntity
  8
3
100
AcDbLine
 10
458.0
 20
96.0
 30
0.0
 11
456.0
 21
94.0
 31
0.0
  0
LINE
  5
30E
330
1E
100
AcDbEntity
  8
3
100
AcDbLine
 10
456.0
 20
94.0
 30
0.0
 11
458.0
 21
92.0
 31
0.0
  0
LINE
  5
30F
330
1E
100
AcDbEntity
  8
3
100
AcDbLine
 10
458.0
 20
92.0
 30
0.0
 11
456.0
 21
90.0
 31
0.0
  0
LINE
  5
310
330
1E
100
AcDbEntity
  8
3
100
AcDbLine
 10
456.0
 20
90.0
 30
0.0
 11
458.0
 21
88.0
 31
0.0
  0
LINE
  5
311
330
1E
100
AcDbEntity
  8
3
100
AcDbLine
 10
458.0
 20
88.0
 30
0.0
 11
456.0
 21
85.99999999999999
 31
0.0
  0
LINE
  5
312
330
1E
100
AcDbEntity
  8
3
100
AcDbLine
 10
456.0
 20
85.99999999999999
 30
0.0
 11
458.0
 21
84.0
 31
0.0
  0
LINE
  5
313
330
1E
100
AcDbEntity
  8
3
100
AcDbLine
 10
458.0
 20
84.0
 30
0.0
 11
456.0
 21
82.00000000000001
 31
0.0
  0
LINE
  5
314
330
1E
100
AcDbEntity
  8
3
100
AcDbLine
 10
456.0
 20
82.00000000000001
 30
0.0
 11
458.0
 21
80.0
 31
0.0
  0
LINE
  5
315
330
1E
100
AcDbEntity
  8
3
100
AcDbLine
 10
458.0
 20
80.0
 30
0.0
 11
456.0
 21
78.0
 31
0.0
  0
LINE
  5
316
330
1E
100
AcDbEntity
  8
3
100
AcDbLine
 10
456.0
 20
78.0
 30
0.0
 11
458.0
 21
76.0
 31
0.0
  0
LINE
  5
317
330
1E
100
AcDbEntity
  8
3
100
AcDbLine
 10
458.0
 20
76.0
 30
0.0
 11
456.0
 21
74.0
 31
0.0
  0
LINE
  5
318
330
1E
100
AcDbEntity
  8
3
100
AcDbLine
 10
456.0
 20
74.0
 30
0.0
 11
458.0
 21
72.0
 31
0.0
  0
LINE
  5
319
330
1E
100
AcDbEntity
  8
3
100
AcDbLine
 10
458.0
 20
72.0
 30
0.0
 11
456.0
 21
70.0
 31
0.0
  0
LINE
  5
31A
330
1E
100
AcDbEntity
  8
3
100
AcDbLine
 10
456.0
 20
70.0
 30
0.0
 11
458.0
 21
68.0
 31
0.0
  0
LINE
  5
31B
330
1E
100
AcDbEntity
  8
3
100
AcDbLine
 10
458.0
 20
68.0
 30
0.0
 11
456.0
 21
66.0
 31
0.0
  0
LINE
  5
31C
330
1E
100
AcDbEntity
  8
3
100
AcDbLine
 10
456.0
 20
66.0
 30
0.0
 11
458.0
 21
64.0
 31
0.0
  0
LINE
  5
31D
330
1E
100
AcDbEntity
  8
3
100
AcDbLine
 10
458.0
 20
64.0
 30
0.0
 11
456.0
 21
62.0
 31
0.0
  0
LINE
  5
31E
330
1E
100
AcDbEntity
  8
3
100
AcDbLine
 10
456.0
 20
62.0
 30
0.0
 11
458.0
 21
60.0
 31
0.0
  0
LINE
  5
31F
330
1E
100
AcDbEntity
  8
3
100
AcDbLine
 10
458.0
 20
60.0
 30
0.0
 11
456.0
 21
58.0
 31
0.0
  0
LINE
  5
320
330
1E
100
AcDbEntity
  8
3
100
AcDbLine
 10
456.0
 20
58.0
 30
0.0
 11
458.0
 21
56.0
 31
0.0
  0
LINE
  5
321
330
1E
100
AcDbEntity
  8
3
100
AcDbLine
 10
458.0
 20
56.0
 30
0.0
 11
457.0
 21
55.5
 31
0.0
  0
TEXT
  5
40A
330
1E
100
AcDbEntity
  8
0
100
AcDbText
 10
139.7821698999756
 20
242.703739043778
 30
0.0
 40
6.0
  1
MIYOSHI
 41
0.8
  7
EXTFONT
100
AcDbText
  0
TEXT
  5
40C
330
1E
100
AcDbEntity
  8
0
100
AcDbText
 10
657.4787805822498
 20
242.703739043778
 30
0.0
 40
6.0
  1
MIYOSHI
 41
0.8
  7
EXTFONT
100
AcDbText
  0
LINE
  5
41D
330
1E
100
AcDbEntity
  8
4
100
AcDbLine
 10
671.9999999999998
 20
348.4666295470956
 30
0.0
 11
671.9999999999998
 21
318.5333704529041
 31
0.0
  0
LINE
  5
41F
330
1E
100
AcDbEntity
  8
4
100
AcDbLine
 10
669.9999999999997
 20
318.5333704529041
 30
0.0
 11
669.9999999999999
 21
348.4666295470956
 31
0.0
  0
ENDSEC
  0
SECTION
  2
OBJECTS
  0
DICTIONARY
  5
C
330
0
100
AcDbDictionary
281
     1
  3
ACAD_GROUP
350
D
  3
ACAD_LAYOUT
350
19
  3
ACAD_MLINESTYLE
350
16
  3
ACAD_PLOTSETTINGS
350
18
  3
ACAD_PLOTSTYLENAME
350
E
  3
AcDbVariableDictionary
350
429
  3
AcmDictionary
350
3DE
  3
AMG
350
324
  3
AMGSNAPSETTINGS
350
3FB
  3
DWGPROPS
350
403
  3
MAPISURF_MODULE
350
3B1
  0
DICTIONARY
  5
420
330
1E
100
AcDbDictionary
280
     1
281
     1
  3
ACAD_INDEX
360
421
  0
DICTIONARY
  5
D
102
{ACAD_REACTORS
330
C
102
}
330
C
100
AcDbDictionary
281
     1
  0
DICTIONARY
  5
19
102
{ACAD_REACTORS
330
C
102
}
330
C
100
AcDbDictionary
281
     1
  3
Model
350
21
  3
ﾚｲｱｳﾄ1
350
1D
  0
DICTIONARY
  5
16
102
{ACAD_REACTORS
330
C
102
}
330
C
100
AcDbDictionary
281
     1
  3
Standard
350
17
  0
DICTIONARY
  5
18
102
{ACAD_REACTORS
330
C
102
}
330
C
100
AcDbDictionary
281
     1
  0
ACDBDICTIONARYWDFLT
  5
E
102
{ACAD_REACTORS
330
C
102
}
330
C
100
AcDbDictionary
281
     1
  3
Normal
350
F
100
AcDbDictionaryWithDefault
340
F
  0
DICTIONARY
  5
429
102
{ACAD_REACTORS
330
C
102
}
330
C
100
AcDbDictionary
281
     1
  3
DIMASSOC
350
42B
  3
INDEXCTL
350
42A
  0
DICTIONARY
  5
3DE
102
{ACAD_REACTORS
330
C
102
}
330
C
100
AcDbDictionary
281
     1
  3
AcmBOMDATA
350
3DF
  0
DICTIONARY
  5
324
102
{ACAD_REACTORS
330
C
102
}
330
C
100
AcDbDictionary
281
     1
  3
AcMgSettings
350
325
  3
AMGLAYCFG
350
3EB
  0
DICTIONARY
  5
3FB
102
{ACAD_REACTORS
330
C
102
}
330
C
100
AcDbDictionary
281
     1
  3
DIMENSION
350
400
  3
FEA
350
3FF
  3
HATCH (1)
350
3FC
  3
HATCH (2)
350
3FD
  3
SIMPLE WELD
350
401
  3
SYMBOLS
350
3FE
  0
XRECORD
  5
403
102
{ACAD_REACTORS
330
C
102
}
330
C
100
AcDbXrecord
280
     1
  1
DWGPROPS COOKIE
  2

  3

  4

  6

  7

  8

  9

300
AmdtFileType=84
301
=
302
=
303
=
304
=
305
=
306
=
307
=
308
=
309
=
 40
0.0004566319444444
 41
2450686.780150463
 42
2450686.780150463
  1

 90
        1
  0
DICTIONARY
  5
421
102
{ACAD_REACTORS
330
420
102
}
330
420
100
AcDbDictionary
281
     1
  3
*A1
350
422
  0
LAYOUT
  5
21
102
{ACAD_REACTORS
330
19
102
}
330
19
100
AcDbPlotSettings
  1

  2
\\KONISHIDENXP\SHARP MX-2700FG
  4

  6

 40
0.0
 41
0.0
 42
0.0
 43
0.0
 44
0.0
 45
0.0
 46
0.0
 47
0.0
 48
0.0
 49
0.0
140
0.0
141
0.0
142
1.0
143
1.0
 70
  1712
 72
     0
 73
     0
 74
     0
  7

 75
     0
147
1.0
148
0.0
149
0.0
100
AcDbLayout
  1
Model
 70
     1
 71
     0
 10
0.0
 20
0.0
 11
12.0
 21
9.0
 12
0.0
 22
0.0
 32
0.0
 14
0.0
 24
0.0
 34
0.0
 15
0.0
 25
0.0
 35
0.0
146
0.0
 13
0.0
 23
0.0
 33
0.0
 16
1.0
 26
0.0
 36
0.0
 17
0.0
 27
1.0
 37
0.0
 76
     0
330
1E
  0
LAYOUT
  5
1D
102
{ACAD_REACTORS
330
19
102
}
330
19
100
AcDbPlotSettings
  1

  2
\\KONISHIDENXP\SHARP MX-2700FG
  4

  6

 40
0.0
 41
0.0
 42
0.0
 43
0.0
 44
0.0
 45
0.0
 46
0.0
 47
0.0
 48
0.0
 49
0.0
140
0.0
141
0.0
142
1.0
143
1.0
 70
   688
 72
     0
 73
     0
 74
     5
  7

 75
    16
147
1.0
148
0.0
149
0.0
100
AcDbLayout
  1
ﾚｲｱｳﾄ1
 70
     1
 71
     1
 10
0.0
 20
0.0
 11
12.0
 21
9.0
 12
0.0
 22
0.0
 32
0.0
 14
1.000000000000000E+20
 24
1.000000000000000E+20
 34
1.000000000000000E+20
 15
-1.000000000000000E+20
 25
-1.000000000000000E+20
 35
-1.000000000000000E+20
146
0.0
 13
0.0
 23
0.0
 33
0.0
 16
1.0
 26
0.0
 36
0.0
 17
0.0
 27
1.0
 37
0.0
 76
     0
330
1A
  0
MLINESTYLE
  5
17
102
{ACAD_REACTORS
330
16
102
}
330
16
100
AcDbMlineStyle
  2
STANDARD
 70
     0
  3

 62
   256
 51
90.0
 52
90.0
 71
     2
 49
0.5
 62
   256
  6
BYLAYER
 49
-0.5
 62
   256
  6
BYLAYER
  0
ACDBPLACEHOLDER
  5
F
102
{ACAD_REACTORS
330
E
102
}
330
E
  0
DICTIONARYVAR
  5
42B
102
{ACAD_REACTORS
330
429
102
}
330
429
100
DictionaryVariables
280
     0
  1
1
  0
DICTIONARYVAR
  5
42A
102
{ACAD_REACTORS
330
429
102
}
330
429
100
DictionaryVariables
280
     0
  1
1
  0
ACMDATADICTIONARY
  5
3DF
102
{ACAD_REACTORS
330
3DE
102
}
330
3DE
100
AcDbDictionary
281
     1
  3
*A1
350
3E0
100
AcmDataDictionary
  0
DICTIONARY
  5
325
102
{ACAD_REACTORS
330
324
102
}
330
324
100
AcDbDictionary
281
     1
  3
DWGSETTINGS
350
326
  0
ACAMGFILTERDAT
  5
400
102
{ACAD_REACTORS
330
3FB
102
}
330
3FB
100
AcAmgFilterDat
 70
    15
  1
DIMENSION,AMDT_*_DIM
  2
*
  3
*
  4
*
  5
*
290
     1
  0
ACAMGFILTERDAT
  5
3FF
102
{ACAD_REACTORS
330
3FB
102
}
330
3FB
100
AcAmgFilterDat
 70
    15
  1
*
  2
AM_FEA-AM_*
  3
*
  4
*
  5
*
290
     1
  0
ACAMGFILTERDAT
  5
3FC
102
{ACAD_REACTORS
330
3FB
102
}
330
3FB
100
AcAmgFilterDat
 70
    15
  1
HATCH
  2
*
  3
*
  4
*
  5
*
290
     1
  0
ACAMGFILTERDAT
  5
3FD
102
{ACAD_REACTORS
330
3FB
102
}
330
3FB
100
AcAmgFilterDat
 70
    15
  1
LINE
  2
8,8N,*-8,*-8N,AM_8,AM_8N,*-AM_8,*-AM_8N
  3
*
  4
*
  5
INSERT,STDPART2D
290
     1
  0
ACAMGFILTERDAT
  5
401
102
{ACAD_REACTORS
330
3FB
102
}
330
3FB
100
AcAmgFilterDat
 70
    15
  1
ARC
  2
AM_5
  3
*
  4
2
  5
INSERT
290
     0
  0
ACAMGFILTERDAT
  5
3FE
102
{ACAD_REACTORS
330
3FB
102
}
330
3FB
100
AcAmgFilterDat
 70
    15
  1
ACMFCFRAME,ACMDATUMTARGET,ACMDATUMID,ACMWELDSYM,ACMSURFSYM,ACMFEATID,ACMPARTREF,ACMBALLOON,AMDTEDGESYM,AMGSCREWCALCTABLE
  2
*
  3
*
  4
*
  5
*
290
     1
  0
LAYER_INDEX
  5
422
102
{ACAD_REACTORS
330
421
102
}
330
421
100
AcDbIndex
 40
2456525.579926932
100
AcDbLayerIndex
  8
0
360
423
 90
      198
  8
1
360
424
 90
       27
  8
2
360
425
 90
      198
  8
3
360
426
 90
       79
  8
4
360
427
 90
      171
  8
5
360
428
 90
       19
  0
ACMDATAENTRYBLOCK
  5
3E0
102
{ACAD_REACTORS
330
3DF
102
}
330
3DF
100
AcmDataEntry
100
AcmDataEntryBlock
  0
IDBUFFER
  5
423
330
0
100
AcDbIdBuffer
330
152
330
153
330
155
330
156
330
157
330
158
330
15A
330
178
330
179
330
17A
330
17B
330
17C
330
17D
330
17E
330
17F
330
180
330
181
330
182
330
183
330
184
330
1B8
330
1D0
330
1D1
330
1D2
330
1D3
330
1D4
330
1D5
330
1DE
330
1DF
330
1E0
330
1E1
330
200
330
201
330
202
330
248
330
24A
330
24F
330
252
330
253
330
255
330
256
330
257
330
259
330
25A
330
260
330
261
330
267
330
285
330
286
330
287
330
288
330
289
330
28B
330
28C
330
28D
330
28E
330
293
330
294
330
295
330
296
330
297
330
298
330
299
330
29A
330
29B
330
29C
330
29D
330
29E
330
29F
330
2A0
330
2A1
330
2A2
330
2A3
330
2B2
330
2B3
330
2B4
330
2B5
330
2B7
330
2B8
330
2BA
330
2BB
330
2BC
330
2BD
330
307
330
40A
330
40C
330
3E
330
3F
330
40
330
41
330
42
330
43
330
44
330
45
330
46
330
47
330
48
330
49
330
4A
330
4B
330
4C
330
4D
330
4E
330
55
330
56
330
57
330
58
330
59
330
5A
330
5B
330
5C
330
5D
330
5E
330
60
330
61
330
62
330
63
330
64
330
65
330
66
330
6A
330
6B
330
6D
330
6E
330
6F
330
70
330
71
330
72
330
73
330
74
330
75
330
76
330
78
330
79
330
7A
330
7B
330
7C
330
7D
330
7E
330
7F
330
80
330
83
330
84
330
85
330
86
330
87
330
88
330
89
330
8A
330
8B
330
8C
330
8D
330
8E
330
8F
330
90
330
91
330
92
330
93
330
94
330
F9
330
FB
330
FC
330
FD
330
FE
330
FF
330
100
330
101
330
102
330
103
330
104
330
106
330
107
330
108
330
109
330
10A
330
10B
330
10C
330
10D
330
113
330
117
330
118
330
12A
330
12B
330
12C
330
12D
330
13F
330
140
330
141
330
142
330
143
330
148
330
149
330
14A
330
14B
330
14C
330
14E
330
150
330
151
  0
IDBUFFER
  5
424
330
0
100
AcDbIdBuffer
330
154
330
177
330
18E
330
1FF
330
249
330
28A
330
2B6
330
2B9
330
2BE
330
2BF
330
2C0
330
4F
330
50
330
67
330
77
330
F8
330
FA
330
105
330
119
330
11A
330
11B
330
144
330
145
330
146
330
147
330
14D
330
14F
  0
IDBUFFER
  5
425
330
0
100
AcDbIdBuffer
330
1DC
330
1DD
330
1E2
330
1E3
330
1E4
330
1E5
330
1E6
330
1E7
330
1E8
330
1E9
330
1EA
330
1EB
330
1EC
330
1ED
330
1EE
330
1FD
330
1FE
330
20A
330
20B
330
20C
330
20D
330
20E
330
20F
330
210
330
211
330
212
330
213
330
214
330
215
330
216
330
217
330
218
330
219
330
21A
330
21B
330
21C
330
24B
330
24C
330
24D
330
24E
330
251
330
254
330
258
330
25B
330
25C
330
25D
330
25E
330
25F
330
266
330
268
330
269
330
26A
330
26B
330
26D
330
26E
330
271
330
272
330
273
330
274
330
276
330
277
330
27A
330
27B
330
27C
330
27D
330
27E
330
280
330
281
330
282
330
283
330
284
330
28F
330
290
330
291
330
292
330
2AF
330
2B0
330
2B1
330
2C1
330
2C2
330
2C3
330
2C4
330
2D1
330
2D2
330
2ED
330
309
330
51
330
52
330
53
330
54
330
68
330
69
330
81
330
82
330
95
330
96
330
97
330
98
330
99
330
9A
330
9B
330
9C
330
9D
330
9E
330
10E
330
10F
330
110
330
111
330
112
330
114
330
115
330
116
330
164
330
165
330
166
330
167
330
168
330
169
330
16A
330
16B
330
16C
330
16D
330
16E
330
16F
330
170
330
171
330
172
330
173
330
174
330
175
330
176
330
185
330
186
330
187
330
188
330
189
330
18A
330
18B
330
18C
330
18D
330
18F
330
190
330
191
330
192
330
193
330
194
330
195
330
196
330
1A3
330
1A4
330
1A5
330
1A6
330
1A7
330
1A8
330
1A9
330
1AA
330
1AB
330
1AC
330
1AD
330
1AE
330
1AF
330
1B0
330
1B1
330
1B2
330
1B3
330
1B4
330
1B5
330
1B6
330
1B7
330
1B9
330
1BA
330
1BB
330
1BC
330
1BD
330
1BE
330
1BF
330
1C0
330
1C1
330
1C2
330
1C3
330
1C4
330
1C5
330
1C6
330
1C7
330
1C8
330
1C9
330
1CA
330
1CB
330
1CC
330
1CD
330
1CE
330
1CF
330
1D6
330
1D7
330
1D8
330
1D9
330
1DA
330
1DB
  0
IDBUFFER
  5
426
330
0
100
AcDbIdBuffer
330
301
330
302
330
303
330
304
330
305
330
306
330
308
330
30A
330
30B
330
30C
330
30D
330
30E
330
30F
330
310
330
311
330
312
330
313
330
314
330
315
330
316
330
317
330
318
330
319
330
31A
330
31B
330
31C
330
31D
330
31E
330
31F
330
320
330
321
330
CB
330
159
330
2C5
330
2D3
330
2D4
330
2D5
330
2D6
330
2D7
330
2D8
330
2D9
330
2DA
330
2DB
330
2DC
330
2DD
330
2DE
330
2DF
330
2E0
330
2E1
330
2E2
330
2E3
330
2E4
330
2E5
330
2E6
330
2E7
330
2E8
330
2E9
330
2EA
330
2EB
330
2EC
330
2EE
330
2EF
330
2F0
330
2F1
330
2F2
330
2F3
330
2F4
330
2F5
330
2F6
330
2F7
330
2F8
330
2F9
330
2FA
330
2FB
330
2FC
330
2FD
330
2FE
330
2FF
330
300
  0
IDBUFFER
  5
427
330
0
100
AcDbIdBuffer
330
224
330
225
330
226
330
227
330
228
330
229
330
22A
330
22B
330
22C
330
22D
330
22E
330
22F
330
230
330
231
330
232
330
233
330
234
330
235
330
236
330
237
330
238
330
239
330
23A
330
23B
330
23C
330
23D
330
23E
330
23F
330
240
330
241
330
242
330
243
330
244
330
245
330
246
330
247
330
250
330
262
330
263
330
264
330
265
330
2A4
330
2A5
330
2A6
330
2A9
330
2AA
330
2C6
330
2C7
330
2C8
330
2C9
330
2CA
330
2CB
330
2CC
330
2CD
330
2CE
330
2CF
330
2D0
330
41D
330
41F
330
9F
330
A0
330
A1
330
A2
330
A3
330
A4
330
A5
330
A6
330
A7
330
A8
330
A9
330
AA
330
AB
330
AC
330
AD
330
AE
330
AF
330
B0
330
B1
330
B2
330
B3
330
B4
330
B5
330
B6
330
B7
330
B8
330
B9
330
BA
330
BB
330
BC
330
BD
330
BE
330
BF
330
C0
330
C1
330
C2
330
C3
330
C4
330
C5
330
C6
330
C7
330
C8
330
C9
330
CA
330
CC
330
CD
330
CE
330
CF
330
D0
330
D1
330
D2
330
D3
330
D4
330
D5
330
D6
330
D7
330
D8
330
D9
330
DA
330
DB
330
DC
330
DD
330
DE
330
DF
330
E0
330
E1
330
E2
330
E3
330
E4
330
E5
330
E6
330
E7
330
E8
330
E9
330
EA
330
EB
330
EC
330
ED
330
EE
330
EF
330
F0
330
F1
330
F2
330
F3
330
F4
330
F5
330
F6
330
F7
330
11C
330
11D
330
11E
330
11F
330
120
330
121
330
122
330
123
330
135
330
13D
330
13E
330
15B
330
199
330
19A
330
19B
330
19C
330
19D
330
21D
330
21E
330
21F
330
220
330
221
330
222
330
223
  0
IDBUFFER
  5
428
330
0
100
AcDbIdBuffer
330
279
330
2AB
330
2AE
330
197
330
198
330
1EF
330
1F0
330
1F1
330
1F2
330
1F3
330
1F8
330
1F9
330
1FA
330
1FB
330
1FC
330
26C
330
26F
330
270
330
278
  0
ENDSEC
  0
EOF
