  0
SECTION
  2
HEADER
  9
$ACADVER
  1
AC1015
  9
$ACADMAINTVER
 70
    13
  9
$DWGCODEPAGE
  3
ANSI_932
  9
$INSBASE
 10
0.0
 20
0.0
 30
0.0
  9
$EXTMIN
 10
62.4755878728763
 20
30.84716963447545
 30
-0.0015258207003583
  9
$EXTMAX
 10
781.8969744978203
 20
647.5235001038799
 30
0.0000000349246037
  9
$LIMMIN
 10
0.0
 20
0.0
  9
$LIMMAX
 10
800.0
 20
700.0
  9
$ORTHOMODE
 70
     1
  9
$REGENMODE
 70
     1
  9
$FILLMODE
 70
     1
  9
$QTEXTMODE
 70
     0
  9
$MIRRTEXT
 70
     1
  9
$LTSCALE
 40
1.0
  9
$ATTMODE
 70
     1
  9
$TEXTSIZE
 40
16.0
  9
$TRACEWID
 40
0.05
  9
$TEXTSTYLE
  7
BIGFONT
  9
$CLAYER
  8
0
  9
$CELTYPE
  6
ByLayer
  9
$CECOLOR
 62
   256
  9
$CELTSCALE
 40
1.0
  9
$DISPSILH
 70
     0
  9
$DIMSCALE
 40
1.0
  9
$DIMASZ
 40
0.18
  9
$DIMEXO
 40
0.0625
  9
$DIMDLI
 40
0.38
  9
$DIMRND
 40
0.0
  9
$DIMDLE
 40
0.0
  9
$DIMEXE
 40
0.18
  9
$DIMTP
 40
0.0
  9
$DIMTM
 40
0.0
  9
$DIMTXT
 40
0.18
  9
$DIMCEN
 40
0.09
  9
$DIMTSZ
 40
0.0
  9
$DIMTOL
 70
     0
  9
$DIMLIM
 70
     0
  9
$DIMTIH
 70
     1
  9
$DIMTOH
 70
     1
  9
$DIMSE1
 70
     0
  9
$DIMSE2
 70
     0
  9
$DIMTAD
 70
     0
  9
$DIMZIN
 70
     0
  9
$DIMBLK
  1

  9
$DIMASO
 70
     1
  9
$DIMSHO
 70
     1
  9
$DIMPOST
  1

  9
$DIMAPOST
  1

  9
$DIMALT
 70
     0
  9
$DIMALTD
 70
     2
  9
$DIMALTF
 40
25.4
  9
$DIMLFAC
 40
1.0
  9
$DIMTOFL
 70
     0
  9
$DIMTVP
 40
0.0
  9
$DIMTIX
 70
     0
  9
$DIMSOXD
 70
     0
  9
$DIMSAH
 70
     0
  9
$DIMBLK1
  1

  9
$DIMBLK2
  1

  9
$DIMSTYLE
  2
STANDARD
  9
$DIMCLRD
 70
     0
  9
$DIMCLRE
 70
     0
  9
$DIMCLRT
 70
     0
  9
$DIMTFAC
 40
1.0
  9
$DIMGAP
 40
0.09
  9
$DIMJUST
 70
     0
  9
$DIMSD1
 70
     0
  9
$DIMSD2
 70
     0
  9
$DIMTOLJ
 70
     1
  9
$DIMTZIN
 70
     0
  9
$DIMALTZ
 70
     0
  9
$DIMALTTZ
 70
     0
  9
$DIMUPT
 70
     0
  9
$DIMDEC
 70
     4
  9
$DIMTDEC
 70
     4
  9
$DIMALTU
 70
     2
  9
$DIMALTTD
 70
     2
  9
$DIMTXSTY
  7
STANDARD
  9
$DIMAUNIT
 70
     0
  9
$DIMADEC
 70
     0
  9
$DIMALTRND
 40
0.0
  9
$DIMAZIN
 70
     0
  9
$DIMDSEP
 70
    46
  9
$DIMATFIT
 70
     3
  9
$DIMFRAC
 70
     0
  9
$DIMLDRBLK
  1

  9
$DIMLUNIT
 70
     2
  9
$DIMLWD
 70
    -2
  9
$DIMLWE
 70
    -2
  9
$DIMTMOVE
 70
     0
  9
$LUNITS
 70
     2
  9
$LUPREC
 70
     4
  9
$SKETCHINC
 40
0.1
  9
$FILLETRAD
 40
0.0
  9
$AUNITS
 70
     0
  9
$AUPREC
 70
     0
  9
$MENU
  1
acad
  9
$ELEVATION
 40
0.0
  9
$PELEVATION
 40
0.0
  9
$THICKNESS
 40
0.0
  9
$LIMCHECK
 70
     0
  9
$CHAMFERA
 40
0.0
  9
$CHAMFERB
 40
0.0
  9
$CHAMFERC
 40
0.0
  9
$CHAMFERD
 40
0.0
  9
$SKPOLY
 70
     0
  9
$TDCREATE
 40
2450686.776076389
  9
$TDUCREATE
 40
2450686.401076389
  9
$TDUPDATE
 40
2456525.398707314
  9
$TDUUPDATE
 40
2456525.023707314
  9
$TDINDWG
 40
0.0185022454
  9
$TDUSRTIMER
 40
0.0185022454
  9
$USRTIMER
 70
     1
  9
$ANGBASE
 50
0.0
  9
$ANGDIR
 70
     0
  9
$PDMODE
 70
     0
  9
$PDSIZE
 40
0.0
  9
$PLINEWID
 40
0.0
  9
$SPLFRAME
 70
     0
  9
$SPLINETYPE
 70
     6
  9
$SPLINESEGS
 70
     8
  9
$HANDSEED
  5
595
  9
$SURFTAB1
 70
     6
  9
$SURFTAB2
 70
     6
  9
$SURFTYPE
 70
     6
  9
$SURFU
 70
     6
  9
$SURFV
 70
     6
  9
$UCSBASE
  2

  9
$UCSNAME
  2

  9
$UCSORG
 10
0.0
 20
0.0
 30
0.0
  9
$UCSXDIR
 10
1.0
 20
0.0
 30
0.0
  9
$UCSYDIR
 10
0.0
 20
1.0
 30
0.0
  9
$UCSORTHOREF
  2

  9
$UCSORTHOVIEW
 70
     0
  9
$UCSORGTOP
 10
0.0
 20
0.0
 30
0.0
  9
$UCSORGBOTTOM
 10
0.0
 20
0.0
 30
0.0
  9
$UCSORGLEFT
 10
0.0
 20
0.0
 30
0.0
  9
$UCSORGRIGHT
 10
0.0
 20
0.0
 30
0.0
  9
$UCSORGFRONT
 10
0.0
 20
0.0
 30
0.0
  9
$UCSORGBACK
 10
0.0
 20
0.0
 30
0.0
  9
$PUCSBASE
  2

  9
$PUCSNAME
  2

  9
$PUCSORG
 10
0.0
 20
0.0
 30
0.0
  9
$PUCSXDIR
 10
1.0
 20
0.0
 30
0.0
  9
$PUCSYDIR
 10
0.0
 20
1.0
 30
0.0
  9
$PUCSORTHOREF
  2

  9
$PUCSORTHOVIEW
 70
     0
  9
$PUCSORGTOP
 10
0.0
 20
0.0
 30
0.0
  9
$PUCSORGBOTTOM
 10
0.0
 20
0.0
 30
0.0
  9
$PUCSORGLEFT
 10
0.0
 20
0.0
 30
0.0
  9
$PUCSORGRIGHT
 10
0.0
 20
0.0
 30
0.0
  9
$PUCSORGFRONT
 10
0.0
 20
0.0
 30
0.0
  9
$PUCSORGBACK
 10
0.0
 20
0.0
 30
0.0
  9
$USERI1
 70
     0
  9
$USERI2
 70
     0
  9
$USERI3
 70
     0
  9
$USERI4
 70
     0
  9
$USERI5
 70
     0
  9
$USERR1
 40
0.0
  9
$USERR2
 40
0.0
  9
$USERR3
 40
0.0
  9
$USERR4
 40
0.0
  9
$USERR5
 40
0.0
  9
$WORLDVIEW
 70
     1
  9
$SHADEDGE
 70
     3
  9
$SHADEDIF
 70
    70
  9
$TILEMODE
 70
     1
  9
$MAXACTVP
 70
    16
  9
$PINSBASE
 10
0.0
 20
0.0
 30
0.0
  9
$PLIMCHECK
 70
     0
  9
$PEXTMIN
 10
1.000000000000000E+20
 20
1.000000000000000E+20
 30
1.000000000000000E+20
  9
$PEXTMAX
 10
-1.000000000000000E+20
 20
-1.000000000000000E+20
 30
-1.000000000000000E+20
  9
$PLIMMIN
 10
0.0
 20
0.0
  9
$PLIMMAX
 10
12.0
 20
9.0
  9
$UNITMODE
 70
     0
  9
$VISRETAIN
 70
     0
  9
$PLINEGEN
 70
     0
  9
$PSLTSCALE
 70
     1
  9
$TREEDEPTH
 70
  3020
  9
$CMLSTYLE
  2
Standard
  9
$CMLJUST
 70
     0
  9
$CMLSCALE
 40
1.0
  9
$PROXYGRAPHICS
 70
     1
  9
$MEASUREMENT
 70
     0
  9
$CELWEIGHT
370
    -1
  9
$ENDCAPS
280
     0
  9
$JOINSTYLE
280
     0
  9
$LWDISPLAY
290
     0
  9
$INSUNITS
 70
     0
  9
$HYPERLINKBASE
  1

  9
$STYLESHEET
  1

  9
$XEDIT
290
     1
  9
$CEPSNTYPE
380
     0
  9
$PSTYLEMODE
290
     1
  9
$FINGERPRINTGUID
  2
{8292AF15-E342-484D-B863-BD0885D94114}
  9
$VERSIONGUID
  2
{9577F811-75C7-4B15-9A57-1F39C4C27CEF}
  9
$EXTNAMES
290
     1
  9
$PSVPSCALE
 40
0.0
  9
$OLESTARTUP
290
     0
  0
ENDSEC
  0
SECTION
  2
CLASSES
  0
CLASS
  1
ACDBDICTIONARYWDFLT
  2
AcDbDictionaryWithDefault
  3
AutoCAD 2000
 90
        0
280
     0
281
     0
  0
CLASS
  1
ACDBPLACEHOLDER
  2
AcDbPlaceHolder
  3
AutoCAD 2000
 90
        0
280
     0
281
     0
  0
CLASS
  1
LAYOUT
  2
AcDbLayout
  3
AutoCAD 2000
 90
        0
280
     0
281
     0
  0
CLASS
  1
AMGSETTINGSOBJ
  2
AmgSettingsObj
  3
"AcadM|Product Description: AutoCAD Mechanical 2000|Company: Autodesk"
 90
        0
280
     0
281
     0
  0
CLASS
  1
ACME_DOCUMENT
  2
AcMeDbDoc
  3
AcMeServices
 90
        0
280
     0
281
     0
  0
CLASS
  1
ACMESCOPE
  2
AcMeScope
  3
AcMeServices
 90
        0
280
     0
281
     0
  0
CLASS
  1
ACMECOMMANDHISTORY
  2
AcMeCommandHistory
  3
AcMeServices
 90
        0
280
     0
281
     0
  0
CLASS
  1
ACIMSYSVARMAN
  2
AcImSysVarManager
  3
AcMeServices
 90
        0
280
     0
281
     0
  0
CLASS
  1
ACIMREALSYSVAR
  2
AcImRealSysVar
  3
AcMeServices
 90
        0
280
     0
281
     0
  0
CLASS
  1
ACIMINTSYSVAR
  2
AcImIntSysVar
  3
AcMeServices
 90
        0
280
     0
281
     0
  0
CLASS
  1
ACMEDRAWINGMAN
  2
AcMeDrawingMan
  3
AcMeServices
 90
        0
280
     0
281
     0
  0
CLASS
  1
ACMEVIEW
  2
AcMeView
  3
AcMeServices
 90
        0
280
     0
281
     0
  0
CLASS
  1
ACDBENTITYCACHE
  2
AcMeEntityCache
  3
AcMeServices
 90
        0
280
     0
281
     0
  0
CLASS
  1
GSMANAGER
  2
AcMeGSManager
  3
AcMeServices
 90
        0
280
     0
281
     0
  0
CLASS
  1
AMDTINTERNALREACTOR
  2
AmdtInternalReactor
  3
AcMeServices
 90
        0
280
     0
281
     0
  0
CLASS
  1
ACMESTATEMGR
  2
AcMeStateMgr
  3
AcMeServices
 90
        0
280
     0
281
     0
  0
CLASS
  1
ACGREFMASTER
  2
AcGrefMaster
  3
AcAttribServices
 90
        0
280
     0
281
     0
  0
CLASS
  1
AM_DRAWING_MGR
  2
AcDmDwgMgr
  3
AcMechDwgViewMgmt
 90
        0
280
     0
281
     0
  0
CLASS
  1
AM_DWG_DOCUMENT
  2
AcDmDwgDocument
  3
AcMechDwgViewMgmt
 90
        0
280
     0
281
     0
  0
CLASS
  1
AM_DWG_SHEET
  2
AcDmSheet
  3
AcMechDwgViewMgmt
 90
        0
280
     0
281
     0
  0
CLASS
  1
AM_VIEWDIMPARMAP
  2
AcDmViewDimParMap
  3
AcMechDwgViewMgmt
 90
        0
280
     0
281
     0
  0
CLASS
  1
AM_DWGMGR_NAME
  2
AcDmDwgMgrName
  3
AcMechDwgViewMgmt
 90
        0
280
     0
281
     0
  0
CLASS
  1
ACME_DATABASE
  2
AcMeDbDatabase
  3
AcMeServices
 90
        0
280
     0
281
     0
  0
CLASS
  1
ACRFINSADJUSTERMGR
  2
AcRfInsAdjusterMgr
  3
AcMeServices
 90
        0
280
     0
281
     0
  0
CLASS
  1
ACGREFACADMASTER
  2
AcGrefacadMaster
  3
AcGrefServices
 90
        0
280
     0
281
     0
  0
CLASS
  1
AMDTMENUSTATEMGR
  2
AmdtMenuStateMgr
  3
McadcomServices
 90
        0
280
     0
281
     0
  0
CLASS
  1
AMDTMCOMMENUSTATE
  2
AmdtMcomMenuState
  3
McadcomServices
 90
        0
280
     0
281
     0
  0
CLASS
  1
AMIMASTER
  2
AmiMaster
  3
AmiServices
 90
        0
280
     0
281
     0
  0
CLASS
  1
ASAPP
  2
AcAsAppObject
  3
AutoSurfServices
 90
        0
280
     0
281
     0
  0
CLASS
  1
IM_STATIC_MAN
  2
AcImStaticVarManager
  3
AcMeServices
 90
        0
280
     0
281
     0
  0
CLASS
  1
ACIMSTRSYSVAR
  2
AcImStrSysVar
  3
AcMeServices
 90
        0
280
     0
281
     0
  0
CLASS
  1
ACIMDBLSTATICVAR
  2
AcImDblStaticVar
  3
AcMeServices
 90
        0
280
     0
281
     0
  0
CLASS
  1
ACIMSTRSTATICVAR
  2
AcImStrStaticVar
  3
AcMeServices
 90
        0
280
     0
281
     0
  0
CLASS
  1
ACIMINTSTATICVAR
  2
AcImIntStaticVar
  3
AcMeServices
 90
        0
280
     0
281
     0
  0
CLASS
  1
ACASGREFMASTER
  2
AcAsGrefMaster
  3
AutoSurfResolverServices
 90
        0
280
     0
281
     0
  0
CLASS
  1
ACADGREFMODULE
  2
AcAdGrefModule
  3
AdGrefServices
 90
        0
280
     0
281
     0
  0
CLASS
  1
AMDTMAPISURFMOUDULE
  2
AmdtMApiSurfModule
  3
MApiSurfServices
 90
    32768
280
     0
281
     0
  0
CLASS
  1
MAPIAMMOUDLE
  2
MApiAmModule
  3
MApiAmServices
 90
        0
280
     0
281
     0
  0
CLASS
  1
AMDTADMENUSTATE
  2
AmdtAdMenuState
  3
DesignerServices
 90
        0
280
     0
281
     0
  0
CLASS
  1
ADAPPL
  2
AcAdAppl
  3
DesignerServices
 90
        0
280
     0
281
     0
  0
CLASS
  1
DEPMGR
  2
AcAdDepMgr
  3
DesignerServices
 90
        0
280
     0
281
     0
  0
CLASS
  1
PARAMMGR
  2
AcAdParamMgr
  3
DesignerServices
 90
        0
280
     0
281
     0
  0
CLASS
  1
PARAMSCOPE
  2
AcAdParamScope
  3
DesignerServices
 90
        0
280
     0
281
     0
  0
CLASS
  1
NAMEDAPPL
  2
AcAdNamedAppl
  3
DesignerServices
 90
        0
280
     0
281
     0
  0
CLASS
  1
AMDTDMMENUSTATE
  2
AmdtDmMenuState
  3
AcMechDwgViewMgmt
 90
        0
280
     0
281
     0
  0
CLASS
  1
MAPIADMODULE
  2
MApiAdModule
  3
MApiAdServices
 90
        0
280
     0
281
     0
  0
CLASS
  1
AMDTAMMENUSTATE
  2
AmdtAmMenuState
  3
DesignerAssemblies
 90
        0
280
     0
281
     0
  0
CLASS
  1
ACAMPROJECT
  2
AcAmProject
  3
DesignerAssemblies
 90
        0
280
     0
281
     0
  0
CLASS
  1
ACAMGRCOMPDEF
  2
AcAmGrCompDef
  3
DesignerAssemblies
 90
        0
280
     0
281
     0
  0
CLASS
  1
ACCMCONTEXT
  2
AcCmContext
  3
DesignerAssemblies
 90
        0
280
     0
281
     0
  0
CLASS
  1
ACAMCOMPDEF
  2
AcAmCompDef
  3
DesignerAssemblies
 90
        0
280
     0
281
     0
  0
CLASS
  1
ACAMCOMPDEFMGR
  2
AcAmCompDefMgr
  3
DesignerAssemblies
 90
        0
280
     0
281
     0
  0
CLASS
  1
AMCONTEXTMGR
  2
AcAmContextMgr
  3
DesignerAssemblies
 90
        0
280
     0
281
     0
  0
CLASS
  1
ACAMCONTEXTMODELER
  2
AcAmContextModeler
  3
DesignerAssemblies
 90
        0
280
     0
281
     0
  0
CLASS
  1
ACMDATADICTIONARY
  2
AcmDataDictionary
  3
"AcmSymBB|Product Description: AutoCAD Mechanical 2000|Company: Autodesk"
 90
        0
280
     0
281
     0
  0
CLASS
  1
ACMDATAENTRYBLOCK
  2
AcmDataEntryBlock
  3
"AcmSymBB|Product Description: AutoCAD Mechanical 2000|Company: Autodesk"
 90
        0
280
     0
281
     0
  0
CLASS
  1
CATALOGSTATE
  2
AcAmCatalogState
  3
DesignerAssemblies
 90
        0
280
     0
281
     0
  0
CLASS
  1
ACAMGRCOMPDEFSET
  2
AcAmGrCompDefSet
  3
DesignerAssemblies
 90
        0
280
     0
281
     0
  0
CLASS
  1
AMDTBROWSERDBTAB
  2
AmdtBrowserDbTab
  3
McadcomServices
 90
        0
280
     0
281
     0
  0
CLASS
  1
CBROWSERAPPOBJECT
  2
CBrowserAppObject
  3
McadcomServices
 90
        0
280
     0
281
     0
  0
CLASS
  1
DM_PLACEHOLDER
  2
AcDmSelsetPlaceholder
  3
AcMechDwgViewMgmt
 90
        0
280
     0
281
     0
  0
CLASS
  1
AMGOBJPROPCFG
  2
AmgObjPropCfg
  3
"AmgLay|Product Description: AutoCAD Mechanical 2000|Company: Autodesk"
 90
        1
280
     0
281
     0
  0
CLASS
  1
ACAMGFILTERDAT
  2
AcAmgFilterDat
  3
"AcadM|Product Description: AutoCAD Mechanical 2000|Company: Autodesk"
 90
        0
280
     0
281
     0
  0
CLASS
  1
AMDTFORMULAUPDATEDISPATCHER
  2
AmdtFormulaUpdateDispatcher
  3
AcMeServices
 90
        0
280
     0
281
     0
  0
CLASS
  1
LAYER_INDEX
  2
AcDbLayerIndex
  3
AutoCAD 2000
 90
        0
280
     0
281
     0
  0
CLASS
  1
IDBUFFER
  2
AcDbIdBuffer
  3
AutoCAD 2000
 90
        0
280
     0
281
     0
  0
CLASS
  1
DICTIONARYVAR
  2
AcDbDictionaryVar
  3
AutoCAD 2000
 90
        0
280
     0
281
     0
  0
ENDSEC
  0
SECTION
  2
TABLES
  0
TABLE
  2
VPORT
  5
8
330
0
100
AcDbSymbolTable
 70
     3
  0
VPORT
  5
594
330
8
100
AcDbSymbolTableRecord
100
AcDbViewportTableRecord
  2
*Active
 70
     0
 10
0.0
 20
0.0
 11
1.0
 21
1.0
 12
-209.6430311890841
 22
-59.23278148812653
 13
0.0
 23
0.0
 14
0.5
 24
0.5
 15
1.0
 25
1.0
 16
0.0
 26
0.0
 36
1.0
 17
609.6430311890841
 27
409.2327814881265
 37
0.0
 40
705.072463768116
 41
1.489721886336154
 42
50.0
 43
0.0
 44
0.0
 50
0.0
 51
0.0
 71
     0
 72
   100
 73
     1
 74
     1
 75
     0
 76
     0
 77
     0
 78
     0
281
     0
 65
     0
110
0.0
120
0.0
130
0.0
111
1.0
121
0.0
131
0.0
112
0.0
122
1.0
132
0.0
 79
     0
146
0.0
  0
ENDTAB
  0
TABLE
  2
LTYPE
  5
5
330
0
100
AcDbSymbolTable
 70
    18
  0
LTYPE
  5
13
330
5
100
AcDbSymbolTableRecord
100
AcDbLinetypeTableRecord
  2
ByBlock
 70
     0
  3

 72
    65
 73
     0
 40
0.0
  0
LTYPE
  5
14
330
5
100
AcDbSymbolTableRecord
100
AcDbLinetypeTableRecord
  2
ByLayer
 70
     0
  3

 72
    65
 73
     0
 40
0.0
  0
LTYPE
  5
15
330
5
100
AcDbSymbolTableRecord
100
AcDbLinetypeTableRecord
  2
CONTINUOUS
 70
     0
  3
Solid line
 72
    65
 73
     0
 40
0.0
  0
LTYPE
  5
24
330
5
100
AcDbSymbolTableRecord
100
AcDbLinetypeTableRecord
  2
ITTEN1
 70
     0
  3

 72
    65
 73
     4
 40
8.199999999999997
 49
5.0
 74
     0
 49
-1.0
 74
     0
 49
1.199999999999999
 74
     0
 49
-1.0
 74
     0
  0
LTYPE
  5
25
330
5
100
AcDbSymbolTableRecord
100
AcDbLinetypeTableRecord
  2
TENSEN2
 70
     0
  3

 72
    65
 73
     2
 40
2.1
 49
1.5
 74
     0
 49
-0.6
 74
     0
  0
LTYPE
  5
22F
330
5
100
AcDbSymbolTableRecord
100
AcDbLinetypeTableRecord
  2
HIDDEN
 70
     0
  3
Hidden __ __ __ __ __ __ __ __ __ __ __ __ __ _
 72
    65
 73
     2
 40
0.375
 49
0.25
 74
     0
 49
-0.125
 74
     0
  0
LTYPE
  5
230
330
5
100
AcDbSymbolTableRecord
100
AcDbLinetypeTableRecord
  2
PHANTOM2
 70
     0
  3
Phantom (.5x) ___ _ _ ___ _ _ ___ _ _ ___ _ _
 72
    65
 73
     6
 40
1.25
 49
0.625
 74
     0
 49
-0.125
 74
     0
 49
0.125
 74
     0
 49
-0.125
 74
     0
 49
0.125
 74
     0
 49
-0.125
 74
     0
  0
LTYPE
  5
231
330
5
100
AcDbSymbolTableRecord
100
AcDbLinetypeTableRecord
  2
CENTER
 70
     0
  3
Center ____ _ ____ _ ____ _ ____ _ ____ _ ____
 72
    65
 73
     4
 40
2.0
 49
1.25
 74
     0
 49
-0.25
 74
     0
 49
0.25
 74
     0
 49
-0.25
 74
     0
  0
LTYPE
  5
293
330
5
100
AcDbSymbolTableRecord
100
AcDbLinetypeTableRecord
  2
ASULTYPE
 70
     0
  3
実線
 72
    65
 73
     2
 40
3.0
 49
2.5
 74
     0
 49
0.5
 74
     0
  0
LTYPE
  5
294
330
5
100
AcDbSymbolTableRecord
100
AcDbLinetypeTableRecord
  2
ASVLTYPE
 70
     0
  3
__ __ __ __ __ __ __ __ __ __ __ __ __ __ __ __ __ __ __ __ __
 72
    65
 73
     2
 40
0.75
 49
0.5
 74
     0
 49
-0.25
 74
     0
  0
LTYPE
  5
2D5
330
5
100
AcDbSymbolTableRecord
100
AcDbLinetypeTableRecord
  2
AM_ISO02W050
 70
     0
  3
__ __ __ __ __ __ __ __ __ __ __ __ __ __ __
 72
    65
 73
     2
 40
7.5
 49
6.0
 74
     0
 49
-1.5
 74
     0
  0
LTYPE
  5
2D6
330
5
100
AcDbSymbolTableRecord
100
AcDbLinetypeTableRecord
  2
AM_ISO08W050
 70
     0
  3
____ . ____ . ____ . ____ . ____ . ____ . ____
 72
    65
 73
     4
 40
18.0
 49
12.0
 74
     0
 49
-1.5
 74
     0
 49
3.0
 74
     0
 49
-1.5
 74
     0
  0
LTYPE
  5
2D7
330
5
100
AcDbSymbolTableRecord
100
AcDbLinetypeTableRecord
  2
AM_ISO09W050
 70
     0
  3
_____ . . _____ . . _____ . . ____ .. ____
 72
    65
 73
     6
 40
22.5
 49
12.0
 74
     0
 49
-1.5
 74
     0
 49
3.0
 74
     0
 49
-1.5
 74
     0
 49
3.0
 74
     0
 49
-1.5
 74
     0
  0
LTYPE
  5
2D8
330
5
100
AcDbSymbolTableRecord
100
AcDbLinetypeTableRecord
  2
Amconstr
 70
     0
  3
_______________________
 72
    65
 73
     2
 40
9999.0
 49
9999.0
 74
     0
 49
0.0
 74
     0
  0
LTYPE
  5
2D9
330
5
100
AcDbSymbolTableRecord
100
AcDbLinetypeTableRecord
  2
AM_ISO08W050x2
 70
     0
  3
__ . __ . __ . __ . __ . __
 72
    65
 73
     4
 40
9.0
 49
6.0
 74
     0
 49
-0.75
 74
     0
 49
1.5
 74
     0
 49
-0.75
 74
     0
  0
LTYPE
  5
2DA
330
5
100
AcDbSymbolTableRecord
100
AcDbLinetypeTableRecord
  2
AM_ISO02W050x2
 70
     0
  3
 _ _ _ _ _ _ _ _ _ _ _ _
 72
    65
 73
     2
 40
3.75
 49
3.0
 74
     0
 49
-0.75
 74
     0
  0
LTYPE
  5
2DD
330
5
100
AcDbSymbolTableRecord
100
AcDbLinetypeTableRecord
  2
Amzigzag
 70
     0
  3
/\/-/\/-/\/-/\/-/\/-/\/
 72
    65
 73
     2
 40
11.00009999999999
 49
0.0001
 74
     4
 75
   135
340
2DC
 46
0.04
 50
0.0
 44
0.0
 45
0.0
 49
-11.0
 74
     0
  0
LTYPE
  5
2DE
330
5
100
AcDbSymbolTableRecord
100
AcDbLinetypeTableRecord
  2
CENTER2
 70
     0
  3
Center (.5x) ___ _ ___ _ ___ _ ___ _ ___ _ ___
 72
    65
 73
     4
 40
1.125
 49
0.75
 74
     0
 49
-0.125
 74
     0
 49
0.125
 74
     0
 49
-0.125
 74
     0
  0
LTYPE
  5
2DF
330
5
100
AcDbSymbolTableRecord
100
AcDbLinetypeTableRecord
  2
HIDDEN2
 70
     0
  3
Hidden (.5x) _ _ _ _ _ _ _ _ _ _ _ _ _ _ _ _ _
 72
    65
 73
     2
 40
0.1875
 49
0.125
 74
     0
 49
-0.0625
 74
     0
  0
LTYPE
  5
2E0
330
5
100
AcDbSymbolTableRecord
100
AcDbLinetypeTableRecord
  2
Amzigzag2
 70
     0
  3
/\/-/\/-/\/-/\/-/\/-/\/
 72
    65
 73
     2
 40
0.4401
 49
0.0001
 74
     4
 75
   135
340
2DC
 46
0.0016
 50
0.0
 44
0.0
 45
0.0
 49
-0.4400000000000002
 74
     0
  0
ENDTAB
  0
TABLE
  2
LAYER
  5
2
330
0
100
AcDbSymbolTable
 70
     7
  0
LAYER
  5
10
330
2
100
AcDbSymbolTableRecord
100
AcDbLayerTableRecord
  2
0
 70
     0
 62
     7
  6
CONTINUOUS
370
    -3
390
F
  0
LAYER
  5
26
330
2
100
AcDbSymbolTableRecord
100
AcDbLayerTableRecord
  2
1
 70
     0
 62
     1
  6
ITTEN1
370
    -3
390
F
  0
LAYER
  5
27
330
2
100
AcDbSymbolTableRecord
100
AcDbLayerTableRecord
  2
2
 70
     0
 62
     2
  6
TENSEN2
370
    -3
390
F
  0
LAYER
  5
28
330
2
100
AcDbSymbolTableRecord
100
AcDbLayerTableRecord
  2
3
 70
     0
 62
     3
  6
CONTINUOUS
370
    -3
390
F
  0
LAYER
  5
29
330
2
100
AcDbSymbolTableRecord
100
AcDbLayerTableRecord
  2
4
 70
     0
 62
     6
  6
CONTINUOUS
370
    -3
390
F
  0
LAYER
  5
2A
330
2
100
AcDbSymbolTableRecord
100
AcDbLayerTableRecord
  2
5
 70
     0
 62
     6
  6
TENSEN2
370
    -3
390
F
  0
LAYER
  5
460
330
2
100
AcDbSymbolTableRecord
100
AcDbLayerTableRecord
  2
Defpoints
 70
     0
 62
     7
  6
CONTINUOUS
290
     0
370
    -3
390
F
  0
ENDTAB
  0
TABLE
  2
STYLE
  5
3
330
0
100
AcDbSymbolTable
 70
     3
  0
STYLE
  5
11
330
3
100
AcDbSymbolTableRecord
100
AcDbTextStyleTableRecord
  2
STANDARD
 70
     0
 40
0.0
 41
1.0
 50
0.0
 71
     0
 42
0.2
  3
txt
  4

  0
STYLE
  5
22
330
3
100
AcDbSymbolTableRecord
100
AcDbTextStyleTableRecord
  2
BIGFONT
 70
     0
 40
16.0
 41
0.8
 50
0.0
 71
     0
 42
16.0
  3

  4
bigfont
  0
STYLE
  5
2DC
330
3
100
AcDbSymbolTableRecord
100
AcDbTextStyleTableRecord
  2

 70
     1
 40
0.0
 41
1.0
 50
0.0
 71
     0
 42
16.0
  3
ltypeshp.shx
  4

  0
ENDTAB
  0
TABLE
  2
VIEW
  5
6
330
0
100
AcDbSymbolTable
 70
     0
  0
ENDTAB
  0
TABLE
  2
UCS
  5
7
330
0
100
AcDbSymbolTable
 70
     0
  0
ENDTAB
  0
TABLE
  2
APPID
  5
9
330
0
100
AcDbSymbolTable
 70
    12
  0
APPID
  5
12
330
9
100
AcDbSymbolTableRecord
100
AcDbRegAppTableRecord
  2
ACAD
 70
     0
  0
APPID
  5
20E
330
9
100
AcDbSymbolTableRecord
100
AcDbRegAppTableRecord
  2
GENIUS_GENDIM_13
 70
     0
  0
APPID
  5
20F
330
9
100
AcDbSymbolTableRecord
100
AcDbRegAppTableRecord
  2
GENIUS_GENDTOL_13
 70
     0
  0
APPID
  5
210
330
9
100
AcDbSymbolTableRecord
100
AcDbRegAppTableRecord
  2
GENIUS_GE3DTOL_13
 70
     0
  0
APPID
  5
212
330
9
100
AcDbSymbolTableRecord
100
AcDbRegAppTableRecord
  2
MCAD_NO_VIS
 70
     0
  0
APPID
  5
213
330
9
100
AcDbSymbolTableRecord
100
AcDbRegAppTableRecord
  2
ACAD_TEMP_GRAPHIC
 70
     0
  0
APPID
  5
246
330
9
100
AcDbSymbolTableRecord
100
AcDbRegAppTableRecord
  2
AD_DRAW
 70
     0
  0
APPID
  5
249
330
9
100
AcDbSymbolTableRecord
100
AcDbRegAppTableRecord
  2
ACATTRIBSERVICES
 70
     0
  0
APPID
  5
295
330
9
100
AcDbSymbolTableRecord
100
AcDbRegAppTableRecord
  2
ASURF_PCURVE_APPNAME
 70
     0
  0
APPID
  5
2C4
330
9
100
AcDbSymbolTableRecord
100
AcDbRegAppTableRecord
  2
DESIGNERASSEMBLIES
 70
     0
  0
APPID
  5
2CC
330
9
100
AcDbSymbolTableRecord
100
AcDbRegAppTableRecord
  2
ACADM_DIM_EDIT
 70
     0
  0
APPID
  5
2CD
330
9
100
AcDbSymbolTableRecord
100
AcDbRegAppTableRecord
  2
AMDT_DM_ADJ
 70
     0
  0
ENDTAB
  0
TABLE
  2
DIMSTYLE
  5
A
330
0
100
AcDbSymbolTable
 70
     1
100
AcDbDimStyleTable
 71
     1
340
2B
  0
DIMSTYLE
105
2B
330
A
100
AcDbSymbolTableRecord
100
AcDbDimStyleTableRecord
  2
STANDARD
 70
     0
279
     2
340
22
  0
ENDTAB
  0
TABLE
  2
BLOCK_RECORD
  5
1
330
0
100
AcDbSymbolTable
 70
     8
  0
BLOCK_RECORD
  5
1E
102
{ACAD_XDICTIONARY
360
38E
102
}
330
1
100
AcDbSymbolTableRecord
100
AcDbBlockTableRecord
  2
*Model_Space
340
21
  0
BLOCK_RECORD
  5
1A
330
1
100
AcDbSymbolTableRecord
100
AcDbBlockTableRecord
  2
*Paper_Space
340
1D
  0
BLOCK_RECORD
  5
2BB
330
1
100
AcDbSymbolTableRecord
100
AcDbBlockTableRecord
  2
*U0
340
0
  0
BLOCK_RECORD
  5
447
330
1
100
AcDbSymbolTableRecord
100
AcDbBlockTableRecord
  2
*U1
340
0
  0
BLOCK_RECORD
  5
461
330
1
100
AcDbSymbolTableRecord
100
AcDbBlockTableRecord
  2
*D2
340
0
  0
BLOCK_RECORD
  5
47D
330
1
100
AcDbSymbolTableRecord
100
AcDbBlockTableRecord
  2
*D3
340
0
  0
BLOCK_RECORD
  5
48B
330
1
100
AcDbSymbolTableRecord
100
AcDbBlockTableRecord
  2
*D4
340
0
  0
BLOCK_RECORD
  5
499
330
1
100
AcDbSymbolTableRecord
100
AcDbBlockTableRecord
  2
*D5
340
0
  0
BLOCK_RECORD
  5
582
330
1
100
AcDbSymbolTableRecord
100
AcDbBlockTableRecord
  2
*D7
340
0
  0
ENDTAB
  0
ENDSEC
  0
SECTION
  2
BLOCKS
  0
BLOCK
  5
1F
330
1E
100
AcDbEntity
  8
0
100
AcDbBlockBegin
  2
*Model_Space
 70
     0
 10
0.0
 20
0.0
 30
0.0
  3
*Model_Space
  1

  0
ENDBLK
  5
20
330
1E
100
AcDbEntity
  8
0
100
AcDbBlockEnd
  0
BLOCK
  5
1B
330
1A
100
AcDbEntity
 67
     1
  8
0
100
AcDbBlockBegin
  2
*Paper_Space
 70
     0
 10
0.0
 20
0.0
 30
0.0
  3
*Paper_Space
  1

  0
ENDBLK
  5
1C
330
1A
100
AcDbEntity
 67
     1
  8
0
100
AcDbBlockEnd
  0
BLOCK
  5
2BC
330
2BB
100
AcDbEntity
  8
0
100
AcDbBlockBegin
  2
*U0
 70
     1
 10
0.0
 20
0.0
 30
0.0
  3
*U0
  1

  0
ENDBLK
  5
2BD
330
2BB
100
AcDbEntity
  8
0
100
AcDbBlockEnd
  0
BLOCK
  5
448
330
447
100
AcDbEntity
  8
0
100
AcDbBlockBegin
  2
*U1
 70
     1
 10
0.0
 20
0.0
 30
0.0
  3
*U1
  1

  0
ENDBLK
  5
449
330
447
100
AcDbEntity
  8
0
100
AcDbBlockEnd
  0
BLOCK
  5
46C
330
461
100
AcDbEntity
  8
0
100
AcDbBlockBegin
  2
*D2
 70
     1
 10
0.0
 20
0.0
 30
0.0
  3
*D2
  1

  0
LINE
  5
462
330
461
100
AcDbEntity
  8
0
 62
     0
370
    -2
100
AcDbLine
 10
342.4374999999999
 20
550.9999999999998
 30
0.0
 11
324.9194782700805
 21
550.9999999999998
 31
0.0
  0
LINE
  5
463
330
461
100
AcDbEntity
  8
0
 62
     0
370
    -2
100
AcDbLine
 10
343.4375
 20
536.0
 30
0.0
 11
324.9194782700805
 21
536.0
 31
0.0
  0
LINE
  5
464
330
461
100
AcDbEntity
  8
0
 62
     0
370
    -2
100
AcDbLine
 10
325.0994782700805
 20
550.8199999999999
 30
0.0
 11
325.0994782700805
 21
543.6799999999998
 31
0.0
  0
LINE
  5
465
330
461
100
AcDbEntity
  8
0
 62
     0
370
    -2
100
AcDbLine
 10
325.0994782700805
 20
536.1799999999999
 30
0.0
 11
325.0994782700805
 21
543.3199999999999
 31
0.0
  0
SOLID
  5
466
330
461
100
AcDbEntity
  8
0
 62
     0
100
AcDbTrace
 10
325.0694782700806
 20
550.8199999999999
 30
0.0
 11
325.1294782700805
 21
550.8199999999999
 31
0.0
 12
325.0994782700805
 22
550.9999999999998
 32
0.0
 13
325.0994782700805
 23
550.9999999999998
 33
0.0
  0
SOLID
  5
467
330
461
100
AcDbEntity
  8
0
 62
     0
100
AcDbTrace
 10
325.0694782700806
 20
536.1799999999999
 30
0.0
 11
325.1294782700805
 21
536.1799999999999
 31
0.0
 12
325.0994782700805
 22
536.0
 32
0.0
 13
325.0994782700805
 23
536.0
 33
0.0
  0
MTEXT
  5
468
330
461
100
AcDbEntity
  8
0
 62
     0
100
AcDbMText
 10
325.0994782700804
 20
543.5
 30
0.0
 40
0.18
 41
0.0
 71
     5
 72
     1
  1
\A1;15.0000
 73
     1
 44
1.0
  0
POINT
  5
469
330
461
100
AcDbEntity
  8
Defpoints
 62
     0
100
AcDbPoint
 10
342.5
 20
550.9999999999998
 30
0.0
  0
POINT
  5
46A
330
461
100
AcDbEntity
  8
Defpoints
 62
     0
100
AcDbPoint
 10
343.5
 20
536.0
 30
0.0
  0
POINT
  5
46B
330
461
100
AcDbEntity
  8
Defpoints
 62
     0
100
AcDbPoint
 10
325.0994782700805
 20
536.0
 30
0.0
  0
ENDBLK
  5
46D
330
461
100
AcDbEntity
  8
0
100
AcDbBlockEnd
  0
BLOCK
  5
488
330
47D
100
AcDbEntity
  8
0
100
AcDbBlockBegin
  2
*D3
 70
     1
 10
0.0
 20
0.0
 30
0.0
  3
*D3
  1

  0
LINE
  5
47E
330
47D
100
AcDbEntity
  8
0
 62
     0
370
    -2
100
AcDbLine
 10
415.5624999999999
 20
448.0
 30
0.0
 11
507.9686407340449
 21
448.0
 31
0.0
  0
LINE
  5
47F
330
47D
100
AcDbEntity
  8
0
 62
     0
370
    -2
100
AcDbLine
 10
415.5624999999999
 20
270.0
 30
0.0
 11
507.9686407340449
 21
270.0
 31
0.0
  0
LINE
  5
480
330
47D
100
AcDbEntity
  8
0
 62
     0
370
    -2
100
AcDbLine
 10
507.7886407340449
 20
447.82
 30
0.0
 11
507.7886407340448
 21
359.18
 31
0.0
  0
LINE
  5
481
330
47D
100
AcDbEntity
  8
0
 62
     0
370
    -2
100
AcDbLine
 10
507.7886407340448
 20
270.1799999999999
 30
0.0
 11
507.7886407340448
 21
358.82
 31
0.0
  0
SOLID
  5
482
330
47D
100
AcDbEntity
  8
0
 62
     0
100
AcDbTrace
 10
507.7586407340449
 20
447.82
 30
0.0
 11
507.8186407340449
 21
447.82
 31
0.0
 12
507.7886407340449
 22
448.0
 32
0.0
 13
507.7886407340449
 23
448.0
 33
0.0
  0
SOLID
  5
483
330
47D
100
AcDbEntity
  8
0
 62
     0
100
AcDbTrace
 10
507.7586407340448
 20
270.1799999999999
 30
0.0
 11
507.8186407340448
 21
270.1799999999999
 31
0.0
 12
507.7886407340448
 22
270.0
 32
0.0
 13
507.7886407340448
 23
270.0
 33
0.0
  0
MTEXT
  5
484
330
47D
100
AcDbEntity
  8
0
 62
     0
100
AcDbMText
 10
507.7886407340447
 20
359.0
 30
0.0
 40
0.18
 41
0.0
 71
     5
 72
     1
  1
\A1;178.0000
 73
     1
 44
1.0
  0
POINT
  5
485
330
47D
100
AcDbEntity
  8
Defpoints
 62
     0
100
AcDbPoint
 10
415.5
 20
448.0
 30
0.0
  0
POINT
  5
486
330
47D
100
AcDbEntity
  8
Defpoints
 62
     0
100
AcDbPoint
 10
415.5
 20
270.0
 30
0.0
  0
POINT
  5
487
330
47D
100
AcDbEntity
  8
Defpoints
 62
     0
100
AcDbPoint
 10
507.7886407340448
 20
270.0
 30
0.0
  0
ENDBLK
  5
489
330
47D
100
AcDbEntity
  8
0
100
AcDbBlockEnd
  0
BLOCK
  5
496
330
48B
100
AcDbEntity
  8
0
100
AcDbBlockBegin
  2
*D4
 70
     1
 10
0.0
 20
0.0
 30
0.0
  3
*D4
  1

  0
LINE
  5
48C
330
48B
100
AcDbEntity
  8
0
 62
     0
370
    -2
100
AcDbLine
 10
425.5624999999998
 20
420.0
 30
0.0
 11
470.3912923857486
 21
420.0
 31
0.0
  0
LINE
  5
48D
330
48B
100
AcDbEntity
  8
0
 62
     0
370
    -2
100
AcDbLine
 10
415.5624999999999
 20
270.0
 30
0.0
 11
470.3912923857486
 21
270.0
 31
0.0
  0
LINE
  5
48E
330
48B
100
AcDbEntity
  8
0
 62
     0
370
    -2
100
AcDbLine
 10
470.2112923857487
 20
419.8199999999999
 30
0.0
 11
470.2112923857486
 21
345.1799999999999
 31
0.0
  0
LINE
  5
48F
330
48B
100
AcDbEntity
  8
0
 62
     0
370
    -2
100
AcDbLine
 10
470.2112923857486
 20
270.1799999999999
 30
0.0
 11
470.2112923857486
 21
344.8199999999999
 31
0.0
  0
SOLID
  5
490
330
48B
100
AcDbEntity
  8
0
 62
     0
100
AcDbTrace
 10
470.1812923857486
 20
419.8199999999999
 30
0.0
 11
470.2412923857486
 21
419.8199999999999
 31
0.0
 12
470.2112923857487
 22
420.0
 32
0.0
 13
470.2112923857487
 23
420.0
 33
0.0
  0
SOLID
  5
491
330
48B
100
AcDbEntity
  8
0
 62
     0
100
AcDbTrace
 10
470.1812923857486
 20
270.1799999999999
 30
0.0
 11
470.2412923857486
 21
270.1799999999999
 31
0.0
 12
470.2112923857486
 22
270.0
 32
0.0
 13
470.2112923857486
 23
270.0
 33
0.0
  0
MTEXT
  5
492
330
48B
100
AcDbEntity
  8
0
 62
     0
100
AcDbMText
 10
470.2112923857485
 20
345.0
 30
0.0
 40
0.18
 41
0.0
 71
     5
 72
     1
  1
\A1;150.0000
 73
     1
 44
1.0
  0
POINT
  5
493
330
48B
100
AcDbEntity
  8
Defpoints
 62
     0
100
AcDbPoint
 10
425.4999999999998
 20
420.0
 30
0.0
  0
POINT
  5
494
330
48B
100
AcDbEntity
  8
Defpoints
 62
     0
100
AcDbPoint
 10
415.5
 20
270.0
 30
0.0
  0
POINT
  5
495
330
48B
100
AcDbEntity
  8
Defpoints
 62
     0
100
AcDbPoint
 10
470.2112923857486
 20
270.0
 30
0.0
  0
ENDBLK
  5
497
330
48B
100
AcDbEntity
  8
0
100
AcDbBlockEnd
  0
BLOCK
  5
4A4
330
499
100
AcDbEntity
  8
0
100
AcDbBlockBegin
  2
*D5
 70
     1
 10
0.0
 20
0.0
 30
0.0
  3
*D5
  1

  0
LINE
  5
49A
330
499
100
AcDbEntity
  8
0
 62
     0
370
    -2
100
AcDbLine
 10
637.9374999999998
 20
448.0
 30
0.0
 11
563.0884952954192
 21
448.0
 31
0.0
  0
LINE
  5
49B
330
499
100
AcDbEntity
  8
0
 62
     0
370
    -2
100
AcDbLine
 10
637.9374999999998
 20
269.9999999999998
 30
0.0
 11
563.0884952954192
 21
269.9999999999998
 31
0.0
  0
LINE
  5
49C
330
499
100
AcDbEntity
  8
0
 62
     0
370
    -2
100
AcDbLine
 10
563.2684952954192
 20
447.82
 30
0.0
 11
563.2684952954192
 21
359.1799999999999
 31
0.0
  0
LINE
  5
49D
330
499
100
AcDbEntity
  8
0
 62
     0
370
    -2
100
AcDbLine
 10
563.2684952954192
 20
270.1799999999999
 30
0.0
 11
563.2684952954192
 21
358.8199999999999
 31
0.0
  0
SOLID
  5
49E
330
499
100
AcDbEntity
  8
0
 62
     0
100
AcDbTrace
 10
563.2384952954192
 20
447.82
 30
0.0
 11
563.2984952954192
 21
447.82
 31
0.0
 12
563.2684952954192
 22
448.0
 32
0.0
 13
563.2684952954192
 23
448.0
 33
0.0
  0
SOLID
  5
49F
330
499
100
AcDbEntity
  8
0
 62
     0
100
AcDbTrace
 10
563.2384952954192
 20
270.1799999999999
 30
0.0
 11
563.2984952954192
 21
270.1799999999999
 31
0.0
 12
563.2684952954192
 22
269.9999999999998
 32
0.0
 13
563.2684952954192
 23
269.9999999999998
 33
0.0
  0
MTEXT
  5
4A0
330
499
100
AcDbEntity
  8
0
 62
     0
100
AcDbMText
 10
563.2684952954191
 20
359.0
 30
0.0
 40
0.18
 41
0.0
 71
     5
 72
     1
  1
\A1;178.0000
 73
     1
 44
1.0
  0
POINT
  5
4A1
330
499
100
AcDbEntity
  8
Defpoints
 62
     0
100
AcDbPoint
 10
637.9999999999999
 20
448.0
 30
0.0
  0
POINT
  5
4A2
330
499
100
AcDbEntity
  8
Defpoints
 62
     0
100
AcDbPoint
 10
637.9999999999999
 20
269.9999999999998
 30
0.0
  0
POINT
  5
4A3
330
499
100
AcDbEntity
  8
Defpoints
 62
     0
100
AcDbPoint
 10
563.2684952954192
 20
269.9999999999998
 30
0.0
  0
ENDBLK
  5
4A5
330
499
100
AcDbEntity
  8
0
100
AcDbBlockEnd
  0
BLOCK
  5
58D
330
582
100
AcDbEntity
  8
0
100
AcDbBlockBegin
  2
*D7
 70
     1
 10
0.0
 20
0.0
 30
0.0
  3
*D7
  1

  0
LINE
  5
583
330
582
100
AcDbEntity
  8
0
 62
     0
370
    -2
100
AcDbLine
 10
737.7261227977386
 20
829.0377535270639
 30
0.0
 11
725.9661239571228
 21
829.0377535270639
 31
0.0
  0
LINE
  5
584
330
582
100
AcDbEntity
  8
0
 62
     0
370
    -2
100
AcDbLine
 10
737.7261227977386
 20
827.037753527064
 30
0.0
 11
725.9661239571228
 21
827.037753527064
 31
0.0
  0
LINE
  5
585
330
582
100
AcDbEntity
  8
0
 62
     0
370
    -2
100
AcDbLine
 10
726.1461239571227
 20
828.857753527064
 30
0.0
 11
726.1461239571227
 21
828.2177535270639
 31
0.0
  0
LINE
  5
586
330
582
100
AcDbEntity
  8
0
 62
     0
370
    -2
100
AcDbLine
 10
726.1461239571227
 20
827.2177535270639
 30
0.0
 11
726.1461239571227
 21
827.857753527064
 31
0.0
  0
SOLID
  5
587
330
582
100
AcDbEntity
  8
0
 62
     0
100
AcDbTrace
 10
726.1161239571228
 20
828.857753527064
 30
0.0
 11
726.1761239571227
 21
828.857753527064
 31
0.0
 12
726.1461239571227
 22
829.0377535270639
 32
0.0
 13
726.1461239571227
 23
829.0377535270639
 33
0.0
  0
SOLID
  5
588
330
582
100
AcDbEntity
  8
0
 62
     0
100
AcDbTrace
 10
726.1161239571228
 20
827.2177535270639
 30
0.0
 11
726.1761239571227
 21
827.2177535270639
 31
0.0
 12
726.1461239571227
 22
827.037753527064
 32
0.0
 13
726.1461239571227
 23
827.037753527064
 33
0.0
  0
MTEXT
  5
589
330
582
100
AcDbEntity
  8
0
 62
     0
100
AcDbMText
 10
726.1461239571225
 20
828.0377535270641
 30
0.0
 40
0.18
 41
0.0
 71
     5
 72
     1
  1
\A1;2.0000
 73
     1
 44
1.0
  0
POINT
  5
58A
330
582
100
AcDbEntity
  8
Defpoints
 62
     0
100
AcDbPoint
 10
737.7886227977386
 20
829.0377535270639
 30
0.0
  0
POINT
  5
58B
330
582
100
AcDbEntity
  8
Defpoints
 62
     0
100
AcDbPoint
 10
737.7886227977386
 20
827.037753527064
 30
0.0
  0
POINT
  5
58C
330
582
100
AcDbEntity
  8
Defpoints
 62
     0
100
AcDbPoint
 10
726.1461239571227
 20
827.037753527064
 30
0.0
  0
ENDBLK
  5
58E
330
582
100
AcDbEntity
  8
0
100
AcDbBlockEnd
  0
ENDSEC
  0
SECTION
  2
ENTITIES
  0
LINE
  5
3A
330
1E
100
AcDbEntity
  8
4
100
AcDbLine
 10
372.5
 20
591.0
 30
0.0
 11
342.5
 21
591.0
 31
0.0
  0
LINE
  5
3B
330
1E
100
AcDbEntity
  8
4
100
AcDbLine
 10
342.5
 20
603.0
 30
0.0
 11
372.5
 21
603.0
 31
0.0
  0
LINE
  5
3C
330
1E
100
AcDbEntity
  8
4
100
AcDbLine
 10
372.5
 20
615.0
 30
0.0
 11
342.5
 21
615.0
 31
0.0
  0
ARC
  5
3D
330
1E
100
AcDbEntity
  8
4
100
AcDbCircle
 10
370.0
 20
596.9375
 30
0.0
 40
6.0625
100
AcDbArc
 50
42.07502205084361
 51
137.9249779491563
  0
ARC
  5
3E
330
1E
100
AcDbEntity
  8
4
100
AcDbCircle
 10
370.0
 20
597.0625
 30
0.0
 40
6.0625
100
AcDbArc
 50
222.0750220508435
 51
317.9249779491563
  0
ARC
  5
3F
330
1E
100
AcDbEntity
  8
4
100
AcDbCircle
 10
370.0
 20
621.0625
 30
0.0
 40
6.0625
100
AcDbArc
 50
222.0750220508435
 51
317.9249779491563
  0
LINE
  5
40
330
1E
100
AcDbEntity
  8
4
100
AcDbLine
 10
367.5
 20
639.0
 30
0.0
 11
365.5
 21
641.0
 31
0.0
  0
LINE
  5
41
330
1E
100
AcDbEntity
  8
4
100
AcDbLine
 10
347.5
 20
639.0
 30
0.0
 11
367.5
 21
639.0
 31
0.0
  0
LINE
  5
42
330
1E
100
AcDbEntity
  8
4
100
AcDbLine
 10
342.5
 20
627.0
 30
0.0
 11
372.5
 21
627.0
 31
0.0
  0
ARC
  5
43
330
1E
100
AcDbEntity
  8
4
100
AcDbCircle
 10
370.0
 20
620.9375
 30
0.0
 40
6.0625
100
AcDbArc
 50
42.07502205084361
 51
137.9249779491563
  0
LINE
  5
44
330
1E
100
AcDbEntity
  8
4
100
AcDbLine
 10
340.5
 20
616.9999999999999
 30
0.0
 11
340.5
 21
625.0
 31
0.0
  0
LINE
  5
45
330
1E
100
AcDbEntity
  8
4
100
AcDbLine
 10
365.5
 20
625.0
 30
0.0
 11
365.5
 21
616.9999999999999
 31
0.0
  0
LINE
  5
46
330
1E
100
AcDbEntity
  8
4
100
AcDbLine
 10
349.5
 20
625.0
 30
0.0
 11
349.5
 21
616.9999999999999
 31
0.0
  0
ARC
  5
47
330
1E
100
AcDbEntity
  8
4
100
AcDbCircle
 10
345.0
 20
620.9375
 30
0.0
 40
6.0625
100
AcDbArc
 50
42.07502205084361
 51
137.9249779491563
  0
LINE
  5
48
330
1E
100
AcDbEntity
  8
4
100
AcDbLine
 10
349.5
 20
641.0
 30
0.0
 11
347.5
 21
639.0
 31
0.0
  0
LINE
  5
49
330
1E
100
AcDbEntity
  8
4
100
AcDbLine
 10
347.5
 20
627.0
 30
0.0
 11
347.5
 21
639.0
 31
0.0
  0
LINE
  5
4A
330
1E
100
AcDbEntity
  8
4
100
AcDbLine
 10
340.5
 20
625.0
 30
0.0
 11
342.5
 21
627.0
 31
0.0
  0
LINE
  5
4B
330
1E
100
AcDbEntity
  8
4
100
AcDbLine
 10
365.5
 20
641.0
 30
0.0
 11
365.5
 21
627.0
 31
0.0
  0
LINE
  5
4C
330
1E
100
AcDbEntity
  8
4
100
AcDbLine
 10
349.5
 20
641.0
 30
0.0
 11
349.5
 21
627.0
 31
0.0
  0
LINE
  5
4D
330
1E
100
AcDbEntity
  8
4
100
AcDbLine
 10
365.5
 20
641.0
 30
0.0
 11
349.5
 21
641.0
 31
0.0
  0
ARC
  5
4E
330
1E
100
AcDbEntity
  8
4
100
AcDbCircle
 10
357.5
 20
610.0
 30
0.0
 40
17.0
100
AcDbArc
 50
61.92751306414703
 51
118.0724869358527
  0
LINE
  5
4F
330
1E
100
AcDbEntity
  8
4
100
AcDbLine
 10
340.5
 20
592.9999999999997
 30
0.0
 11
340.5
 21
600.9999999999998
 31
0.0
  0
LINE
  5
50
330
1E
100
AcDbEntity
  8
4
100
AcDbLine
 10
365.5
 20
600.9999999999998
 30
0.0
 11
365.5
 21
592.9999999999997
 31
0.0
  0
LINE
  5
51
330
1E
100
AcDbEntity
  8
4
100
AcDbLine
 10
349.5
 20
600.9999999999998
 30
0.0
 11
349.5
 21
592.9999999999997
 31
0.0
  0
ARC
  5
52
330
1E
100
AcDbEntity
  8
4
100
AcDbCircle
 10
345.0
 20
596.9375
 30
0.0
 40
6.0625
100
AcDbArc
 50
42.07502205084361
 51
137.9249779491563
  0
ARC
  5
53
330
1E
100
AcDbEntity
  8
4
100
AcDbCircle
 10
345.0
 20
621.0625
 30
0.0
 40
6.0625
100
AcDbArc
 50
222.0750220508435
 51
317.9249779491563
  0
LINE
  5
54
330
1E
100
AcDbEntity
  8
4
100
AcDbLine
 10
347.5
 20
603.0
 30
0.0
 11
347.5
 21
615.0
 31
0.0
  0
LINE
  5
55
330
1E
100
AcDbEntity
  8
4
100
AcDbLine
 10
342.5
 20
615.0
 30
0.0
 11
340.5
 21
616.9999999999999
 31
0.0
  0
LINE
  5
56
330
1E
100
AcDbEntity
  8
4
100
AcDbLine
 10
340.5
 20
600.9999999999998
 30
0.0
 11
342.5
 21
603.0
 31
0.0
  0
LINE
  5
57
330
1E
100
AcDbEntity
  8
4
100
AcDbLine
 10
365.5
 20
615.0
 30
0.0
 11
365.5
 21
603.0
 31
0.0
  0
LINE
  5
58
330
1E
100
AcDbEntity
  8
4
100
AcDbLine
 10
349.5
 20
615.0
 30
0.0
 11
349.5
 21
603.0
 31
0.0
  0
ARC
  5
59
330
1E
100
AcDbEntity
  8
4
100
AcDbCircle
 10
357.5
 20
632.0
 30
0.0
 40
17.0
100
AcDbArc
 50
241.927513064147
 51
298.0724869358529
  0
ARC
  5
5A
330
1E
100
AcDbEntity
  8
4
100
AcDbCircle
 10
357.5
 20
586.0
 30
0.0
 40
17.0
100
AcDbArc
 50
61.92751306414703
 51
118.0724869358527
  0
ARC
  5
5B
330
1E
100
AcDbEntity
  8
4
100
AcDbCircle
 10
345.0
 20
597.0625
 30
0.0
 40
6.0625
100
AcDbArc
 50
222.0750220508435
 51
317.9249779491563
  0
LINE
  5
5C
330
1E
100
AcDbEntity
  8
4
100
AcDbLine
 10
342.5
 20
591.0
 30
0.0
 11
340.5
 21
592.9999999999997
 31
0.0
  0
ARC
  5
5D
330
1E
100
AcDbEntity
  8
4
100
AcDbCircle
 10
357.5
 20
608.0
 30
0.0
 40
17.0
100
AcDbArc
 50
241.927513064147
 51
298.0724869358529
  0
LINE
  5
5E
330
1E
100
AcDbEntity
  8
4
100
AcDbLine
 10
374.5
 20
625.0
 30
0.0
 11
374.5
 21
616.9999999999999
 31
0.0
  0
LINE
  5
5F
330
1E
100
AcDbEntity
  8
4
100
AcDbLine
 10
367.5
 20
627.0
 30
0.0
 11
367.5
 21
639.0
 31
0.0
  0
LINE
  5
60
330
1E
100
AcDbEntity
  8
4
100
AcDbLine
 10
372.5
 20
627.0
 30
0.0
 11
374.5
 21
625.0
 31
0.0
  0
LINE
  5
61
330
1E
100
AcDbEntity
  8
4
100
AcDbLine
 10
374.5
 20
600.9999999999998
 30
0.0
 11
374.5
 21
592.9999999999997
 31
0.0
  0
LINE
  5
62
330
1E
100
AcDbEntity
  8
4
100
AcDbLine
 10
367.5
 20
603.0
 30
0.0
 11
367.5
 21
615.0
 31
0.0
  0
LINE
  5
63
330
1E
100
AcDbEntity
  8
4
100
AcDbLine
 10
374.5
 20
616.9999999999999
 30
0.0
 11
372.5
 21
615.0
 31
0.0
  0
LINE
  5
64
330
1E
100
AcDbEntity
  8
4
100
AcDbLine
 10
372.5
 20
603.0
 30
0.0
 11
374.5
 21
600.9999999999998
 31
0.0
  0
LINE
  5
65
330
1E
100
AcDbEntity
  8
4
100
AcDbLine
 10
374.5
 20
592.9999999999997
 30
0.0
 11
372.5
 21
591.0
 31
0.0
  0
LINE
  5
66
330
1E
100
AcDbEntity
  8
1
100
AcDbLine
 10
357.5
 20
519.5
 30
0.0
 11
357.5
 21
647.5
 31
0.0
  0
LINE
  5
67
330
1E
100
AcDbEntity
  8
4
100
AcDbLine
 10
367.5
 20
570.9999999999999
 30
0.0
 11
367.5
 21
591.0
 31
0.0
  0
LINE
  5
68
330
1E
100
AcDbEntity
  8
4
100
AcDbLine
 10
365.5
 20
570.9999999999999
 30
0.0
 11
365.5
 21
591.0
 31
0.0
  0
LINE
  5
69
330
1E
100
AcDbEntity
  8
4
100
AcDbLine
 10
349.5
 20
570.9999999999999
 30
0.0
 11
349.5
 21
591.0
 31
0.0
  0
LINE
  5
6A
330
1E
100
AcDbEntity
  8
4
100
AcDbLine
 10
347.5
 20
570.9999999999999
 30
0.0
 11
347.5
 21
591.0
 31
0.0
  0
TEXT
  5
6B
330
1E
100
AcDbEntity
  8
3
100
AcDbText
 10
639.804500587769
 20
54.72178663947826
 30
0.0
 40
12.6
  1
アルミ・スパンナー
 41
0.8
  7
BIGFONT
100
AcDbText
  0
TEXT
  5
6C
330
1E
100
AcDbEntity
  8
3
100
AcDbText
 10
642.9992835474167
 20
30.02408588068762
 30
0.0
 40
12.6
  1
ＡＬ－１－９０
 41
0.8
  7
BIGFONT
100
AcDbText
  0
LINE
  5
6F
330
1E
100
AcDbEntity
  8
1
100
AcDbLine
 10
154.0
 20
466.9999999999998
 30
0.0
 11
154.0
 21
235.0
 31
0.0
  0
LINE
  5
70
330
1E
100
AcDbEntity
  8
0
100
AcDbLine
 10
154.0
 20
442.9999999999998
 30
0.0
 11
165.0
 21
442.9999999999998
 31
0.0
  0
LINE
  5
71
330
1E
100
AcDbEntity
  8
0
100
AcDbLine
 10
154.0
 20
442.9999999999998
 30
0.0
 11
142.9999999999997
 21
442.9999999999998
 31
0.0
  0
LINE
  5
72
330
1E
100
AcDbEntity
  8
0
100
AcDbLine
 10
166.9999999999998
 20
441.0
 30
0.0
 11
166.9999999999998
 21
434.9635030320353
 31
0.0
  0
LINE
  5
73
330
1E
100
AcDbEntity
  8
0
100
AcDbLine
 10
140.9999999999998
 20
441.0
 30
0.0
 11
140.9999999999998
 21
429.9999999999998
 31
0.0
  0
LINE
  5
74
330
1E
100
AcDbEntity
  8
0
100
AcDbLine
 10
142.9999999999997
 20
397.0
 30
0.0
 11
165.0
 21
397.0
 31
0.0
  0
ARC
  5
75
330
1E
100
AcDbEntity
  8
0
100
AcDbCircle
 10
164.9295567593476
 20
440.9295567593476
 30
0.0
 40
2.07164124860379
100
AcDbArc
 50
1.948637863118507
 51
88.05136213688154
  0
ARC
  5
76
330
1E
100
AcDbEntity
  8
0
100
AcDbCircle
 10
143.286736097078
 20
440.7132639029216
 30
0.0
 40
2.3046430454731
100
AcDbArc
 50
97.1470725678273
 51
172.8529274321719
  0
ARC
  5
77
330
1E
100
AcDbEntity
  8
0
100
AcDbCircle
 10
165.169150630568
 20
398.8308493694318
 30
0.0
 40
1.838646608070898
100
AcDbArc
 50
264.721475906502
 51
5.278524093499457
  0
ARC
  5
78
330
1E
100
AcDbEntity
  8
0
100
AcDbCircle
 10
143.3562636541344
 20
399.3562636541343
 30
0.0
 40
2.383044732910406
100
AcDbArc
 50
188.5979146602043
 51
261.4020853397955
  0
LINE
  5
79
330
1E
100
AcDbEntity
  8
1
100
AcDbLine
 10
115.9999999999999
 20
420.0
 30
0.0
 11
187.5
 21
420.0
 31
0.0
  0
LINE
  5
7A
330
1E
100
AcDbEntity
  8
0
100
AcDbLine
 10
145.9999999999998
 20
440.0
 30
0.0
 11
162.0
 21
440.0
 31
0.0
  0
LINE
  5
7B
330
1E
100
AcDbEntity
  8
0
100
AcDbLine
 10
163.4999999999998
 20
438.4999999999998
 30
0.0
 11
163.4999999999998
 21
401.4999999999998
 31
0.0
  0
LINE
  5
7C
330
1E
100
AcDbEntity
  8
0
100
AcDbLine
 10
162.0
 20
400.0
 30
0.0
 11
156.8281867060083
 21
400.0
 31
0.0
  0
LINE
  5
7D
330
1E
100
AcDbEntity
  8
0
100
AcDbLine
 10
144.5
 20
401.4999999999998
 30
0.0
 11
144.5
 21
438.4999999999998
 31
0.0
  0
ARC
  5
7E
330
1E
100
AcDbEntity
  8
0
100
AcDbCircle
 10
161.9143159509391
 20
438.4143159509391
 30
0.0
 40
1.587997373961715
100
AcDbArc
 50
3.093027579428828
 51
86.90697242057009
  0
ARC
  5
7F
330
1E
100
AcDbEntity
  8
0
100
AcDbCircle
 10
146.237414132536
 20
438.2625858674639
 30
0.0
 40
1.753560189518419
100
AcDbArc
 50
97.78115971444712
 51
172.2188402855528
  0
ARC
  5
80
330
1E
100
AcDbEntity
  8
0
100
AcDbCircle
 10
162.0353882220488
 20
401.4646117779511
 30
0.0
 40
1.46503924397036
100
AcDbArc
 50
268.6158780375678
 51
1.384121962432265
  0
ARC
  5
81
330
1E
100
AcDbEntity
  8
0
100
AcDbCircle
 10
146.087244280574
 20
401.587244280574
 30
0.0
 40
1.589640201651973
100
AcDbArc
 50
183.146147128759
 51
266.8538528712397
  0
LINE
  5
82
330
1E
100
AcDbEntity
  8
0
100
AcDbLine
 10
166.0
 20
441.9999999999998
 30
0.0
 11
163.4999999999998
 21
440.0
 31
0.0
  0
LINE
  5
83
330
1E
100
AcDbEntity
  8
0
100
AcDbLine
 10
141.9999999999997
 20
441.9999999999998
 30
0.0
 11
144.5
 21
440.0
 31
0.0
  0
LINE
  5
84
330
1E
100
AcDbEntity
  8
0
100
AcDbLine
 10
166.0
 20
398.0
 30
0.0
 11
163.4999999999998
 21
400.0
 31
0.0
  0
LINE
  5
85
330
1E
100
AcDbEntity
  8
0
100
AcDbLine
 10
141.9999999999997
 20
398.0
 30
0.0
 11
144.5
 21
400.0
 31
0.0
  0
ARC
  5
89
330
1E
100
AcDbEntity
  8
0
100
AcDbCircle
 10
154.0
 20
289.4999999999999
 30
0.0
 40
5.5
100
AcDbArc
 50
180.0
 51
0.0
  0
LINE
  5
8A
330
1E
100
AcDbEntity
  8
0
100
AcDbLine
 10
159.4999999999997
 20
289.4999999999999
 30
0.0
 11
159.4999999999997
 21
380.5
 31
0.0
  0
LINE
  5
8B
330
1E
100
AcDbEntity
  8
0
100
AcDbLine
 10
148.5
 20
289.4999999999999
 30
0.0
 11
148.5
 21
380.5
 31
0.0
  0
ARC
  5
8C
330
1E
100
AcDbEntity
  8
0
100
AcDbCircle
 10
154.0
 20
380.5
 30
0.0
 40
5.5
100
AcDbArc
 50
0.0
 51
180.0
  0
LINE
  5
8D
330
1E
100
AcDbEntity
  8
1
100
AcDbLine
 10
357.5
 20
463.4999999999998
 30
0.0
 11
357.5
 21
372.0
 31
0.0
  0
LINE
  5
8E
330
1E
100
AcDbEntity
  8
1
100
AcDbLine
 10
327.0
 20
420.0
 30
0.0
 11
425.4999999999998
 21
420.0
 31
0.0
  0
ARC
  5
8F
330
1E
100
AcDbEntity
  8
0
100
AcDbCircle
 10
357.5
 20
420.0
 30
0.0
 40
20.0
100
AcDbArc
 50
90.0
 51
270.0
  0
LINE
  5
90
330
1E
100
AcDbEntity
  8
0
100
AcDbLine
 10
415.5
 20
450.0
 30
0.0
 11
415.5
 21
270.0
 31
0.0
  0
LINE
  5
91
330
1E
100
AcDbEntity
  8
0
100
AcDbLine
 10
357.5
 20
400.0
 30
0.0
 11
398.4999999999998
 21
397.0
 31
0.0
  0
LINE
  5
93
330
1E
100
AcDbEntity
  8
1
100
AcDbLine
 10
357.5
 20
523.5
 30
0.0
 11
357.5
 21
595.9999999999999
 31
0.0
  0
LINE
  5
94
330
1E
100
AcDbEntity
  8
1
100
AcDbLine
 10
327.0
 20
560.0
 30
0.0
 11
425.9999999999998
 21
560.0
 31
0.0
  0
LINE
  5
95
330
1E
100
AcDbEntity
  8
0
100
AcDbLine
 10
415.5
 20
560.0
 30
0.0
 11
415.5
 21
579.9999999999998
 31
0.0
  0
LINE
  5
96
330
1E
100
AcDbEntity
  8
0
100
AcDbLine
 10
415.5
 20
560.0
 30
0.0
 11
415.5
 21
540.0
 31
0.0
  0
LINE
  5
97
330
1E
100
AcDbEntity
  8
0
100
AcDbLine
 10
398.4999999999998
 20
560.0
 30
0.0
 11
398.4999999999998
 21
579.4999999999999
 31
0.0
  0
LINE
  5
98
330
1E
100
AcDbEntity
  8
0
100
AcDbLine
 10
398.4999999999998
 20
560.0
 30
0.0
 11
398.4999999999998
 21
540.5
 31
0.0
  0
LINE
  5
9B
330
1E
100
AcDbEntity
  8
0
100
AcDbLine
 10
398.4999999999998
 20
579.4999999999999
 30
0.0
 11
415.5
 21
579.9999999999998
 31
0.0
  0
LINE
  5
9C
330
1E
100
AcDbEntity
  8
0
100
AcDbLine
 10
398.4999999999998
 20
540.5
 30
0.0
 11
415.5
 21
540.0
 31
0.0
  0
LINE
  5
A7
330
1E
100
AcDbEntity
  8
2
100
AcDbLine
 10
367.5
 20
569.0
 30
0.0
 11
367.5
 21
550.9999999999998
 31
0.0
  0
LINE
  5
A8
330
1E
100
AcDbEntity
  8
2
100
AcDbLine
 10
365.5
 20
569.0
 30
0.0
 11
365.5
 21
550.9999999999998
 31
0.0
  0
LINE
  5
A9
330
1E
100
AcDbEntity
  8
2
100
AcDbLine
 10
349.5
 20
569.0
 30
0.0
 11
349.5
 21
550.9999999999998
 31
0.0
  0
LINE
  5
AA
330
1E
100
AcDbEntity
  8
2
100
AcDbLine
 10
347.5
 20
569.0
 30
0.0
 11
347.5
 21
550.9999999999998
 31
0.0
  0
CIRCLE
  5
AB
330
1E
100
AcDbEntity
  8
2
100
AcDbCircle
 10
357.5
 20
560.0
 30
0.0
 40
3.0
  0
CIRCLE
  5
AC
330
1E
100
AcDbEntity
  8
2
100
AcDbCircle
 10
357.5
 20
560.0
 30
0.0
 40
2.5
  0
LINE
  5
AD
330
1E
100
AcDbEntity
  8
0
100
AcDbLine
 10
415.5
 20
270.0
 30
0.0
 11
398.0
 21
270.5
 31
0.0
  0
LINE
  5
AE
330
1E
100
AcDbEntity
  8
2
100
AcDbLine
 10
163.4999999999998
 20
436.0
 30
0.0
 11
163.0
 21
436.0
 31
0.0
  0
LINE
  5
AF
330
1E
100
AcDbEntity
  8
2
100
AcDbLine
 10
163.0
 20
436.0
 30
0.0
 11
163.0
 21
404.0
 31
0.0
  0
LINE
  5
B0
330
1E
100
AcDbEntity
  8
2
100
AcDbLine
 10
144.5
 20
436.0
 30
0.0
 11
145.0
 21
436.0
 31
0.0
  0
LINE
  5
B1
330
1E
100
AcDbEntity
  8
2
100
AcDbLine
 10
145.0
 20
436.0
 30
0.0
 11
145.0
 21
404.0
 31
0.0
  0
LINE
  5
B2
330
1E
100
AcDbEntity
  8
2
100
AcDbLine
 10
163.4999999999998
 20
404.0
 30
0.0
 11
163.0
 21
404.0
 31
0.0
  0
LINE
  5
B3
330
1E
100
AcDbEntity
  8
2
100
AcDbLine
 10
145.0
 20
404.0
 30
0.0
 11
144.5
 21
404.0
 31
0.0
  0
ARC
  5
B4
330
1E
100
AcDbEntity
  8
0
100
AcDbCircle
 10
100.5
 20
420.0
 30
0.0
 40
65.0
100
AcDbArc
 50
345.7499673021963
 51
346.6724407228994
  0
ARC
  5
B5
330
1E
100
AcDbEntity
  8
0
100
AcDbCircle
 10
207.5
 20
420.0
 30
0.0
 40
65.0
100
AcDbArc
 50
165.7499673021964
 51
171.1809515879123
  0
LINE
  5
B6
330
1E
100
AcDbEntity
  8
2
100
AcDbLine
 10
163.0
 20
429.9999999999998
 30
0.0
 11
145.0
 21
429.9999999999998
 31
0.0
  0
LINE
  5
B7
330
1E
100
AcDbEntity
  8
2
100
AcDbLine
 10
163.0
 20
428.0
 30
0.0
 11
145.0
 21
428.0
 31
0.0
  0
LINE
  5
B8
330
1E
100
AcDbEntity
  8
2
100
AcDbLine
 10
163.0
 20
412.0
 30
0.0
 11
145.0
 21
412.0
 31
0.0
  0
LINE
  5
B9
330
1E
100
AcDbEntity
  8
2
100
AcDbLine
 10
163.0
 20
409.9999999999998
 30
0.0
 11
145.0
 21
409.9999999999998
 31
0.0
  0
LINE
  5
C0
330
1E
100
AcDbEntity
  8
1
100
AcDbLine
 10
194.5
 20
420.0
 30
0.0
 11
62.5
 21
420.0
 31
0.0
  0
LINE
  5
C1
330
1E
100
AcDbEntity
  8
4
100
AcDbLine
 10
87.00000000000001
 20
435.0
 30
0.0
 11
89.0
 21
437.0
 31
0.0
  0
ARC
  5
C2
330
1E
100
AcDbEntity
  8
4
100
AcDbCircle
 10
93.0625
 20
432.5
 30
0.0
 40
6.0625
100
AcDbArc
 50
132.0750220508436
 51
227.9249779491562
  0
ARC
  5
C3
330
1E
100
AcDbEntity
  8
4
100
AcDbCircle
 10
93.0625
 20
407.5
 30
0.0
 40
6.0625
100
AcDbArc
 50
132.0750220508436
 51
227.9249779491562
  0
LINE
  5
C4
330
1E
100
AcDbEntity
  8
4
100
AcDbLine
 10
89.0
 20
403.0
 30
0.0
 11
87.00000000000001
 21
404.9999999999998
 31
0.0
  0
ARC
  5
C5
330
1E
100
AcDbEntity
  8
4
100
AcDbCircle
 10
104.0
 20
420.0
 30
0.0
 40
17.0
100
AcDbArc
 50
151.927513064147
 51
208.0724869358528
  0
LINE
  5
C6
330
1E
100
AcDbEntity
  8
4
100
AcDbLine
 10
87.00000000000001
 20
404.9999999999998
 30
0.0
 11
87.00000000000001
 21
435.0
 31
0.0
  0
LINE
  5
C7
330
1E
100
AcDbEntity
  8
4
100
AcDbLine
 10
73.0
 20
428.0
 30
0.0
 11
73.0
 21
412.0
 31
0.0
  0
LINE
  5
C8
330
1E
100
AcDbEntity
  8
4
100
AcDbLine
 10
75.0
 20
409.9999999999998
 30
0.0
 11
75.0
 21
429.9999999999998
 31
0.0
  0
LINE
  5
C9
330
1E
100
AcDbEntity
  8
4
100
AcDbLine
 10
73.0
 20
412.0
 30
0.0
 11
87.00000000000001
 21
412.0
 31
0.0
  0
LINE
  5
CA
330
1E
100
AcDbEntity
  8
4
100
AcDbLine
 10
87.00000000000001
 20
409.9999999999998
 30
0.0
 11
75.0
 21
409.9999999999998
 31
0.0
  0
LINE
  5
CB
330
1E
100
AcDbEntity
  8
4
100
AcDbLine
 10
73.0
 20
412.0
 30
0.0
 11
75.0
 21
409.9999999999998
 31
0.0
  0
LINE
  5
CC
330
1E
100
AcDbEntity
  8
4
100
AcDbLine
 10
87.00000000000001
 20
429.9999999999998
 30
0.0
 11
75.0
 21
429.9999999999998
 31
0.0
  0
LINE
  5
CD
330
1E
100
AcDbEntity
  8
4
100
AcDbLine
 10
73.0
 20
428.0
 30
0.0
 11
87.00000000000001
 21
428.0
 31
0.0
  0
LINE
  5
CE
330
1E
100
AcDbEntity
  8
4
100
AcDbLine
 10
75.0
 20
429.9999999999998
 30
0.0
 11
73.0
 21
428.0
 31
0.0
  0
LINE
  5
CF
330
1E
100
AcDbEntity
  8
4
100
AcDbLine
 10
111.0
 20
404.9999999999998
 30
0.0
 11
111.0
 21
435.0
 31
0.0
  0
LINE
  5
D0
330
1E
100
AcDbEntity
  8
4
100
AcDbLine
 10
122.9999999999999
 20
435.0
 30
0.0
 11
122.9999999999999
 21
404.9999999999998
 31
0.0
  0
ARC
  5
D1
330
1E
100
AcDbEntity
  8
4
100
AcDbCircle
 10
128.0
 20
420.0
 30
0.0
 40
17.0
100
AcDbArc
 50
151.927513064147
 51
208.0724869358528
  0
ARC
  5
D2
330
1E
100
AcDbEntity
  8
4
100
AcDbCircle
 10
106.0
 20
420.0
 30
0.0
 40
17.0
100
AcDbArc
 50
331.9275130641468
 51
28.07248693585297
  0
LINE
  5
D3
330
1E
100
AcDbEntity
  8
4
100
AcDbLine
 10
99.0
 20
435.0
 30
0.0
 11
99.0
 21
404.9999999999998
 31
0.0
  0
ARC
  5
D4
330
1E
100
AcDbEntity
  8
4
100
AcDbCircle
 10
82.00000000000001
 20
420.0
 30
0.0
 40
17.0
100
AcDbArc
 50
331.9275130641468
 51
28.07248693585297
  0
LINE
  5
D5
330
1E
100
AcDbEntity
  8
4
100
AcDbLine
 10
120.9999999999999
 20
403.0
 30
0.0
 11
113.0
 21
403.0
 31
0.0
  0
LINE
  5
D6
330
1E
100
AcDbEntity
  8
4
100
AcDbLine
 10
113.0
 20
412.0
 30
0.0
 11
120.9999999999999
 21
412.0
 31
0.0
  0
LINE
  5
D7
330
1E
100
AcDbEntity
  8
4
100
AcDbLine
 10
99.0
 20
412.0
 30
0.0
 11
111.0
 21
412.0
 31
0.0
  0
LINE
  5
D8
330
1E
100
AcDbEntity
  8
4
100
AcDbLine
 10
111.0
 20
409.9999999999998
 30
0.0
 11
99.0
 21
409.9999999999998
 31
0.0
  0
ARC
  5
D9
330
1E
100
AcDbEntity
  8
4
100
AcDbCircle
 10
92.93750000000001
 20
407.5
 30
0.0
 40
6.0625
100
AcDbArc
 50
312.0750220508436
 51
47.92497794915634
  0
LINE
  5
DA
330
1E
100
AcDbEntity
  8
4
100
AcDbLine
 10
99.0
 20
404.9999999999998
 30
0.0
 11
97.0
 21
403.0
 31
0.0
  0
LINE
  5
DB
330
1E
100
AcDbEntity
  8
4
100
AcDbLine
 10
97.0
 20
403.0
 30
0.0
 11
89.0
 21
403.0
 31
0.0
  0
LINE
  5
DC
330
1E
100
AcDbEntity
  8
4
100
AcDbLine
 10
89.0
 20
412.0
 30
0.0
 11
97.0
 21
412.0
 31
0.0
  0
ARC
  5
DD
330
1E
100
AcDbEntity
  8
4
100
AcDbCircle
 10
117.0625
 20
407.5
 30
0.0
 40
6.0625
100
AcDbArc
 50
132.0750220508436
 51
227.9249779491562
  0
LINE
  5
DE
330
1E
100
AcDbEntity
  8
4
100
AcDbLine
 10
113.0
 20
403.0
 30
0.0
 11
111.0
 21
404.9999999999998
 31
0.0
  0
LINE
  5
DF
330
1E
100
AcDbEntity
  8
4
100
AcDbLine
 10
142.9999999999997
 20
409.9999999999998
 30
0.0
 11
122.9999999999999
 21
409.9999999999998
 31
0.0
  0
LINE
  5
E0
330
1E
100
AcDbEntity
  8
4
100
AcDbLine
 10
142.9999999999997
 20
412.0
 30
0.0
 11
122.9999999999999
 21
412.0
 31
0.0
  0
ARC
  5
E1
330
1E
100
AcDbEntity
  8
4
100
AcDbCircle
 10
116.9375
 20
407.5
 30
0.0
 40
6.0625
100
AcDbArc
 50
312.0750220508436
 51
47.92497794915634
  0
LINE
  5
E2
330
1E
100
AcDbEntity
  8
4
100
AcDbLine
 10
122.9999999999999
 20
404.9999999999998
 30
0.0
 11
120.9999999999999
 21
403.0
 31
0.0
  0
LINE
  5
E3
330
1E
100
AcDbEntity
  8
4
100
AcDbLine
 10
113.0
 20
428.0
 30
0.0
 11
120.9999999999999
 21
428.0
 31
0.0
  0
LINE
  5
E4
330
1E
100
AcDbEntity
  8
4
100
AcDbLine
 10
113.0
 20
437.0
 30
0.0
 11
120.9999999999999
 21
437.0
 31
0.0
  0
LINE
  5
E5
330
1E
100
AcDbEntity
  8
4
100
AcDbLine
 10
111.0
 20
429.9999999999998
 30
0.0
 11
99.0
 21
429.9999999999998
 31
0.0
  0
LINE
  5
E6
330
1E
100
AcDbEntity
  8
4
100
AcDbLine
 10
99.0
 20
428.0
 30
0.0
 11
111.0
 21
428.0
 31
0.0
  0
ARC
  5
E7
330
1E
100
AcDbEntity
  8
4
100
AcDbCircle
 10
92.93750000000001
 20
432.5
 30
0.0
 40
6.0625
100
AcDbArc
 50
312.0750220508436
 51
47.92497794915639
  0
LINE
  5
E8
330
1E
100
AcDbEntity
  8
4
100
AcDbLine
 10
89.0
 20
428.0
 30
0.0
 11
97.0
 21
428.0
 31
0.0
  0
LINE
  5
E9
330
1E
100
AcDbEntity
  8
4
100
AcDbLine
 10
89.0
 20
437.0
 30
0.0
 11
97.0
 21
437.0
 31
0.0
  0
LINE
  5
EA
330
1E
100
AcDbEntity
  8
4
100
AcDbLine
 10
97.0
 20
437.0
 30
0.0
 11
99.0
 21
435.0
 31
0.0
  0
ARC
  5
EB
330
1E
100
AcDbEntity
  8
4
100
AcDbCircle
 10
117.0625
 20
432.5
 30
0.0
 40
6.0625
100
AcDbArc
 50
132.0750220508436
 51
227.9249779491562
  0
LINE
  5
EC
330
1E
100
AcDbEntity
  8
4
100
AcDbLine
 10
111.0
 20
435.0
 30
0.0
 11
113.0
 21
437.0
 31
0.0
  0
LINE
  5
ED
330
1E
100
AcDbEntity
  8
4
100
AcDbLine
 10
142.9999999999997
 20
428.0
 30
0.0
 11
122.9999999999999
 21
428.0
 31
0.0
  0
LINE
  5
EE
330
1E
100
AcDbEntity
  8
4
100
AcDbLine
 10
142.9999999999997
 20
429.9999999999998
 30
0.0
 11
122.9999999999999
 21
429.9999999999998
 31
0.0
  0
ARC
  5
EF
330
1E
100
AcDbEntity
  8
4
100
AcDbCircle
 10
116.9375
 20
432.5
 30
0.0
 40
6.0625
100
AcDbArc
 50
312.0750220508436
 51
47.92497794915639
  0
LINE
  5
F0
330
1E
100
AcDbEntity
  8
4
100
AcDbLine
 10
120.9999999999999
 20
437.0
 30
0.0
 11
122.9999999999999
 21
435.0
 31
0.0
  0
LINE
  5
F1
330
1E
100
AcDbEntity
  8
4
100
AcDbLine
 10
142.9999999999997
 20
429.9999999999998
 30
0.0
 11
144.5
 21
429.9999999999998
 31
0.0
  0
LINE
  5
F2
330
1E
100
AcDbEntity
  8
4
100
AcDbLine
 10
142.9999999999997
 20
428.0
 30
0.0
 11
144.5
 21
428.0
 31
0.0
  0
LINE
  5
F3
330
1E
100
AcDbEntity
  8
4
100
AcDbLine
 10
142.9999999999997
 20
412.0
 30
0.0
 11
144.5
 21
412.0
 31
0.0
  0
LINE
  5
F4
330
1E
100
AcDbEntity
  8
4
100
AcDbLine
 10
142.9999999999997
 20
409.9999999999998
 30
0.0
 11
144.5
 21
409.9999999999998
 31
0.0
  0
LINE
  5
F5
330
1E
100
AcDbEntity
  8
4
100
AcDbLine
 10
176.0
 20
435.0
 30
0.0
 11
163.4999999999998
 21
435.0
 31
0.0
  0
LINE
  5
F6
330
1E
100
AcDbEntity
  8
4
100
AcDbLine
 10
176.0
 20
435.0
 30
0.0
 11
177.0
 21
433.9999999999998
 31
0.0
  0
LINE
  5
F7
330
1E
100
AcDbEntity
  8
4
100
AcDbLine
 10
177.0
 20
433.9999999999998
 30
0.0
 11
177.0
 21
406.0
 31
0.0
  0
LINE
  5
F8
330
1E
100
AcDbEntity
  8
4
100
AcDbLine
 10
177.0
 20
406.0
 30
0.0
 11
176.0
 21
404.9999999999998
 31
0.0
  0
LINE
  5
F9
330
1E
100
AcDbEntity
  8
4
100
AcDbLine
 10
176.0
 20
404.9999999999998
 30
0.0
 11
163.4999999999998
 21
404.9999999999998
 31
0.0
  0
ARC
  5
100
330
1E
100
AcDbEntity
  8
0
100
AcDbCircle
 10
100.5
 20
420.0
 30
0.0
 40
65.0
100
AcDbArc
 50
13.37249551975113
 51
14.2500326978036
  0
LINE
  5
101
330
1E
100
AcDbEntity
  8
5
100
AcDbLine
 10
163.4906082032227
 20
435.0020066289099
 30
0.0
 11
162.989714676092
 21
435.0020066289099
 31
0.0
  0
LINE
  5
103
330
1E
100
AcDbEntity
  8
0
100
AcDbLine
 10
166.9999999999998
 20
405.0248944604799
 30
0.0
 11
166.9999999999998
 21
399.0
 31
0.0
  0
ARC
  5
105
330
1E
100
AcDbEntity
  8
0
100
AcDbCircle
 10
207.5
 20
420.0
 30
0.0
 40
65.0
100
AcDbArc
 50
188.9292560768856
 51
194.2500326978036
  0
LINE
  5
106
330
1E
100
AcDbEntity
  8
5
100
AcDbLine
 10
144.5062425282442
 20
429.9596413672716
 30
0.0
 11
145.0207164442288
 21
429.9596413672716
 31
0.0
  0
LINE
  5
107
330
1E
100
AcDbEntity
  8
5
100
AcDbLine
 10
144.5062425282442
 20
427.9888542479978
 30
0.0
 11
145.0207164442288
 21
427.9888542479978
 31
0.0
  0
LINE
  5
108
330
1E
100
AcDbEntity
  8
5
100
AcDbLine
 10
144.5062425282442
 20
411.9654925761832
 30
0.0
 11
145.0207164442288
 21
411.9654925761832
 31
0.0
  0
LINE
  5
109
330
1E
100
AcDbEntity
  8
5
100
AcDbLine
 10
144.5062425282442
 20
409.9947054569094
 30
0.0
 11
145.0207164442288
 21
409.9947054569094
 31
0.0
  0
LINE
  5
10A
330
1E
100
AcDbEntity
  8
0
100
AcDbLine
 10
415.5
 20
450.0
 30
0.0
 11
398.4999999999998
 21
449.5
 31
0.0
  0
LINE
  5
10B
330
1E
100
AcDbEntity
  8
0
100
AcDbLine
 10
398.4999999999998
 20
449.5
 30
0.0
 11
398.4999999999998
 21
387.0
 31
0.0
  0
LINE
  5
10C
330
1E
100
AcDbEntity
  8
0
100
AcDbLine
 10
398.4999999999998
 20
442.9999999999998
 30
0.0
 11
357.5
 21
440.0
 31
0.0
  0
LINE
  5
10D
330
1E
100
AcDbEntity
  8
2
100
AcDbLine
 10
360.4999999999998
 20
400.0
 30
0.0
 11
360.4999999999998
 21
410.5
 31
0.0
  0
LINE
  5
10E
330
1E
100
AcDbEntity
  8
2
100
AcDbLine
 10
360.0
 20
400.0
 30
0.0
 11
360.0
 21
410.5
 31
0.0
  0
LINE
  5
10F
330
1E
100
AcDbEntity
  8
2
100
AcDbLine
 10
355.0
 20
400.9999999999998
 30
0.0
 11
355.0
 21
410.5
 31
0.0
  0
LINE
  5
110
330
1E
100
AcDbEntity
  8
2
100
AcDbLine
 10
354.4999999999998
 20
400.9999999999998
 30
0.0
 11
354.4999999999998
 21
410.5
 31
0.0
  0
LINE
  5
111
330
1E
100
AcDbEntity
  8
2
100
AcDbLine
 10
355.0
 20
409.9999999999998
 30
0.0
 11
360.0
 21
409.9999999999998
 31
0.0
  0
LINE
  5
112
330
1E
100
AcDbEntity
  8
2
100
AcDbLine
 10
360.0
 20
409.9999999999998
 30
0.0
 11
360.4999999999998
 21
409.4999999999997
 31
0.0
  0
LINE
  5
113
330
1E
100
AcDbEntity
  8
2
100
AcDbLine
 10
360.4999999999998
 20
409.4999999999997
 30
0.0
 11
354.4999999999998
 21
409.4999999999997
 31
0.0
  0
LINE
  5
114
330
1E
100
AcDbEntity
  8
2
100
AcDbLine
 10
354.4999999999998
 20
409.4999999999997
 30
0.0
 11
355.0
 21
409.9999999999998
 31
0.0
  0
LINE
  5
115
330
1E
100
AcDbEntity
  8
2
100
AcDbLine
 10
354.4999999999998
 20
404.9999999999998
 30
0.0
 11
356.0
 21
404.9999999999998
 31
0.0
  0
LINE
  5
116
330
1E
100
AcDbEntity
  8
2
100
AcDbLine
 10
356.0
 20
404.9999999999998
 30
0.0
 11
356.0
 21
406.5
 31
0.0
  0
LINE
  5
117
330
1E
100
AcDbEntity
  8
2
100
AcDbLine
 10
356.0
 20
406.5
 30
0.0
 11
358.9999999999998
 21
406.5
 31
0.0
  0
LINE
  5
118
330
1E
100
AcDbEntity
  8
2
100
AcDbLine
 10
358.9999999999998
 20
406.5
 30
0.0
 11
358.9999999999998
 21
404.9999999999998
 31
0.0
  0
LINE
  5
119
330
1E
100
AcDbEntity
  8
2
100
AcDbLine
 10
358.9999999999998
 20
404.9999999999998
 30
0.0
 11
360.4999999999998
 21
404.9999999999998
 31
0.0
  0
LINE
  5
11A
330
1E
100
AcDbEntity
  8
2
100
AcDbLine
 10
360.4999999999998
 20
404.9999999999998
 30
0.0
 11
360.0
 21
404.4999999999998
 31
0.0
  0
LINE
  5
11B
330
1E
100
AcDbEntity
  8
2
100
AcDbLine
 10
360.0
 20
404.4999999999998
 30
0.0
 11
358.9999999999998
 21
404.4999999999998
 31
0.0
  0
LINE
  5
11C
330
1E
100
AcDbEntity
  8
2
100
AcDbLine
 10
358.9999999999998
 20
404.4999999999998
 30
0.0
 11
358.9999999999998
 21
404.9999999999998
 31
0.0
  0
LINE
  5
11D
330
1E
100
AcDbEntity
  8
2
100
AcDbLine
 10
356.0
 20
404.9999999999998
 30
0.0
 11
356.0
 21
404.4999999999998
 31
0.0
  0
LINE
  5
11E
330
1E
100
AcDbEntity
  8
2
100
AcDbLine
 10
356.0
 20
404.4999999999998
 30
0.0
 11
355.0
 21
404.4999999999998
 31
0.0
  0
LINE
  5
11F
330
1E
100
AcDbEntity
  8
2
100
AcDbLine
 10
355.0
 20
404.4999999999998
 30
0.0
 11
354.4999999999998
 21
404.9999999999998
 31
0.0
  0
LINE
  5
120
330
1E
100
AcDbEntity
  8
0
100
AcDbLine
 10
398.4999999999998
 20
387.9999999999998
 30
0.0
 11
398.4999999999998
 21
270.5
 31
0.0
  0
LINE
  5
121
330
1E
100
AcDbEntity
  8
2
100
AcDbLine
 10
398.4999999999998
 20
385.9999999999998
 30
0.0
 11
415.5
 21
385.9999999999998
 31
0.0
  0
LINE
  5
122
330
1E
100
AcDbEntity
  8
2
100
AcDbLine
 10
398.4999999999998
 20
283.9999999999998
 30
0.0
 11
415.5
 21
283.9999999999998
 31
0.0
  0
POLYLINE
  5
123
330
1E
100
AcDbEntity
  8
0
100
AcDb2dPolyline
 66
     1
 10
0.0
 20
0.0
 30
0.0
 70
     1
  0
VERTEX
  5
124
330
123
100
AcDbEntity
  8
0
100
AcDbVertex
100
AcDb2dVertex
 10
154.0
 20
400.9999999999998
 30
0.0
 42
0.0258021259218798
  0
VERTEX
  5
125
330
123
100
AcDbEntity
  8
0
100
AcDbVertex
100
AcDb2dVertex
 10
152.765208887248
 20
400.9362370782969
 30
0.0
 42
0.0354631188121199
  0
VERTEX
  5
126
330
123
100
AcDbEntity
  8
0
100
AcDbVertex
100
AcDb2dVertex
 10
151.8786796564403
 20
400.7803300858896
 30
0.0
 42
0.0746505890983398
 70
     2
 50
194.0362434679265
  0
VERTEX
  5
127
330
123
100
AcDbEntity
  8
0
100
AcDbVertex
100
AcDb2dVertex
 10
151.1217152370078
 20
400.465627786424
 30
0.0
 42
0.2627498222191739
 50
194.0362434679265
  0
VERTEX
  5
128
330
123
100
AcDbEntity
  8
0
100
AcDbVertex
100
AcDb2dVertex
 10
150.9999999999998
 20
400.25
 30
0.0
 42
0.2627498222192342
  0
VERTEX
  5
129
330
123
100
AcDbEntity
  8
0
100
AcDbVertex
100
AcDb2dVertex
 10
151.1217152370078
 20
400.034372213576
 30
0.0
 42
0.074650589098372
  0
VERTEX
  5
12A
330
123
100
AcDbEntity
  8
0
100
AcDbVertex
100
AcDb2dVertex
 10
151.8786796564403
 20
399.71966991411
 30
0.0
 42
0.0354631188121144
 70
     2
 50
345.9637565320732
  0
VERTEX
  5
12B
330
123
100
AcDbEntity
  8
0
100
AcDbVertex
100
AcDb2dVertex
 10
152.765208887248
 20
399.563762921703
 30
0.0
 42
0.0258021259218787
 50
345.9637565320732
  0
VERTEX
  5
12C
330
123
100
AcDbEntity
  8
0
100
AcDbVertex
100
AcDb2dVertex
 10
154.0
 20
399.5
 30
0.0
 42
0.0258021259218793
  0
VERTEX
  5
12D
330
123
100
AcDbEntity
  8
0
100
AcDbVertex
100
AcDb2dVertex
 10
155.2347911127519
 20
399.563762921703
 30
0.0
 42
0.0354631188121171
  0
VERTEX
  5
12E
330
123
100
AcDbEntity
  8
0
100
AcDbVertex
100
AcDb2dVertex
 10
156.1213203435596
 20
399.71966991411
 30
0.0
 42
0.0746505890983465
 70
     2
 50
14.03624346792648
  0
VERTEX
  5
12F
330
123
100
AcDbEntity
  8
0
100
AcDbVertex
100
AcDb2dVertex
 10
156.8782847629918
 20
400.034372213576
 30
0.0
 42
0.2627498222192273
 50
14.03624346792648
  0
VERTEX
  5
130
330
123
100
AcDbEntity
  8
0
100
AcDbVertex
100
AcDb2dVertex
 10
157.0
 20
400.25
 30
0.0
 42
0.2627498222192273
  0
VERTEX
  5
131
330
123
100
AcDbEntity
  8
0
100
AcDbVertex
100
AcDb2dVertex
 10
156.8782847629918
 20
400.465627786424
 30
0.0
 42
0.0746505890983458
  0
VERTEX
  5
132
330
123
100
AcDbEntity
  8
0
100
AcDbVertex
100
AcDb2dVertex
 10
156.1213203435596
 20
400.7803300858896
 30
0.0
 42
0.0354631188120867
 70
     2
 50
165.9637565320734
  0
VERTEX
  5
133
330
123
100
AcDbEntity
  8
0
100
AcDbVertex
100
AcDb2dVertex
 10
155.2347911127519
 20
400.9362370782969
 30
0.0
 42
0.0258021259218563
 50
165.9637565320734
  0
SEQEND
  5
134
330
123
100
AcDbEntity
  8
0
  0
LINE
  5
135
330
1E
100
AcDbEntity
  8
2
100
AcDbLine
 10
157.0
 20
400.4999999999998
 30
0.0
 11
157.0
 21
409.9999999999998
 31
0.0
  0
LINE
  5
136
330
1E
100
AcDbEntity
  8
2
100
AcDbLine
 10
156.4999999999997
 20
400.4999999999998
 30
0.0
 11
156.4999999999997
 21
409.9999999999998
 31
0.0
  0
LINE
  5
137
330
1E
100
AcDbEntity
  8
2
100
AcDbLine
 10
150.9999999999998
 20
400.4999999999998
 30
0.0
 11
150.9999999999998
 21
409.9999999999998
 31
0.0
  0
LINE
  5
138
330
1E
100
AcDbEntity
  8
2
100
AcDbLine
 10
151.5
 20
400.4999999999998
 30
0.0
 11
151.5
 21
409.9999999999998
 31
0.0
  0
LINE
  5
139
330
1E
100
AcDbEntity
  8
2
100
AcDbLine
 10
156.4999999999997
 20
409.9999999999998
 30
0.0
 11
157.0
 21
409.4999999999997
 31
0.0
  0
LINE
  5
13A
330
1E
100
AcDbEntity
  8
2
100
AcDbLine
 10
157.0
 20
409.4999999999997
 30
0.0
 11
150.9999999999998
 21
409.4999999999997
 31
0.0
  0
LINE
  5
13B
330
1E
100
AcDbEntity
  8
2
100
AcDbLine
 10
150.9999999999998
 20
409.4999999999997
 30
0.0
 11
151.5
 21
409.9999999999998
 31
0.0
  0
LINE
  5
13C
330
1E
100
AcDbEntity
  8
2
100
AcDbLine
 10
150.9999999999998
 20
404.4999999999998
 30
0.0
 11
152.5
 21
404.4999999999998
 31
0.0
  0
LINE
  5
13D
330
1E
100
AcDbEntity
  8
2
100
AcDbLine
 10
152.5
 20
404.4999999999998
 30
0.0
 11
152.5
 21
405.4999999999997
 31
0.0
  0
LINE
  5
13E
330
1E
100
AcDbEntity
  8
2
100
AcDbLine
 10
152.5
 20
405.4999999999997
 30
0.0
 11
155.4999999999997
 21
405.4999999999997
 31
0.0
  0
LINE
  5
13F
330
1E
100
AcDbEntity
  8
2
100
AcDbLine
 10
155.4999999999997
 20
405.4999999999997
 30
0.0
 11
155.4999999999997
 21
404.4999999999998
 31
0.0
  0
LINE
  5
140
330
1E
100
AcDbEntity
  8
2
100
AcDbLine
 10
155.4999999999997
 20
404.4999999999998
 30
0.0
 11
157.0
 21
404.4999999999998
 31
0.0
  0
LINE
  5
141
330
1E
100
AcDbEntity
  8
2
100
AcDbLine
 10
157.0
 20
404.4999999999998
 30
0.0
 11
156.4999999999997
 21
404.0
 31
0.0
  0
LINE
  5
142
330
1E
100
AcDbEntity
  8
2
100
AcDbLine
 10
156.4999999999997
 20
404.0
 30
0.0
 11
155.4999999999997
 21
404.0
 31
0.0
  0
LINE
  5
143
330
1E
100
AcDbEntity
  8
2
100
AcDbLine
 10
155.4999999999997
 20
404.0
 30
0.0
 11
155.4999999999997
 21
404.4999999999998
 31
0.0
  0
LINE
  5
144
330
1E
100
AcDbEntity
  8
2
100
AcDbLine
 10
152.5
 20
404.4999999999998
 30
0.0
 11
152.5
 21
404.0
 31
0.0
  0
LINE
  5
145
330
1E
100
AcDbEntity
  8
2
100
AcDbLine
 10
152.5
 20
404.0
 30
0.0
 11
151.5
 21
404.0
 31
0.0
  0
LINE
  5
146
330
1E
100
AcDbEntity
  8
2
100
AcDbLine
 10
151.5
 20
404.0
 30
0.0
 11
150.9999999999998
 21
404.4999999999998
 31
0.0
  0
LINE
  5
147
330
1E
100
AcDbEntity
  8
0
100
AcDbLine
 10
151.1897359103399
 20
400.0
 30
0.0
 11
145.9999999999998
 21
400.0
 31
0.0
  0
CIRCLE
  5
148
330
1E
100
AcDbEntity
  8
0
100
AcDbCircle
 10
357.5
 20
420.0
 30
0.0
 40
15.0
  0
LINE
  5
151
330
1E
100
AcDbEntity
  8
4
100
AcDbLine
 10
372.5
 20
550.9999999999998
 30
0.0
 11
372.5
 21
538.0
 31
0.0
  0
LINE
  5
152
330
1E
100
AcDbEntity
  8
4
100
AcDbLine
 10
371.4999999999998
 20
537.0
 30
0.0
 11
343.5
 21
537.0
 31
0.0
  0
LINE
  5
153
330
1E
100
AcDbEntity
  8
4
100
AcDbLine
 10
342.5
 20
538.0
 30
0.0
 11
342.5
 21
550.9999999999998
 31
0.0
  0
LINE
  5
154
330
1E
100
AcDbEntity
  8
4
100
AcDbLine
 10
371.4999999999998
 20
537.0
 30
0.0
 11
372.5
 21
538.0
 31
0.0
  0
LINE
  5
155
330
1E
100
AcDbEntity
  8
4
100
AcDbLine
 10
343.5
 20
537.0
 30
0.0
 11
342.5
 21
538.0
 31
0.0
  0
LINE
  5
15B
330
1E
100
AcDbEntity
  8
5
100
AcDbLine
 10
367.5
 20
569.0
 30
0.0
 11
367.5
 21
571.4999999999998
 31
0.0
  0
LINE
  5
15C
330
1E
100
AcDbEntity
  8
5
100
AcDbLine
 10
365.5
 20
569.0
 30
0.0
 11
365.5
 21
570.9999999999999
 31
0.0
  0
LINE
  5
15D
330
1E
100
AcDbEntity
  8
5
100
AcDbLine
 10
349.5
 20
569.0
 30
0.0
 11
349.5
 21
570.0
 31
0.0
  0
LINE
  5
15E
330
1E
100
AcDbEntity
  8
5
100
AcDbLine
 10
347.5
 20
569.0
 30
0.0
 11
347.5
 21
570.0
 31
0.0
  0
LINE
  5
15F
330
1E
100
AcDbEntity
  8
4
100
AcDbLine
 10
349.5
 20
570.0
 30
0.0
 11
349.5
 21
570.9999999999999
 31
0.0
  0
LINE
  5
160
330
1E
100
AcDbEntity
  8
4
100
AcDbLine
 10
347.5
 20
570.0
 30
0.0
 11
347.5
 21
570.9999999999999
 31
0.0
  0
LINE
  5
163
330
1E
100
AcDbEntity
  8
4
100
AcDbLine
 10
669.0
 20
404.9999999999998
 30
0.0
 11
670.9999999999999
 21
403.0
 31
0.0
  0
ARC
  5
164
330
1E
100
AcDbEntity
  8
4
100
AcDbCircle
 10
675.0625
 20
407.5
 30
0.0
 40
6.0625
100
AcDbArc
 50
132.0750220508436
 51
227.9249779491562
  0
LINE
  5
165
330
1E
100
AcDbEntity
  8
4
100
AcDbLine
 10
679.0
 20
403.0
 30
0.0
 11
681.0
 21
404.9999999999998
 31
0.0
  0
ARC
  5
166
330
1E
100
AcDbEntity
  8
4
100
AcDbCircle
 10
674.9375
 20
407.5
 30
0.0
 40
6.0625
100
AcDbArc
 50
312.0750220508436
 51
47.92497794915639
  0
LINE
  5
167
330
1E
100
AcDbEntity
  8
4
100
AcDbLine
 10
692.9999999999997
 20
404.9999999999998
 30
0.0
 11
695.0
 21
403.0
 31
0.0
  0
ARC
  5
168
330
1E
100
AcDbEntity
  8
4
100
AcDbCircle
 10
699.0625
 20
407.5
 30
0.0
 40
6.0625
100
AcDbArc
 50
132.0750220508436
 51
227.9249779491562
  0
LINE
  5
169
330
1E
100
AcDbEntity
  8
4
100
AcDbLine
 10
703.0
 20
403.0
 30
0.0
 11
704.9999999999997
 21
404.9999999999998
 31
0.0
  0
ARC
  5
16A
330
1E
100
AcDbEntity
  8
4
100
AcDbCircle
 10
698.9374999999999
 20
407.5
 30
0.0
 40
6.0625
100
AcDbArc
 50
312.0750220508436
 51
47.92497794915639
  0
LINE
  5
16B
330
1E
100
AcDbEntity
  8
1
100
AcDbLine
 10
637.9999999999999
 20
466.9999999999998
 30
0.0
 11
637.9999999999999
 21
235.0
 31
0.0
  0
ARC
  5
16C
330
1E
100
AcDbEntity
  8
0
100
AcDbCircle
 10
637.9999999999999
 20
380.5
 30
0.0
 40
5.5
100
AcDbArc
 50
0.0
 51
180.0
  0
ARC
  5
16D
330
1E
100
AcDbEntity
  8
0
100
AcDbCircle
 10
637.9999999999999
 20
289.4999999999999
 30
0.0
 40
5.5
100
AcDbArc
 50
180.0
 51
0.0
  0
LINE
  5
170
330
1E
100
AcDbEntity
  8
0
100
AcDbLine
 10
643.5
 20
289.4999999999999
 30
0.0
 11
643.5
 21
380.5
 31
0.0
  0
LINE
  5
171
330
1E
100
AcDbEntity
  8
4
100
AcDbLine
 10
670.9999999999999
 20
403.0
 30
0.0
 11
679.0
 21
403.0
 31
0.0
  0
LINE
  5
172
330
1E
100
AcDbEntity
  8
4
100
AcDbLine
 10
695.0
 20
403.0
 30
0.0
 11
703.0
 21
403.0
 31
0.0
  0
LINE
  5
174
330
1E
100
AcDbEntity
  8
0
100
AcDbLine
 10
632.5
 20
289.4999999999999
 30
0.0
 11
632.5
 21
380.5
 31
0.0
  0
LINE
  5
175
330
1E
100
AcDbEntity
  8
1
100
AcDbLine
 10
597.5
 20
420.0
 30
0.0
 11
729.4999999999999
 21
420.0
 31
0.0
  0
LINE
  5
176
330
1E
100
AcDbEntity
  8
1
100
AcDbLine
 10
675.9999999999998
 20
420.0
 30
0.0
 11
604.4999999999999
 21
420.0
 31
0.0
  0
ARC
  5
177
330
1E
100
AcDbEntity
  8
4
100
AcDbCircle
 10
687.9999999999999
 20
420.0
 30
0.0
 40
17.0
100
AcDbArc
 50
331.9275130641468
 51
28.07248693585296
  0
ARC
  5
178
330
1E
100
AcDbEntity
  8
4
100
AcDbCircle
 10
698.9374999999999
 20
432.5
 30
0.0
 40
6.0625
100
AcDbArc
 50
312.0750220508436
 51
47.92497794915639
  0
LINE
  5
179
330
1E
100
AcDbEntity
  8
4
100
AcDbLine
 10
704.9999999999997
 20
435.0
 30
0.0
 11
703.0
 21
437.0
 31
0.0
  0
LINE
  5
17A
330
1E
100
AcDbEntity
  8
4
100
AcDbLine
 10
704.9999999999997
 20
404.9999999999998
 30
0.0
 11
704.9999999999997
 21
435.0
 31
0.0
  0
LINE
  5
17B
330
1E
100
AcDbEntity
  8
4
100
AcDbLine
 10
716.9999999999999
 20
409.9999999999998
 30
0.0
 11
716.9999999999999
 21
429.9999999999998
 31
0.0
  0
LINE
  5
17C
330
1E
100
AcDbEntity
  8
4
100
AcDbLine
 10
719.0
 20
428.0
 30
0.0
 11
719.0
 21
412.0
 31
0.0
  0
LINE
  5
17D
330
1E
100
AcDbEntity
  8
4
100
AcDbLine
 10
704.9999999999997
 20
409.9999999999998
 30
0.0
 11
716.9999999999999
 21
409.9999999999998
 31
0.0
  0
LINE
  5
17E
330
1E
100
AcDbEntity
  8
4
100
AcDbLine
 10
719.0
 20
412.0
 30
0.0
 11
704.9999999999997
 21
412.0
 31
0.0
  0
LINE
  5
17F
330
1E
100
AcDbEntity
  8
4
100
AcDbLine
 10
719.0
 20
412.0
 30
0.0
 11
716.9999999999999
 21
409.9999999999998
 31
0.0
  0
LINE
  5
180
330
1E
100
AcDbEntity
  8
4
100
AcDbLine
 10
719.0
 20
428.0
 30
0.0
 11
704.9999999999997
 21
428.0
 31
0.0
  0
LINE
  5
181
330
1E
100
AcDbEntity
  8
4
100
AcDbLine
 10
704.9999999999997
 20
429.9999999999998
 30
0.0
 11
716.9999999999999
 21
429.9999999999998
 31
0.0
  0
LINE
  5
182
330
1E
100
AcDbEntity
  8
4
100
AcDbLine
 10
716.9999999999999
 20
429.9999999999998
 30
0.0
 11
719.0
 21
428.0
 31
0.0
  0
LINE
  5
183
330
1E
100
AcDbEntity
  8
4
100
AcDbLine
 10
679.0
 20
437.0
 30
0.0
 11
670.9999999999999
 21
437.0
 31
0.0
  0
LINE
  5
184
330
1E
100
AcDbEntity
  8
4
100
AcDbLine
 10
679.0
 20
428.0
 30
0.0
 11
670.9999999999999
 21
428.0
 31
0.0
  0
LINE
  5
185
330
1E
100
AcDbEntity
  8
4
100
AcDbLine
 10
679.0
 20
412.0
 30
0.0
 11
670.9999999999999
 21
412.0
 31
0.0
  0
ARC
  5
186
330
1E
100
AcDbEntity
  8
4
100
AcDbCircle
 10
674.9375
 20
432.5
 30
0.0
 40
6.0625
100
AcDbArc
 50
312.0750220508436
 51
47.92497794915639
  0
ARC
  5
187
330
1E
100
AcDbEntity
  8
4
100
AcDbCircle
 10
699.0625
 20
432.5
 30
0.0
 40
6.0625
100
AcDbArc
 50
132.0750220508436
 51
227.9249779491562
  0
LINE
  5
188
330
1E
100
AcDbEntity
  8
4
100
AcDbLine
 10
692.9999999999997
 20
435.0
 30
0.0
 11
692.9999999999997
 21
404.9999999999998
 31
0.0
  0
LINE
  5
189
330
1E
100
AcDbEntity
  8
4
100
AcDbLine
 10
681.0
 20
404.9999999999998
 30
0.0
 11
681.0
 21
435.0
 31
0.0
  0
LINE
  5
18A
330
1E
100
AcDbEntity
  8
4
100
AcDbLine
 10
692.9999999999997
 20
428.0
 30
0.0
 11
681.0
 21
428.0
 31
0.0
  0
LINE
  5
18B
330
1E
100
AcDbEntity
  8
4
100
AcDbLine
 10
681.0
 20
429.9999999999998
 30
0.0
 11
692.9999999999997
 21
429.9999999999998
 31
0.0
  0
LINE
  5
18C
330
1E
100
AcDbEntity
  8
4
100
AcDbLine
 10
681.0
 20
409.9999999999998
 30
0.0
 11
692.9999999999997
 21
409.9999999999998
 31
0.0
  0
LINE
  5
18D
330
1E
100
AcDbEntity
  8
4
100
AcDbLine
 10
692.9999999999997
 20
412.0
 30
0.0
 11
681.0
 21
412.0
 31
0.0
  0
ARC
  5
18E
330
1E
100
AcDbEntity
  8
4
100
AcDbCircle
 10
710.0
 20
420.0
 30
0.0
 40
17.0
100
AcDbArc
 50
151.927513064147
 51
208.0724869358528
  0
LINE
  5
18F
330
1E
100
AcDbEntity
  8
4
100
AcDbLine
 10
703.0
 20
412.0
 30
0.0
 11
695.0
 21
412.0
 31
0.0
  0
LINE
  5
190
330
1E
100
AcDbEntity
  8
4
100
AcDbLine
 10
703.0
 20
428.0
 30
0.0
 11
695.0
 21
428.0
 31
0.0
  0
ARC
  5
191
330
1E
100
AcDbEntity
  8
4
100
AcDbCircle
 10
664.0
 20
420.0
 30
0.0
 40
17.0
100
AcDbArc
 50
331.9275130641468
 51
28.07248693585296
  0
LINE
  5
192
330
1E
100
AcDbEntity
  8
4
100
AcDbLine
 10
703.0
 20
437.0
 30
0.0
 11
695.0
 21
437.0
 31
0.0
  0
LINE
  5
193
330
1E
100
AcDbEntity
  8
4
100
AcDbLine
 10
695.0
 20
437.0
 30
0.0
 11
692.9999999999997
 21
435.0
 31
0.0
  0
LINE
  5
194
330
1E
100
AcDbEntity
  8
4
100
AcDbLine
 10
681.0
 20
435.0
 30
0.0
 11
679.0
 21
437.0
 31
0.0
  0
ARC
  5
195
330
1E
100
AcDbEntity
  8
4
100
AcDbCircle
 10
675.0625
 20
432.5
 30
0.0
 40
6.0625
100
AcDbArc
 50
132.0750220508436
 51
227.9249779491562
  0
LINE
  5
196
330
1E
100
AcDbEntity
  8
4
100
AcDbLine
 10
669.0
 20
435.0
 30
0.0
 11
669.0
 21
404.9999999999998
 31
0.0
  0
ARC
  5
197
330
1E
100
AcDbEntity
  8
4
100
AcDbCircle
 10
686.0
 20
420.0
 30
0.0
 40
17.0
100
AcDbArc
 50
151.927513064147
 51
208.0724869358528
  0
LINE
  5
198
330
1E
100
AcDbEntity
  8
4
100
AcDbLine
 10
670.9999999999999
 20
437.0
 30
0.0
 11
669.0
 21
435.0
 31
0.0
  0
LINE
  5
199
330
1E
100
AcDbEntity
  8
4
100
AcDbLine
 10
615.0
 20
433.9999999999998
 30
0.0
 11
615.0
 21
406.0
 31
0.0
  0
LINE
  5
19A
330
1E
100
AcDbEntity
  8
4
100
AcDbLine
 10
616.0
 20
404.9999999999998
 30
0.0
 11
618.0
 21
404.9999999999998
 31
0.0
  0
LINE
  5
19D
330
1E
100
AcDbEntity
  8
4
100
AcDbLine
 10
615.0
 20
406.0
 30
0.0
 11
616.0
 21
404.9999999999998
 31
0.0
  0
LINE
  5
1A0
330
1E
100
AcDbEntity
  8
4
100
AcDbLine
 10
616.0
 20
435.0
 30
0.0
 11
618.6350832689628
 21
435.0
 31
0.0
  0
LINE
  5
1A1
330
1E
100
AcDbEntity
  8
4
100
AcDbLine
 10
616.0
 20
435.0
 30
0.0
 11
615.0
 21
433.9999999999998
 31
0.0
  0
LINE
  5
1A2
330
1E
100
AcDbEntity
  8
4
100
AcDbLine
 10
365.5
 20
61.0
 30
0.0
 11
365.5
 21
75.0
 31
0.0
  0
LINE
  5
1A3
330
1E
100
AcDbEntity
  8
4
100
AcDbLine
 10
367.5
 20
75.0
 30
0.0
 11
367.5
 21
63.0
 31
0.0
  0
LINE
  5
1A4
330
1E
100
AcDbEntity
  8
4
100
AcDbLine
 10
347.5
 20
75.0
 30
0.0
 11
347.5
 21
63.0
 31
0.0
  0
LINE
  5
1A5
330
1E
100
AcDbEntity
  8
4
100
AcDbLine
 10
349.5
 20
61.0
 30
0.0
 11
349.5
 21
75.0
 31
0.0
  0
LINE
  5
1A6
330
1E
100
AcDbEntity
  8
1
100
AcDbLine
 10
357.5
 20
182.5
 30
0.0
 11
357.5
 21
54.5
 31
0.0
  0
LINE
  5
1A7
330
1E
100
AcDbEntity
  8
1
100
AcDbLine
 10
327.0
 20
141.9999999999997
 30
0.0
 11
425.9999999999998
 21
141.9999999999997
 31
0.0
  0
LINE
  5
1AA
330
1E
100
AcDbEntity
  8
4
100
AcDbLine
 10
367.5
 20
131.0
 30
0.0
 11
367.5
 21
111.0
 31
0.0
  0
LINE
  5
1AB
330
1E
100
AcDbEntity
  8
4
100
AcDbLine
 10
365.5
 20
131.0
 30
0.0
 11
365.5
 21
111.0
 31
0.0
  0
LINE
  5
1AC
330
1E
100
AcDbEntity
  8
4
100
AcDbLine
 10
349.5
 20
131.0
 30
0.0
 11
349.5
 21
111.0
 31
0.0
  0
LINE
  5
1AD
330
1E
100
AcDbEntity
  8
4
100
AcDbLine
 10
347.5
 20
131.0
 30
0.0
 11
347.5
 21
111.0
 31
0.0
  0
LINE
  5
1AE
330
1E
100
AcDbEntity
  8
1
100
AcDbLine
 10
357.5
 20
178.5
 30
0.0
 11
357.5
 21
106.0
 31
0.0
  0
LINE
  5
1B0
330
1E
100
AcDbEntity
  8
4
100
AcDbLine
 10
371.4999999999998
 20
165.0
 30
0.0
 11
343.5
 21
165.0
 31
0.0
  0
LINE
  5
1B3
330
1E
100
AcDbEntity
  8
4
100
AcDbLine
 10
342.5
 20
164.0
 30
0.0
 11
342.5
 21
150.9999999999998
 31
0.0
  0
LINE
  5
1B4
330
1E
100
AcDbEntity
  8
4
100
AcDbLine
 10
343.5
 20
165.0
 30
0.0
 11
342.5
 21
164.0
 31
0.0
  0
LINE
  5
1B9
330
1E
100
AcDbEntity
  8
2
100
AcDbLine
 10
341.5
 20
150.9999999999998
 30
0.0
 11
341.5
 21
151.5
 31
0.0
  0
LINE
  5
1BB
330
1E
100
AcDbEntity
  8
2
100
AcDbLine
 10
341.5
 20
132.4999999999997
 30
0.0
 11
341.5
 21
133.0
 31
0.0
  0
LINE
  5
1BD
330
1E
100
AcDbEntity
  8
2
100
AcDbLine
 10
347.5
 20
133.0
 30
0.0
 11
347.5
 21
150.9999999999998
 31
0.0
  0
LINE
  5
1BE
330
1E
100
AcDbEntity
  8
2
100
AcDbLine
 10
349.5
 20
133.0
 30
0.0
 11
349.5
 21
150.9999999999998
 31
0.0
  0
LINE
  5
1BF
330
1E
100
AcDbEntity
  8
4
100
AcDbLine
 10
347.5
 20
132.0
 30
0.0
 11
347.5
 21
131.0
 31
0.0
  0
LINE
  5
1C0
330
1E
100
AcDbEntity
  8
4
100
AcDbLine
 10
349.5
 20
132.0
 30
0.0
 11
349.5
 21
131.0
 31
0.0
  0
LINE
  5
1C1
330
1E
100
AcDbEntity
  8
5
100
AcDbLine
 10
347.5
 20
133.0
 30
0.0
 11
347.5
 21
132.0
 31
0.0
  0
LINE
  5
1C2
330
1E
100
AcDbEntity
  8
5
100
AcDbLine
 10
349.5
 20
133.0
 30
0.0
 11
349.5
 21
132.0
 31
0.0
  0
LINE
  5
1C3
330
1E
100
AcDbEntity
  8
4
100
AcDbLine
 10
372.5
 20
150.9999999999998
 30
0.0
 11
372.5
 21
164.0
 31
0.0
  0
LINE
  5
1C7
330
1E
100
AcDbEntity
  8
4
100
AcDbLine
 10
371.4999999999998
 20
165.0
 30
0.0
 11
372.5
 21
164.0
 31
0.0
  0
LINE
  5
1C8
330
1E
100
AcDbEntity
  8
2
100
AcDbLine
 10
365.5
 20
133.0
 30
0.0
 11
365.5
 21
150.9999999999998
 31
0.0
  0
LINE
  5
1C9
330
1E
100
AcDbEntity
  8
2
100
AcDbLine
 10
367.5
 20
133.0
 30
0.0
 11
367.5
 21
150.9999999999998
 31
0.0
  0
LINE
  5
1CA
330
1E
100
AcDbEntity
  8
5
100
AcDbLine
 10
365.5
 20
133.0
 30
0.0
 11
365.5
 21
131.0
 31
0.0
  0
LINE
  5
1CB
330
1E
100
AcDbEntity
  8
5
100
AcDbLine
 10
367.5
 20
133.0
 30
0.0
 11
367.5
 21
130.4999999999997
 31
0.0
  0
ARC
  5
1CD
330
1E
100
AcDbEntity
  8
4
100
AcDbCircle
 10
357.5
 20
92.0
 30
0.0
 40
17.0
100
AcDbArc
 50
241.927513064147
 51
298.0724869358529
  0
LINE
  5
1CE
330
1E
100
AcDbEntity
  8
4
100
AcDbLine
 10
342.5
 20
75.0
 30
0.0
 11
372.5
 21
75.0
 31
0.0
  0
ARC
  5
1CF
330
1E
100
AcDbEntity
  8
4
100
AcDbCircle
 10
357.5
 20
70.0
 30
0.0
 40
17.0
100
AcDbArc
 50
61.92751306414704
 51
118.0724869358527
  0
LINE
  5
1D0
330
1E
100
AcDbEntity
  8
4
100
AcDbLine
 10
372.5
 20
87.00000000000001
 30
0.0
 11
342.5
 21
87.00000000000001
 31
0.0
  0
ARC
  5
1D1
330
1E
100
AcDbEntity
  8
4
100
AcDbCircle
 10
357.5
 20
115.9999999999999
 30
0.0
 40
17.0
100
AcDbArc
 50
241.927513064147
 51
298.0724869358529
  0
LINE
  5
1D2
330
1E
100
AcDbEntity
  8
4
100
AcDbLine
 10
342.5
 20
99.0
 30
0.0
 11
372.5
 21
99.0
 31
0.0
  0
ARC
  5
1D3
330
1E
100
AcDbEntity
  8
4
100
AcDbCircle
 10
357.5
 20
94.0
 30
0.0
 40
17.0
100
AcDbArc
 50
61.92751306414704
 51
118.0724869358527
  0
LINE
  5
1D4
330
1E
100
AcDbEntity
  8
4
100
AcDbLine
 10
372.5
 20
111.0
 30
0.0
 11
342.5
 21
111.0
 31
0.0
  0
LINE
  5
1D5
330
1E
100
AcDbEntity
  8
4
100
AcDbLine
 10
347.5
 20
99.0
 30
0.0
 11
347.5
 21
87.00000000000001
 31
0.0
  0
LINE
  5
1D6
330
1E
100
AcDbEntity
  8
4
100
AcDbLine
 10
349.5
 20
87.00000000000001
 30
0.0
 11
349.5
 21
99.0
 31
0.0
  0
ARC
  5
1D7
330
1E
100
AcDbEntity
  8
4
100
AcDbCircle
 10
345.0
 20
105.0624999999999
 30
0.0
 40
6.0625
100
AcDbArc
 50
222.0750220508435
 51
317.9249779491563
  0
ARC
  5
1D8
330
1E
100
AcDbEntity
  8
4
100
AcDbCircle
 10
345.0
 20
104.9374999999999
 30
0.0
 40
6.0625
100
AcDbArc
 50
42.07502205084367
 51
137.9249779491563
  0
LINE
  5
1D9
330
1E
100
AcDbEntity
  8
4
100
AcDbLine
 10
340.5
 20
101.0
 30
0.0
 11
342.5
 21
99.0
 31
0.0
  0
LINE
  5
1DA
330
1E
100
AcDbEntity
  8
4
100
AcDbLine
 10
340.5
 20
109.0
 30
0.0
 11
340.5
 21
101.0
 31
0.0
  0
LINE
  5
1DB
330
1E
100
AcDbEntity
  8
4
100
AcDbLine
 10
342.5
 20
111.0
 30
0.0
 11
340.5
 21
109.0
 31
0.0
  0
LINE
  5
1DC
330
1E
100
AcDbEntity
  8
4
100
AcDbLine
 10
349.5
 20
101.0
 30
0.0
 11
349.5
 21
109.0
 31
0.0
  0
ARC
  5
1DD
330
1E
100
AcDbEntity
  8
4
100
AcDbCircle
 10
345.0
 20
81.06250000000001
 30
0.0
 40
6.0625
100
AcDbArc
 50
222.0750220508435
 51
317.9249779491563
  0
ARC
  5
1DE
330
1E
100
AcDbEntity
  8
4
100
AcDbCircle
 10
345.0
 20
80.9375
 30
0.0
 40
6.0625
100
AcDbArc
 50
42.07502205084367
 51
137.9249779491563
  0
LINE
  5
1DF
330
1E
100
AcDbEntity
  8
4
100
AcDbLine
 10
340.5
 20
85.0
 30
0.0
 11
340.5
 21
77.0
 31
0.0
  0
LINE
  5
1E0
330
1E
100
AcDbEntity
  8
4
100
AcDbLine
 10
342.5
 20
87.00000000000001
 30
0.0
 11
340.5
 21
85.0
 31
0.0
  0
LINE
  5
1E1
330
1E
100
AcDbEntity
  8
4
100
AcDbLine
 10
340.5
 20
77.0
 30
0.0
 11
342.5
 21
75.0
 31
0.0
  0
LINE
  5
1E2
330
1E
100
AcDbEntity
  8
4
100
AcDbLine
 10
349.5
 20
77.0
 30
0.0
 11
349.5
 21
85.0
 31
0.0
  0
LINE
  5
1E3
330
1E
100
AcDbEntity
  8
4
100
AcDbLine
 10
365.5
 20
87.00000000000001
 30
0.0
 11
365.5
 21
99.0
 31
0.0
  0
LINE
  5
1E4
330
1E
100
AcDbEntity
  8
4
100
AcDbLine
 10
367.5
 20
99.0
 30
0.0
 11
367.5
 21
87.00000000000001
 31
0.0
  0
ARC
  5
1E5
330
1E
100
AcDbEntity
  8
4
100
AcDbCircle
 10
370.0
 20
104.9374999999999
 30
0.0
 40
6.0625
100
AcDbArc
 50
42.07502205084361
 51
137.9249779491563
  0
LINE
  5
1E6
330
1E
100
AcDbEntity
  8
4
100
AcDbLine
 10
374.5
 20
109.0
 30
0.0
 11
372.5
 21
111.0
 31
0.0
  0
ARC
  5
1E7
330
1E
100
AcDbEntity
  8
4
100
AcDbCircle
 10
370.0
 20
105.0624999999999
 30
0.0
 40
6.0625
100
AcDbArc
 50
222.0750220508435
 51
317.9249779491563
  0
LINE
  5
1E8
330
1E
100
AcDbEntity
  8
4
100
AcDbLine
 10
372.5
 20
99.0
 30
0.0
 11
374.5
 21
101.0
 31
0.0
  0
LINE
  5
1E9
330
1E
100
AcDbEntity
  8
4
100
AcDbLine
 10
365.5
 20
101.0
 30
0.0
 11
365.5
 21
109.0
 31
0.0
  0
LINE
  5
1EA
330
1E
100
AcDbEntity
  8
4
100
AcDbLine
 10
374.5
 20
101.0
 30
0.0
 11
374.5
 21
109.0
 31
0.0
  0
ARC
  5
1EB
330
1E
100
AcDbEntity
  8
4
100
AcDbCircle
 10
370.0
 20
80.9375
 30
0.0
 40
6.0625
100
AcDbArc
 50
42.07502205084361
 51
137.9249779491563
  0
LINE
  5
1EC
330
1E
100
AcDbEntity
  8
4
100
AcDbLine
 10
374.5
 20
85.0
 30
0.0
 11
372.5
 21
87.00000000000001
 31
0.0
  0
ARC
  5
1ED
330
1E
100
AcDbEntity
  8
4
100
AcDbCircle
 10
370.0
 20
81.06250000000001
 30
0.0
 40
6.0625
100
AcDbArc
 50
222.0750220508435
 51
317.9249779491563
  0
LINE
  5
1EE
330
1E
100
AcDbEntity
  8
4
100
AcDbLine
 10
372.5
 20
75.0
 30
0.0
 11
374.5
 21
77.0
 31
0.0
  0
LINE
  5
1EF
330
1E
100
AcDbEntity
  8
4
100
AcDbLine
 10
365.5
 20
77.0
 30
0.0
 11
365.5
 21
85.0
 31
0.0
  0
LINE
  5
1F0
330
1E
100
AcDbEntity
  8
4
100
AcDbLine
 10
374.5
 20
77.0
 30
0.0
 11
374.5
 21
85.0
 31
0.0
  0
LINE
  5
1F1
330
1E
100
AcDbEntity
  8
0
100
AcDbLine
 10
415.5
 20
141.9999999999997
 30
0.0
 11
415.5
 21
122.0
 31
0.0
  0
LINE
  5
1F2
330
1E
100
AcDbEntity
  8
0
100
AcDbLine
 10
398.4999999999998
 20
141.9999999999997
 30
0.0
 11
398.4999999999998
 21
122.4999999999998
 31
0.0
  0
LINE
  5
1F3
330
1E
100
AcDbEntity
  8
0
100
AcDbLine
 10
398.4999999999998
 20
141.9999999999997
 30
0.0
 11
398.4999999999998
 21
161.5
 31
0.0
  0
LINE
  5
1F4
330
1E
100
AcDbEntity
  8
0
100
AcDbLine
 10
415.5
 20
141.9999999999997
 30
0.0
 11
415.5
 21
162.0
 31
0.0
  0
LINE
  5
1F5
330
1E
100
AcDbEntity
  8
0
100
AcDbLine
 10
398.4999999999998
 20
161.5
 30
0.0
 11
415.5
 21
162.0
 31
0.0
  0
LINE
  5
1F6
330
1E
100
AcDbEntity
  8
0
100
AcDbLine
 10
398.4999999999998
 20
122.4999999999998
 30
0.0
 11
415.5
 21
122.0
 31
0.0
  0
LINE
  5
1F7
330
1E
100
AcDbEntity
  8
4
100
AcDbLine
 10
347.5
 20
63.0
 30
0.0
 11
367.5
 21
63.0
 31
0.0
  0
LINE
  5
1F8
330
1E
100
AcDbEntity
  8
4
100
AcDbLine
 10
365.5
 20
61.0
 30
0.0
 11
349.5
 21
61.0
 31
0.0
  0
LINE
  5
1F9
330
1E
100
AcDbEntity
  8
4
100
AcDbLine
 10
349.5
 20
61.0
 30
0.0
 11
347.5
 21
63.0
 31
0.0
  0
LINE
  5
1FA
330
1E
100
AcDbEntity
  8
4
100
AcDbLine
 10
367.5
 20
63.0
 30
0.0
 11
365.5
 21
61.0
 31
0.0
  0
CIRCLE
  5
1FB
330
1E
100
AcDbEntity
  8
0
100
AcDbCircle
 10
357.5
 20
141.9999999999997
 30
0.0
 40
3.0
  0
CIRCLE
  5
1FC
330
1E
100
AcDbEntity
  8
0
100
AcDbCircle
 10
357.5
 20
141.9999999999997
 30
0.0
 40
2.5
  0
LINE
  5
1FD
330
1E
100
AcDbEntity
  8
2
100
AcDbLine
 10
415.5
 20
147.5
 30
0.0
 11
398.4999999999998
 21
147.5
 31
0.0
  0
LINE
  5
1FE
330
1E
100
AcDbEntity
  8
2
100
AcDbLine
 10
415.5
 20
136.4999999999997
 30
0.0
 11
398.4999999999998
 21
136.4999999999997
 31
0.0
  0
LINE
  5
1FF
330
1E
100
AcDbEntity
  8
2
100
AcDbLine
 10
415.5
 20
565.5
 30
0.0
 11
398.4999999999998
 21
565.5
 31
0.0
  0
LINE
  5
200
330
1E
100
AcDbEntity
  8
2
100
AcDbLine
 10
415.5
 20
554.4999999999999
 30
0.0
 11
398.4999999999998
 21
554.4999999999999
 31
0.0
  0
LINE
  5
204
330
1E
100
AcDbEntity
  8
4
100
AcDbLine
 10
657.9999999999999
 20
409.9999999999997
 30
0.0
 11
669.0
 21
409.9999999999998
 31
0.0
  0
LINE
  5
205
330
1E
100
AcDbEntity
  8
4
100
AcDbLine
 10
657.9999999999999
 20
412.0
 30
0.0
 11
669.0
 21
412.0
 31
0.0
  0
LINE
  5
206
330
1E
100
AcDbEntity
  8
4
100
AcDbLine
 10
657.9999999999999
 20
428.0
 30
0.0
 11
669.0
 21
428.0
 31
0.0
  0
LINE
  5
207
330
1E
100
AcDbEntity
  8
4
100
AcDbLine
 10
657.9999999999999
 20
429.9999999999998
 30
0.0
 11
669.0
 21
429.9999999999998
 31
0.0
  0
TEXT
  5
208
330
1E
100
AcDbEntity
  8
0
100
AcDbText
 10
516.4901308784735
 20
90.45607640409331
 30
0.0
 40
16.0
  1
図は右側タイプとして描かれています。
 41
0.8
  7
BIGFONT
100
AcDbText
  0
ARC
  5
348
330
1E
100
AcDbEntity
  8
0
100
AcDbCircle
 10
340.8799080098928
 20
566.2250766584227
 30
0.0
 40
3.391070774708413
100
AcDbArc
 50
125.0847247940582
 51
175.3497714598925
  0
ARC
  5
350
330
1E
100
AcDbEntity
  8
0
100
AcDbCircle
 10
341.0819564940735
 20
553.9432970783945
 30
0.0
 40
3.609283117898712
100
AcDbArc
 50
187.0549596883712
 51
234.6348202011472
  0
LINE
  5
351
330
1E
100
AcDbEntity
  8
0
100
AcDbLine
 10
337.5
 20
560.0
 30
0.0
 11
337.5
 21
553.5
 31
0.0
  0
LINE
  5
352
330
1E
100
AcDbEntity
  8
0
100
AcDbLine
 10
337.5
 20
560.0
 30
0.0
 11
337.5
 21
566.5
 31
0.0
  0
LINE
  5
353
330
1E
100
AcDbEntity
  8
0
100
AcDbLine
 10
373.4999999999998
 20
550.9999999999998
 30
0.0
 11
338.9929550739058
 21
550.9999999999998
 31
0.0
  0
LINE
  5
354
330
1E
100
AcDbEntity
  8
2
100
AcDbLine
 10
373.4999999999998
 20
550.9999999999998
 30
0.0
 11
341.5
 21
550.9999999999998
 31
0.0
  0
LINE
  5
355
330
1E
100
AcDbEntity
  8
2
100
AcDbLine
 10
341.5
 20
550.9999999999998
 30
0.0
 11
341.5
 21
550.4999999999999
 31
0.0
  0
LINE
  5
359
330
1E
100
AcDbEntity
  8
0
100
AcDbLine
 10
398.4999999999998
 20
546.9999999999998
 30
0.0
 11
373.4999999999998
 21
548.4957264957263
 31
0.0
  0
LINE
  5
35A
330
1E
100
AcDbEntity
  8
0
100
AcDbLine
 10
373.4999999999998
 20
548.5
 30
0.0
 11
373.4999999999998
 21
548.4957264957263
 31
0.0
  0
LINE
  5
35B
330
1E
100
AcDbEntity
  8
0
100
AcDbLine
 10
373.4999999999998
 20
548.5
 30
0.0
 11
373.4999999999998
 21
550.9999999999998
 31
0.0
  0
LINE
  5
35C
330
1E
100
AcDbEntity
  8
2
100
AcDbLine
 10
373.4999999999998
 20
548.5
 30
0.0
 11
373.4999999999998
 21
550.9999999999998
 31
0.0
  0
ARC
  5
35F
330
1E
100
AcDbEntity
  8
0
100
AcDbCircle
 10
341.0819564940735
 20
135.9432970783942
 30
0.0
 40
3.609283117898712
100
AcDbArc
 50
187.0549596883712
 51
234.6348202011472
  0
ARC
  5
360
330
1E
100
AcDbEntity
  8
0
100
AcDbCircle
 10
340.8799080098928
 20
148.2250766584225
 30
0.0
 40
3.391070774708413
100
AcDbArc
 50
125.0847247940582
 51
175.3497714598925
  0
LINE
  5
361
330
1E
100
AcDbEntity
  8
0
100
AcDbLine
 10
337.5
 20
141.9999999999997
 30
0.0
 11
337.5
 21
135.4999999999997
 31
0.0
  0
LINE
  5
362
330
1E
100
AcDbEntity
  8
0
100
AcDbLine
 10
337.5
 20
141.9999999999997
 30
0.0
 11
337.5
 21
148.4999999999998
 31
0.0
  0
LINE
  5
363
330
1E
100
AcDbEntity
  8
0
100
AcDbLine
 10
373.4999999999998
 20
569.0
 30
0.0
 11
338.9307642369886
 21
569.0
 31
0.0
  0
LINE
  5
364
330
1E
100
AcDbEntity
  8
2
100
AcDbLine
 10
341.5
 20
569.0
 30
0.0
 11
373.4999999999998
 21
569.0
 31
0.0
  0
LINE
  5
365
330
1E
100
AcDbEntity
  8
2
100
AcDbLine
 10
341.5
 20
569.5
 30
0.0
 11
341.5
 21
569.0
 31
0.0
  0
LINE
  5
366
330
1E
100
AcDbEntity
  8
0
100
AcDbLine
 10
398.4999999999998
 20
573.0
 30
0.0
 11
373.4999999999998
 21
571.5042735042733
 31
0.0
  0
LINE
  5
367
330
1E
100
AcDbEntity
  8
0
100
AcDbLine
 10
373.4999999999998
 20
571.4999999999998
 30
0.0
 11
373.4999999999998
 21
571.5042735042733
 31
0.0
  0
LINE
  5
368
330
1E
100
AcDbEntity
  8
0
100
AcDbLine
 10
373.4999999999998
 20
571.4999999999998
 30
0.0
 11
373.4999999999998
 21
569.0
 31
0.0
  0
LINE
  5
369
330
1E
100
AcDbEntity
  8
2
100
AcDbLine
 10
373.4999999999998
 20
569.0
 30
0.0
 11
373.4999999999998
 21
571.4999999999998
 31
0.0
  0
LINE
  5
36A
330
1E
100
AcDbEntity
  8
2
100
AcDbLine
 10
373.4999999999998
 20
150.9999999999998
 30
0.0
 11
341.5
 21
150.9999999999998
 31
0.0
  0
LINE
  5
36B
330
1E
100
AcDbEntity
  8
2
100
AcDbLine
 10
341.5
 20
132.9999999999999
 30
0.0
 11
373.4999999999998
 21
132.9999999999999
 31
0.0
  0
LINE
  5
36C
330
1E
100
AcDbEntity
  8
2
100
AcDbLine
 10
341.5
 20
150.9999999999998
 30
0.0
 11
373.4999999999998
 21
150.9999999999998
 31
0.0
  0
LINE
  5
36D
330
1E
100
AcDbEntity
  8
0
100
AcDbLine
 10
373.4999999999998
 20
150.9999999999998
 30
0.0
 11
338.9307642369886
 21
150.9999999999998
 31
0.0
  0
LINE
  5
36E
330
1E
100
AcDbEntity
  8
2
100
AcDbLine
 10
373.4999999999998
 20
132.9999999999996
 30
0.0
 11
341.5
 21
132.9999999999996
 31
0.0
  0
LINE
  5
36F
330
1E
100
AcDbEntity
  8
0
100
AcDbLine
 10
373.4999999999998
 20
132.9999999999996
 30
0.0
 11
338.9929550739058
 21
132.9999999999996
 31
0.0
  0
LINE
  5
379
330
1E
100
AcDbEntity
  8
2
100
AcDbLine
 10
341.5
 20
132.9999999999996
 30
0.0
 11
341.5
 21
132.4999999999996
 31
0.0
  0
LINE
  5
37A
330
1E
100
AcDbEntity
  8
2
100
AcDbLine
 10
341.5
 20
151.4999999999998
 30
0.0
 11
341.5
 21
150.9999999999998
 31
0.0
  0
LINE
  5
37D
330
1E
100
AcDbEntity
  8
0
100
AcDbLine
 10
398.4999999999998
 20
128.9999999999996
 30
0.0
 11
373.4999999999998
 21
130.4957264957261
 31
0.0
  0
LINE
  5
37E
330
1E
100
AcDbEntity
  8
0
100
AcDbLine
 10
373.4999999999998
 20
130.4999999999997
 30
0.0
 11
373.4999999999998
 21
130.4957264957261
 31
0.0
  0
LINE
  5
37F
330
1E
100
AcDbEntity
  8
2
100
AcDbLine
 10
373.4999999999998
 20
132.9999999999999
 30
0.0
 11
373.4999999999998
 21
130.4999999999997
 31
0.0
  0
LINE
  5
380
330
1E
100
AcDbEntity
  8
2
100
AcDbLine
 10
373.4999999999998
 20
130.4999999999997
 30
0.0
 11
373.4999999999998
 21
132.9999999999996
 31
0.0
  0
LINE
  5
381
330
1E
100
AcDbEntity
  8
0
100
AcDbLine
 10
373.4999999999998
 20
130.4999999999997
 30
0.0
 11
373.4999999999998
 21
132.9999999999996
 31
0.0
  0
LINE
  5
382
330
1E
100
AcDbEntity
  8
0
100
AcDbLine
 10
398.4999999999998
 20
154.9999999999998
 30
0.0
 11
373.4999999999998
 21
153.5042735042733
 31
0.0
  0
LINE
  5
383
330
1E
100
AcDbEntity
  8
2
100
AcDbLine
 10
373.4999999999998
 20
153.4999999999999
 30
0.0
 11
373.4999999999998
 21
150.9999999999998
 31
0.0
  0
LINE
  5
384
330
1E
100
AcDbEntity
  8
2
100
AcDbLine
 10
373.4999999999998
 20
150.9999999999998
 30
0.0
 11
373.4999999999998
 21
153.4999999999996
 31
0.0
  0
LINE
  5
385
330
1E
100
AcDbEntity
  8
0
100
AcDbLine
 10
373.4999999999998
 20
153.4999999999996
 30
0.0
 11
373.4999999999998
 21
150.9999999999998
 31
0.0
  0
LINE
  5
386
330
1E
100
AcDbEntity
  8
0
100
AcDbLine
 10
373.4999999999998
 20
153.4999999999996
 30
0.0
 11
373.4999999999998
 21
153.5042735042733
 31
0.0
  0
LINE
  5
38D
330
1E
100
AcDbEntity
  8
0
100
AcDbLine
 10
373.4999999999998
 20
441.170731707317
 30
0.0
 11
373.4999999999998
 21
398.8292682926828
 31
0.0
  0
ARC
  5
4A7
330
1E
100
AcDbEntity
  8
0
100
AcDbCircle
 10
637.9999999999999
 20
430.0
 30
0.0
 40
20.0
100
AcDbArc
 50
0.0
 51
180.0
  0
ARC
  5
4AC
330
1E
100
AcDbEntity
  8
0
100
AcDbCircle
 10
637.9999999999999
 20
289.9999999999998
 30
0.0
 40
20.0
100
AcDbArc
 50
180.0
 51
0.4092538279258904
  0
LINE
  5
4B1
330
1E
100
AcDbEntity
  8
0
100
AcDbLine
 10
617.9999999999998
 20
289.9999999999998
 30
0.0
 11
617.9999999999998
 21
430.0
 31
0.0
  0
LINE
  5
4B3
330
1E
100
AcDbEntity
  8
0
100
AcDbLine
 10
657.9999999999999
 20
289.9999999999998
 30
0.0
 11
657.9999999999999
 21
430.0
 31
0.0
  0
ARC
  5
4B4
330
1E
100
AcDbEntity
  8
0
100
AcDbCircle
 10
154.0
 20
430.0
 30
0.0
 40
20.0
100
AcDbArc
 50
0.0
 51
180.0
  0
LINE
  5
4B5
330
1E
100
AcDbEntity
  8
0
100
AcDbLine
 10
174.0
 20
289.9999999999998
 30
0.0
 11
174.0
 21
430.0
 31
0.0
  0
ARC
  5
4B6
330
1E
100
AcDbEntity
  8
0
100
AcDbCircle
 10
154.0
 20
289.9999999999998
 30
0.0
 40
20.0
100
AcDbArc
 50
180.0
 51
0.4092538279258904
  0
LINE
  5
4B7
330
1E
100
AcDbEntity
  8
0
100
AcDbLine
 10
134.0
 20
289.9999999999998
 30
0.0
 11
134.0
 21
409.9999999999998
 31
0.0
  0
LINE
  5
4B9
330
1E
100
AcDbEntity
  8
0
100
AcDbLine
 10
140.9999999999998
 20
409.9999999999998
 30
0.0
 11
140.9999999999998
 21
399.0
 31
0.0
  0
LINE
  5
590
330
1E
100
AcDbEntity
  8
0
100
AcDbLine
 10
358.4999999999999
 20
434.9666295470957
 30
0.0
 11
358.4999999999999
 21
405.0333704529042
 31
0.0
  0
LINE
  5
592
330
1E
100
AcDbEntity
  8
0
100
AcDbLine
 10
356.5
 20
405.0333704529042
 30
0.0
 11
356.4999999999999
 21
434.9666295470957
 31
0.0
  0
ENDSEC
  0
SECTION
  2
OBJECTS
  0
DICTIONARY
  5
C
330
0
100
AcDbDictionary
281
     1
  3
ACAD_GROUP
350
D
  3
ACAD_LAYOUT
350
19
  3
ACAD_MLINESTYLE
350
16
  3
ACAD_PLOTSETTINGS
350
18
  3
ACAD_PLOTSTYLENAME
350
E
  3
AcDbVariableDictionary
350
397
  3
AcmDictionary
350
2C5
  3
AMG
350
20B
  3
AMGSNAPSETTINGS
350
336
  3
DWGPROPS
350
4BB
  0
DICTIONARY
  5
38E
330
1E
100
AcDbDictionary
280
     1
281
     1
  3
ACAD_INDEX
360
38F
  0
DICTIONARY
  5
D
102
{ACAD_REACTORS
330
C
102
}
330
C
100
AcDbDictionary
281
     1
  0
DICTIONARY
  5
19
102
{ACAD_REACTORS
330
C
102
}
330
C
100
AcDbDictionary
281
     1
  3
Model
350
21
  3
ﾚｲｱｳﾄ1
350
1D
  0
DICTIONARY
  5
16
102
{ACAD_REACTORS
330
C
102
}
330
C
100
AcDbDictionary
281
     1
  3
Standard
350
17
  0
DICTIONARY
  5
18
102
{ACAD_REACTORS
330
C
102
}
330
C
100
AcDbDictionary
281
     1
  0
ACDBDICTIONARYWDFLT
  5
E
102
{ACAD_REACTORS
330
C
102
}
330
C
100
AcDbDictionary
281
     1
  3
Normal
350
F
100
AcDbDictionaryWithDefault
340
F
  0
DICTIONARY
  5
397
102
{ACAD_REACTORS
330
C
102
}
330
C
100
AcDbDictionary
281
     1
  3
DIMASSOC
350
399
  3
INDEXCTL
350
398
  0
DICTIONARY
  5
2C5
102
{ACAD_REACTORS
330
C
102
}
330
C
100
AcDbDictionary
281
     1
  3
AcmBOMDATA
350
451
  0
DICTIONARY
  5
20B
102
{ACAD_REACTORS
330
C
102
}
330
C
100
AcDbDictionary
281
     1
  3
AcMgSettings
350
20C
  3
AMGLAYCFG
350
45B
  0
DICTIONARY
  5
336
102
{ACAD_REACTORS
330
C
102
}
330
C
100
AcDbDictionary
281
     1
  3
DIMENSION
350
33B
  3
FEA
350
33A
  3
HATCH (1)
350
337
  3
HATCH (2)
350
338
  3
SIMPLE WELD
350
33C
  3
SYMBOLS
350
339
  0
XRECORD
  5
4BB
102
{ACAD_REACTORS
330
C
102
}
330
C
100
AcDbXrecord
280
     1
  1
DWGPROPS COOKIE
  2

  3

  4

  6

  7

  8

  9

300
AmdtFileType=84
301
=
302
=
303
=
304
=
305
=
306
=
307
=
308
=
309
=
 40
0.0172515162037037
 41
2450686.776076389
 42
2455841.704260706
  1

 90
        1
  0
DICTIONARY
  5
38F
102
{ACAD_REACTORS
330
38E
102
}
330
38E
100
AcDbDictionary
281
     1
  3
*A1
350
390
  0
LAYOUT
  5
21
102
{ACAD_REACTORS
330
19
102
}
330
19
100
AcDbPlotSettings
  1

  2
\\KONISHIDENXP\SHARP MX-2700FG
  4

  6

 40
0.0
 41
0.0
 42
0.0
 43
0.0
 44
0.0
 45
0.0
 46
0.0
 47
0.0
 48
0.0
 49
0.0
140
0.0
141
0.0
142
1.0
143
1.0
 70
  1712
 72
     0
 73
     0
 74
     0
  7

 75
     0
147
1.0
148
0.0
149
0.0
100
AcDbLayout
  1
Model
 70
     1
 71
     0
 10
0.0
 20
0.0
 11
12.0
 21
9.0
 12
0.0
 22
0.0
 32
0.0
 14
0.0
 24
0.0
 34
0.0
 15
0.0
 25
0.0
 35
0.0
146
0.0
 13
0.0
 23
0.0
 33
0.0
 16
1.0
 26
0.0
 36
0.0
 17
0.0
 27
1.0
 37
0.0
 76
     0
330
1E
  0
LAYOUT
  5
1D
102
{ACAD_REACTORS
330
19
102
}
330
19
100
AcDbPlotSettings
  1

  2
\\KONISHIDENXP\SHARP MX-2700FG
  4

  6

 40
0.0
 41
0.0
 42
0.0
 43
0.0
 44
0.0
 45
0.0
 46
0.0
 47
0.0
 48
0.0
 49
0.0
140
0.0
141
0.0
142
1.0
143
1.0
 70
   688
 72
     0
 73
     0
 74
     5
  7

 75
    16
147
1.0
148
0.0
149
0.0
100
AcDbLayout
  1
ﾚｲｱｳﾄ1
 70
     1
 71
     1
 10
0.0
 20
0.0
 11
12.0
 21
9.0
 12
0.0
 22
0.0
 32
0.0
 14
1.000000000000000E+20
 24
1.000000000000000E+20
 34
1.000000000000000E+20
 15
-1.000000000000000E+20
 25
-1.000000000000000E+20
 35
-1.000000000000000E+20
146
0.0
 13
0.0
 23
0.0
 33
0.0
 16
1.0
 26
0.0
 36
0.0
 17
0.0
 27
1.0
 37
0.0
 76
     0
330
1A
  0
MLINESTYLE
  5
17
102
{ACAD_REACTORS
330
16
102
}
330
16
100
AcDbMlineStyle
  2
STANDARD
 70
     0
  3

 62
   256
 51
90.0
 52
90.0
 71
     2
 49
0.5
 62
   256
  6
BYLAYER
 49
-0.5
 62
   256
  6
BYLAYER
  0
ACDBPLACEHOLDER
  5
F
102
{ACAD_REACTORS
330
E
102
}
330
E
  0
DICTIONARYVAR
  5
399
102
{ACAD_REACTORS
330
397
102
}
330
397
100
DictionaryVariables
280
     0
  1
1
  0
DICTIONARYVAR
  5
398
102
{ACAD_REACTORS
330
397
102
}
330
397
100
DictionaryVariables
280
     0
  1
1
  0
ACMDATADICTIONARY
  5
451
102
{ACAD_REACTORS
330
2C5
102
}
330
2C5
100
AcDbDictionary
281
     1
  3
*A1
350
452
100
AcmDataDictionary
  0
DICTIONARY
  5
20C
102
{ACAD_REACTORS
330
20B
102
}
330
20B
100
AcDbDictionary
281
     1
  3
DWGSETTINGS
350
3A3
  0
ACAMGFILTERDAT
  5
33B
102
{ACAD_REACTORS
330
336
102
}
330
336
100
AcAmgFilterDat
 70
    15
  1
DIMENSION,AMDT_*_DIM
  2
*
  3
*
  4
*
  5
*
290
     1
  0
ACAMGFILTERDAT
  5
33A
102
{ACAD_REACTORS
330
336
102
}
330
336
100
AcAmgFilterDat
 70
    15
  1
*
  2
AM_FEA-AM_*
  3
*
  4
*
  5
*
290
     1
  0
ACAMGFILTERDAT
  5
337
102
{ACAD_REACTORS
330
336
102
}
330
336
100
AcAmgFilterDat
 70
    15
  1
HATCH
  2
*
  3
*
  4
*
  5
*
290
     1
  0
ACAMGFILTERDAT
  5
338
102
{ACAD_REACTORS
330
336
102
}
330
336
100
AcAmgFilterDat
 70
    15
  1
LINE
  2
8,8N,*-8,*-8N,AM_8,AM_8N,*-AM_8,*-AM_8N
  3
*
  4
*
  5
INSERT,STDPART2D
290
     1
  0
ACAMGFILTERDAT
  5
33C
102
{ACAD_REACTORS
330
336
102
}
330
336
100
AcAmgFilterDat
 70
    15
  1
ARC
  2
AM_5
  3
*
  4
2
  5
INSERT
290
     0
  0
ACAMGFILTERDAT
  5
339
102
{ACAD_REACTORS
330
336
102
}
330
336
100
AcAmgFilterDat
 70
    15
  1
ACMFCFRAME,ACMDATUMTARGET,ACMDATUMID,ACMWELDSYM,ACMSURFSYM,ACMFEATID,ACMPARTREF,ACMBALLOON,AMDTEDGESYM,AMGSCREWCALCTABLE
  2
*
  3
*
  4
*
  5
*
290
     1
  0
LAYER_INDEX
  5
390
102
{ACAD_REACTORS
330
38F
102
}
330
38F
100
AcDbIndex
 40
2456525.398707314
100
AcDbLayerIndex
  8
0
360
391
 90
       96
  8
1
360
392
 90
       14
  8
2
360
393
 90
       81
  8
3
360
394
 90
        2
  8
4
360
395
 90
      220
  8
5
360
396
 90
       13
  8
Defpoints
360
593
 90
        0
  0
ACMDATAENTRYBLOCK
  5
452
102
{ACAD_REACTORS
330
451
102
}
330
451
100
AcmDataEntry
100
AcmDataEntryBlock
  0
IDBUFFER
  5
391
330
0
100
AcDbIdBuffer
330
70
330
71
330
72
330
73
330
74
330
75
330
76
330
77
330
78
330
7A
330
7B
330
7C
330
7D
330
7E
330
7F
330
80
330
81
330
82
330
83
330
84
330
85
330
89
330
8A
330
8B
330
8C
330
8F
330
90
330
91
330
95
330
96
330
97
330
98
330
9B
330
9C
330
AD
330
B4
330
B5
330
100
330
103
330
105
330
10A
330
10B
330
10C
330
120
330
123
330
147
330
148
330
16C
330
16D
330
170
330
174
330
1F1
330
1F2
330
1F3
330
1F4
330
1F5
330
1F6
330
1FB
330
1FC
330
208
330
348
330
350
330
351
330
352
330
353
330
359
330
35A
330
35B
330
35F
330
360
330
361
330
362
330
363
330
366
330
367
330
368
330
36D
330
36F
330
37D
330
37E
330
381
330
382
330
385
330
386
330
38D
330
4A7
330
4AC
330
4B1
330
4B3
330
4B4
330
4B5
330
4B6
330
4B7
330
4B9
330
590
330
592
  0
IDBUFFER
  5
392
330
0
100
AcDbIdBuffer
330
66
330
6F
330
79
330
8D
330
8E
330
93
330
94
330
C0
330
16B
330
175
330
176
330
1A6
330
1A7
330
1AE
  0
IDBUFFER
  5
393
330
0
100
AcDbIdBuffer
330
A7
330
A8
330
A9
330
AA
330
AB
330
AC
330
AE
330
AF
330
B0
330
B1
330
B2
330
B3
330
B6
330
B7
330
B8
330
B9
330
10D
330
10E
330
10F
330
110
330
111
330
112
330
113
330
114
330
115
330
116
330
117
330
118
330
119
330
11A
330
11B
330
11C
330
11D
330
11E
330
11F
330
121
330
122
330
135
330
136
330
137
330
138
330
139
330
13A
330
13B
330
13C
330
13D
330
13E
330
13F
330
140
330
141
330
142
330
143
330
144
330
145
330
146
330
1B9
330
1BB
330
1BD
330
1BE
330
1C8
330
1C9
330
1FD
330
1FE
330
1FF
330
200
330
354
330
355
330
35C
330
364
330
365
330
369
330
36A
330
36B
330
36C
330
36E
330
379
330
37A
330
37F
330
380
330
383
330
384
  0
IDBUFFER
  5
394
330
0
100
AcDbIdBuffer
330
6B
330
6C
  0
IDBUFFER
  5
395
330
0
100
AcDbIdBuffer
330
3A
330
3B
330
3C
330
3D
330
3E
330
3F
330
40
330
41
330
42
330
43
330
44
330
45
330
46
330
47
330
48
330
49
330
4A
330
4B
330
4C
330
4D
330
4E
330
4F
330
50
330
51
330
52
330
53
330
54
330
55
330
56
330
57
330
58
330
59
330
5A
330
5B
330
5C
330
5D
330
5E
330
5F
330
60
330
61
330
62
330
63
330
64
330
65
330
67
330
68
330
69
330
6A
330
C1
330
C2
330
C3
330
C4
330
C5
330
C6
330
C7
330
C8
330
C9
330
CA
330
CB
330
CC
330
CD
330
CE
330
CF
330
D0
330
D1
330
D2
330
D3
330
D4
330
D5
330
D6
330
D7
330
D8
330
D9
330
DA
330
DB
330
DC
330
DD
330
DE
330
DF
330
E0
330
E1
330
E2
330
E3
330
E4
330
E5
330
E6
330
E7
330
E8
330
E9
330
EA
330
EB
330
EC
330
ED
330
EE
330
EF
330
F0
330
F1
330
F2
330
F3
330
F4
330
F5
330
F6
330
F7
330
F8
330
F9
330
151
330
152
330
153
330
154
330
155
330
15F
330
160
330
163
330
164
330
165
330
166
330
167
330
168
330
169
330
16A
330
171
330
172
330
177
330
178
330
179
330
17A
330
17B
330
17C
330
17D
330
17E
330
17F
330
180
330
181
330
182
330
183
330
184
330
185
330
186
330
187
330
188
330
189
330
18A
330
18B
330
18C
330
18D
330
18E
330
18F
330
190
330
191
330
192
330
193
330
194
330
195
330
196
330
197
330
198
330
199
330
19A
330
19D
330
1A0
330
1A1
330
1A2
330
1A3
330
1A4
330
1A5
330
1AA
330
1AB
330
1AC
330
1AD
330
1B0
330
1B3
330
1B4
330
1BF
330
1C0
330
1C3
330
1C7
330
1CD
330
1CE
330
1CF
330
1D0
330
1D1
330
1D2
330
1D3
330
1D4
330
1D5
330
1D6
330
1D7
330
1D8
330
1D9
330
1DA
330
1DB
330
1DC
330
1DD
330
1DE
330
1DF
330
1E0
330
1E1
330
1E2
330
1E3
330
1E4
330
1E5
330
1E6
330
1E7
330
1E8
330
1E9
330
1EA
330
1EB
330
1EC
330
1ED
330
1EE
330
1EF
330
1F0
330
1F7
330
1F8
330
1F9
330
1FA
330
204
330
205
330
206
330
207
  0
IDBUFFER
  5
396
330
0
100
AcDbIdBuffer
330
101
330
106
330
107
330
108
330
109
330
15B
330
15C
330
15D
330
15E
330
1C1
330
1C2
330
1CA
330
1CB
  0
IDBUFFER
  5
593
330
0
100
AcDbIdBuffer
  0
ENDSEC
  0
EOF
