  0
SECTION
  2
HEADER
  9
$ACADVER
  1
AC1015
  9
$ACADMAINTVER
 70
    13
  9
$DWGCODEPAGE
  3
ANSI_932
  9
$INSBASE
 10
0.0
 20
0.0
 30
0.0
  9
$EXTMIN
 10
0.0
 20
0.0
 30
0.0
  9
$EXTMAX
 10
984.0491566594701
 20
959.0598128575733
 30
0.0
  9
$LIMMIN
 10
0.0
 20
0.0
  9
$LIMMAX
 10
800.0
 20
700.0
  9
$ORTHOMODE
 70
     1
  9
$REGENMODE
 70
     1
  9
$FILLMODE
 70
     1
  9
$QTEXTMODE
 70
     0
  9
$MIRRTEXT
 70
     1
  9
$LTSCALE
 40
1.0
  9
$ATTMODE
 70
     1
  9
$TEXTSIZE
 40
16.0
  9
$TRACEWID
 40
0.05
  9
$TEXTSTYLE
  7
BIGFONT
  9
$CLAYER
  8
0
  9
$CELTYPE
  6
ByLayer
  9
$CECOLOR
 62
   256
  9
$CELTSCALE
 40
1.0
  9
$DISPSILH
 70
     0
  9
$DIMSCALE
 40
1.0
  9
$DIMASZ
 40
0.18
  9
$DIMEXO
 40
0.0625
  9
$DIMDLI
 40
0.38
  9
$DIMRND
 40
0.0
  9
$DIMDLE
 40
0.0
  9
$DIMEXE
 40
0.18
  9
$DIMTP
 40
0.0
  9
$DIMTM
 40
0.0
  9
$DIMTXT
 40
0.18
  9
$DIMCEN
 40
0.09
  9
$DIMTSZ
 40
0.0
  9
$DIMTOL
 70
     0
  9
$DIMLIM
 70
     0
  9
$DIMTIH
 70
     1
  9
$DIMTOH
 70
     1
  9
$DIMSE1
 70
     0
  9
$DIMSE2
 70
     0
  9
$DIMTAD
 70
     0
  9
$DIMZIN
 70
     0
  9
$DIMBLK
  1

  9
$DIMASO
 70
     1
  9
$DIMSHO
 70
     1
  9
$DIMPOST
  1

  9
$DIMAPOST
  1

  9
$DIMALT
 70
     0
  9
$DIMALTD
 70
     2
  9
$DIMALTF
 40
25.4
  9
$DIMLFAC
 40
1.0
  9
$DIMTOFL
 70
     0
  9
$DIMTVP
 40
0.0
  9
$DIMTIX
 70
     0
  9
$DIMSOXD
 70
     0
  9
$DIMSAH
 70
     0
  9
$DIMBLK1
  1

  9
$DIMBLK2
  1

  9
$DIMSTYLE
  2
STANDARD
  9
$DIMCLRD
 70
     0
  9
$DIMCLRE
 70
     0
  9
$DIMCLRT
 70
     0
  9
$DIMTFAC
 40
1.0
  9
$DIMGAP
 40
0.09
  9
$DIMJUST
 70
     0
  9
$DIMSD1
 70
     0
  9
$DIMSD2
 70
     0
  9
$DIMTOLJ
 70
     1
  9
$DIMTZIN
 70
     0
  9
$DIMALTZ
 70
     0
  9
$DIMALTTZ
 70
     0
  9
$DIMUPT
 70
     0
  9
$DIMDEC
 70
     4
  9
$DIMTDEC
 70
     4
  9
$DIMALTU
 70
     2
  9
$DIMALTTD
 70
     2
  9
$DIMTXSTY
  7
STANDARD
  9
$DIMAUNIT
 70
     0
  9
$DIMADEC
 70
     0
  9
$DIMALTRND
 40
0.0
  9
$DIMAZIN
 70
     0
  9
$DIMDSEP
 70
    46
  9
$DIMATFIT
 70
     3
  9
$DIMFRAC
 70
     0
  9
$DIMLDRBLK
  1

  9
$DIMLUNIT
 70
     2
  9
$DIMLWD
 70
    -2
  9
$DIMLWE
 70
    -2
  9
$DIMTMOVE
 70
     0
  9
$LUNITS
 70
     2
  9
$LUPREC
 70
     4
  9
$SKETCHINC
 40
0.1
  9
$FILLETRAD
 40
0.0
  9
$AUNITS
 70
     0
  9
$AUPREC
 70
     0
  9
$MENU
  1
acad
  9
$ELEVATION
 40
0.0
  9
$PELEVATION
 40
0.0
  9
$THICKNESS
 40
0.0
  9
$LIMCHECK
 70
     0
  9
$CHAMFERA
 40
0.0
  9
$CHAMFERB
 40
0.0
  9
$CHAMFERC
 40
0.0
  9
$CHAMFERD
 40
0.0
  9
$SKPOLY
 70
     0
  9
$TDCREATE
 40
2450686.775891203
  9
$TDUCREATE
 40
2450686.400891203
  9
$TDUPDATE
 40
2456525.407857349
  9
$TDUUPDATE
 40
2456525.032857349
  9
$TDINDWG
 40
0.0063729861
  9
$TDUSRTIMER
 40
0.0063726157
  9
$USRTIMER
 70
     1
  9
$ANGBASE
 50
0.0
  9
$ANGDIR
 70
     0
  9
$PDMODE
 70
     0
  9
$PDSIZE
 40
0.0
  9
$PLINEWID
 40
0.0
  9
$SPLFRAME
 70
     0
  9
$SPLINETYPE
 70
     6
  9
$SPLINESEGS
 70
     8
  9
$HANDSEED
  5
494
  9
$SURFTAB1
 70
     6
  9
$SURFTAB2
 70
     6
  9
$SURFTYPE
 70
     6
  9
$SURFU
 70
     6
  9
$SURFV
 70
     6
  9
$UCSBASE
  2

  9
$UCSNAME
  2

  9
$UCSORG
 10
0.0
 20
0.0
 30
0.0
  9
$UCSXDIR
 10
1.0
 20
0.0
 30
0.0
  9
$UCSYDIR
 10
0.0
 20
1.0
 30
0.0
  9
$UCSORTHOREF
  2

  9
$UCSORTHOVIEW
 70
     0
  9
$UCSORGTOP
 10
0.0
 20
0.0
 30
0.0
  9
$UCSORGBOTTOM
 10
0.0
 20
0.0
 30
0.0
  9
$UCSORGLEFT
 10
0.0
 20
0.0
 30
0.0
  9
$UCSORGRIGHT
 10
0.0
 20
0.0
 30
0.0
  9
$UCSORGFRONT
 10
0.0
 20
0.0
 30
0.0
  9
$UCSORGBACK
 10
0.0
 20
0.0
 30
0.0
  9
$PUCSBASE
  2

  9
$PUCSNAME
  2

  9
$PUCSORG
 10
0.0
 20
0.0
 30
0.0
  9
$PUCSXDIR
 10
1.0
 20
0.0
 30
0.0
  9
$PUCSYDIR
 10
0.0
 20
1.0
 30
0.0
  9
$PUCSORTHOREF
  2

  9
$PUCSORTHOVIEW
 70
     0
  9
$PUCSORGTOP
 10
0.0
 20
0.0
 30
0.0
  9
$PUCSORGBOTTOM
 10
0.0
 20
0.0
 30
0.0
  9
$PUCSORGLEFT
 10
0.0
 20
0.0
 30
0.0
  9
$PUCSORGRIGHT
 10
0.0
 20
0.0
 30
0.0
  9
$PUCSORGFRONT
 10
0.0
 20
0.0
 30
0.0
  9
$PUCSORGBACK
 10
0.0
 20
0.0
 30
0.0
  9
$USERI1
 70
     0
  9
$USERI2
 70
     0
  9
$USERI3
 70
     0
  9
$USERI4
 70
     0
  9
$USERI5
 70
     0
  9
$USERR1
 40
0.0
  9
$USERR2
 40
0.0
  9
$USERR3
 40
0.0
  9
$USERR4
 40
0.0
  9
$USERR5
 40
0.0
  9
$WORLDVIEW
 70
     1
  9
$SHADEDGE
 70
     3
  9
$SHADEDIF
 70
    70
  9
$TILEMODE
 70
     1
  9
$MAXACTVP
 70
    16
  9
$PINSBASE
 10
0.0
 20
0.0
 30
0.0
  9
$PLIMCHECK
 70
     0
  9
$PEXTMIN
 10
1.000000000000000E+20
 20
1.000000000000000E+20
 30
1.000000000000000E+20
  9
$PEXTMAX
 10
-1.000000000000000E+20
 20
-1.000000000000000E+20
 30
-1.000000000000000E+20
  9
$PLIMMIN
 10
0.0
 20
0.0
  9
$PLIMMAX
 10
12.0
 20
9.0
  9
$UNITMODE
 70
     0
  9
$VISRETAIN
 70
     0
  9
$PLINEGEN
 70
     0
  9
$PSLTSCALE
 70
     1
  9
$TREEDEPTH
 70
  3020
  9
$CMLSTYLE
  2
Standard
  9
$CMLJUST
 70
     0
  9
$CMLSCALE
 40
1.0
  9
$PROXYGRAPHICS
 70
     1
  9
$MEASUREMENT
 70
     0
  9
$CELWEIGHT
370
    -1
  9
$ENDCAPS
280
     0
  9
$JOINSTYLE
280
     0
  9
$LWDISPLAY
290
     0
  9
$INSUNITS
 70
     0
  9
$HYPERLINKBASE
  1

  9
$STYLESHEET
  1

  9
$XEDIT
290
     1
  9
$CEPSNTYPE
380
     0
  9
$PSTYLEMODE
290
     1
  9
$FINGERPRINTGUID
  2
{A68BE071-D422-4AB9-A068-9801884C0D9B}
  9
$VERSIONGUID
  2
{68531E84-55A7-439B-BCE3-AF62C53B6844}
  9
$EXTNAMES
290
     1
  9
$PSVPSCALE
 40
0.0
  9
$OLESTARTUP
290
     0
  0
ENDSEC
  0
SECTION
  2
CLASSES
  0
CLASS
  1
ACDBDICTIONARYWDFLT
  2
AcDbDictionaryWithDefault
  3
AutoCAD 2000
 90
        0
280
     0
281
     0
  0
CLASS
  1
ACDBPLACEHOLDER
  2
AcDbPlaceHolder
  3
AutoCAD 2000
 90
        0
280
     0
281
     0
  0
CLASS
  1
LAYOUT
  2
AcDbLayout
  3
AutoCAD 2000
 90
        0
280
     0
281
     0
  0
CLASS
  1
AMGSETTINGSOBJ
  2
AmgSettingsObj
  3
"AcadM|Product Description: AutoCAD Mechanical 2000|Company: Autodesk"
 90
        0
280
     0
281
     0
  0
CLASS
  1
ACME_DOCUMENT
  2
AcMeDbDoc
  3
AcMeServices
 90
        0
280
     0
281
     0
  0
CLASS
  1
ACMESCOPE
  2
AcMeScope
  3
AcMeServices
 90
        0
280
     0
281
     0
  0
CLASS
  1
ACMECOMMANDHISTORY
  2
AcMeCommandHistory
  3
AcMeServices
 90
        0
280
     0
281
     0
  0
CLASS
  1
ACIMSYSVARMAN
  2
AcImSysVarManager
  3
AcMeServices
 90
        0
280
     0
281
     0
  0
CLASS
  1
ACIMREALSYSVAR
  2
AcImRealSysVar
  3
AcMeServices
 90
        0
280
     0
281
     0
  0
CLASS
  1
ACIMINTSYSVAR
  2
AcImIntSysVar
  3
AcMeServices
 90
        0
280
     0
281
     0
  0
CLASS
  1
ACMEDRAWINGMAN
  2
AcMeDrawingMan
  3
AcMeServices
 90
        0
280
     0
281
     0
  0
CLASS
  1
ACMEVIEW
  2
AcMeView
  3
AcMeServices
 90
        0
280
     0
281
     0
  0
CLASS
  1
ACDBENTITYCACHE
  2
AcMeEntityCache
  3
AcMeServices
 90
        0
280
     0
281
     0
  0
CLASS
  1
GSMANAGER
  2
AcMeGSManager
  3
AcMeServices
 90
        0
280
     0
281
     0
  0
CLASS
  1
AMDTINTERNALREACTOR
  2
AmdtInternalReactor
  3
AcMeServices
 90
        0
280
     0
281
     0
  0
CLASS
  1
ACMESTATEMGR
  2
AcMeStateMgr
  3
AcMeServices
 90
        0
280
     0
281
     0
  0
CLASS
  1
ACGREFMASTER
  2
AcGrefMaster
  3
AcAttribServices
 90
        0
280
     0
281
     0
  0
CLASS
  1
AM_DRAWING_MGR
  2
AcDmDwgMgr
  3
AcMechDwgViewMgmt
 90
        0
280
     0
281
     0
  0
CLASS
  1
AM_DWG_DOCUMENT
  2
AcDmDwgDocument
  3
AcMechDwgViewMgmt
 90
        0
280
     0
281
     0
  0
CLASS
  1
AM_DWG_SHEET
  2
AcDmSheet
  3
AcMechDwgViewMgmt
 90
        0
280
     0
281
     0
  0
CLASS
  1
AM_VIEWDIMPARMAP
  2
AcDmViewDimParMap
  3
AcMechDwgViewMgmt
 90
        0
280
     0
281
     0
  0
CLASS
  1
AM_DWGMGR_NAME
  2
AcDmDwgMgrName
  3
AcMechDwgViewMgmt
 90
        0
280
     0
281
     0
  0
CLASS
  1
ACME_DATABASE
  2
AcMeDbDatabase
  3
AcMeServices
 90
        0
280
     0
281
     0
  0
CLASS
  1
ACRFINSADJUSTERMGR
  2
AcRfInsAdjusterMgr
  3
AcMeServices
 90
        0
280
     0
281
     0
  0
CLASS
  1
ACGREFACADMASTER
  2
AcGrefacadMaster
  3
AcGrefServices
 90
        0
280
     0
281
     0
  0
CLASS
  1
AMDTMENUSTATEMGR
  2
AmdtMenuStateMgr
  3
McadcomServices
 90
        0
280
     0
281
     0
  0
CLASS
  1
AMDTMCOMMENUSTATE
  2
AmdtMcomMenuState
  3
McadcomServices
 90
        0
280
     0
281
     0
  0
CLASS
  1
AMIMASTER
  2
AmiMaster
  3
AmiServices
 90
        0
280
     0
281
     0
  0
CLASS
  1
ASAPP
  2
AcAsAppObject
  3
AutoSurfServices
 90
        0
280
     0
281
     0
  0
CLASS
  1
IM_STATIC_MAN
  2
AcImStaticVarManager
  3
AcMeServices
 90
        0
280
     0
281
     0
  0
CLASS
  1
ACIMSTRSYSVAR
  2
AcImStrSysVar
  3
AcMeServices
 90
        0
280
     0
281
     0
  0
CLASS
  1
ACIMDBLSTATICVAR
  2
AcImDblStaticVar
  3
AcMeServices
 90
        0
280
     0
281
     0
  0
CLASS
  1
ACIMSTRSTATICVAR
  2
AcImStrStaticVar
  3
AcMeServices
 90
        0
280
     0
281
     0
  0
CLASS
  1
ACIMINTSTATICVAR
  2
AcImIntStaticVar
  3
AcMeServices
 90
        0
280
     0
281
     0
  0
CLASS
  1
ACASGREFMASTER
  2
AcAsGrefMaster
  3
AutoSurfResolverServices
 90
        0
280
     0
281
     0
  0
CLASS
  1
ACADGREFMODULE
  2
AcAdGrefModule
  3
AdGrefServices
 90
        0
280
     0
281
     0
  0
CLASS
  1
AMDTMAPISURFMOUDULE
  2
AmdtMApiSurfModule
  3
MApiSurfServices
 90
    32768
280
     0
281
     0
  0
CLASS
  1
MAPIAMMOUDLE
  2
MApiAmModule
  3
MApiAmServices
 90
        0
280
     0
281
     0
  0
CLASS
  1
AMDTADMENUSTATE
  2
AmdtAdMenuState
  3
DesignerServices
 90
        0
280
     0
281
     0
  0
CLASS
  1
ADAPPL
  2
AcAdAppl
  3
DesignerServices
 90
        0
280
     0
281
     0
  0
CLASS
  1
DEPMGR
  2
AcAdDepMgr
  3
DesignerServices
 90
        0
280
     0
281
     0
  0
CLASS
  1
PARAMMGR
  2
AcAdParamMgr
  3
DesignerServices
 90
        0
280
     0
281
     0
  0
CLASS
  1
PARAMSCOPE
  2
AcAdParamScope
  3
DesignerServices
 90
        0
280
     0
281
     0
  0
CLASS
  1
NAMEDAPPL
  2
AcAdNamedAppl
  3
DesignerServices
 90
        0
280
     0
281
     0
  0
CLASS
  1
AMDTDMMENUSTATE
  2
AmdtDmMenuState
  3
AcMechDwgViewMgmt
 90
        0
280
     0
281
     0
  0
CLASS
  1
MAPIADMODULE
  2
MApiAdModule
  3
MApiAdServices
 90
        0
280
     0
281
     0
  0
CLASS
  1
AMDTAMMENUSTATE
  2
AmdtAmMenuState
  3
DesignerAssemblies
 90
        0
280
     0
281
     0
  0
CLASS
  1
ACAMPROJECT
  2
AcAmProject
  3
DesignerAssemblies
 90
        0
280
     0
281
     0
  0
CLASS
  1
ACAMGRCOMPDEF
  2
AcAmGrCompDef
  3
DesignerAssemblies
 90
        0
280
     0
281
     0
  0
CLASS
  1
ACCMCONTEXT
  2
AcCmContext
  3
DesignerAssemblies
 90
        0
280
     0
281
     0
  0
CLASS
  1
ACAMCOMPDEF
  2
AcAmCompDef
  3
DesignerAssemblies
 90
        0
280
     0
281
     0
  0
CLASS
  1
ACAMCOMPDEFMGR
  2
AcAmCompDefMgr
  3
DesignerAssemblies
 90
        0
280
     0
281
     0
  0
CLASS
  1
AMCONTEXTMGR
  2
AcAmContextMgr
  3
DesignerAssemblies
 90
        0
280
     0
281
     0
  0
CLASS
  1
ACAMCONTEXTMODELER
  2
AcAmContextModeler
  3
DesignerAssemblies
 90
        0
280
     0
281
     0
  0
CLASS
  1
ACMDATADICTIONARY
  2
AcmDataDictionary
  3
"AcmSymBB|Product Description: AutoCAD Mechanical 2000|Company: Autodesk"
 90
        0
280
     0
281
     0
  0
CLASS
  1
ACMDATAENTRYBLOCK
  2
AcmDataEntryBlock
  3
"AcmSymBB|Product Description: AutoCAD Mechanical 2000|Company: Autodesk"
 90
        0
280
     0
281
     0
  0
CLASS
  1
CATALOGSTATE
  2
AcAmCatalogState
  3
DesignerAssemblies
 90
        0
280
     0
281
     0
  0
CLASS
  1
ACAMGRCOMPDEFSET
  2
AcAmGrCompDefSet
  3
DesignerAssemblies
 90
        0
280
     0
281
     0
  0
CLASS
  1
AMDTBROWSERDBTAB
  2
AmdtBrowserDbTab
  3
McadcomServices
 90
        0
280
     0
281
     0
  0
CLASS
  1
CBROWSERAPPOBJECT
  2
CBrowserAppObject
  3
McadcomServices
 90
        0
280
     0
281
     0
  0
CLASS
  1
DM_PLACEHOLDER
  2
AcDmSelsetPlaceholder
  3
AcMechDwgViewMgmt
 90
        0
280
     0
281
     0
  0
CLASS
  1
AMGOBJPROPCFG
  2
AmgObjPropCfg
  3
"AmgLay|Product Description: AutoCAD Mechanical 2000|Company: Autodesk"
 90
        1
280
     0
281
     0
  0
CLASS
  1
ACAMGFILTERDAT
  2
AcAmgFilterDat
  3
"AcadM|Product Description: AutoCAD Mechanical 2000|Company: Autodesk"
 90
        0
280
     0
281
     0
  0
CLASS
  1
LAYER_INDEX
  2
AcDbLayerIndex
  3
AutoCAD 2000
 90
        0
280
     0
281
     0
  0
CLASS
  1
IDBUFFER
  2
AcDbIdBuffer
  3
AutoCAD 2000
 90
        0
280
     0
281
     0
  0
CLASS
  1
DICTIONARYVAR
  2
AcDbDictionaryVar
  3
AutoCAD 2000
 90
        0
280
     0
281
     0
  0
CLASS
  1
AMDTFORMULAUPDATEDISPATCHER
  2
AmdtFormulaUpdateDispatcher
  3
AcMeServices
 90
        0
280
     0
281
     0
  0
ENDSEC
  0
SECTION
  2
TABLES
  0
TABLE
  2
VPORT
  5
8
330
0
100
AcDbSymbolTable
 70
     3
  0
VPORT
  5
493
330
8
100
AcDbSymbolTableRecord
100
AcDbViewportTableRecord
  2
*Active
 70
     0
 10
0.0
 20
0.0
 11
1.0
 21
1.0
 12
-26.41509519817552
 22
138.1841117570716
 13
0.0
 23
0.0
 14
0.5
 24
0.5
 15
1.0
 25
1.0
 16
0.0
 26
0.0
 36
1.0
 17
542.8070175438598
 27
364.3680223285483
 37
0.0
 40
996.3338500191936
 41
1.489721886336154
 42
50.0
 43
0.0
 44
0.0
 50
0.0
 51
0.0
 71
     0
 72
 20000
 73
     1
 74
     1
 75
     0
 76
     0
 77
     0
 78
     0
281
     0
 65
     0
110
0.0
120
0.0
130
0.0
111
1.0
121
0.0
131
0.0
112
0.0
122
1.0
132
0.0
 79
     0
146
0.0
  0
ENDTAB
  0
TABLE
  2
LTYPE
  5
5
330
0
100
AcDbSymbolTable
 70
    18
  0
LTYPE
  5
13
330
5
100
AcDbSymbolTableRecord
100
AcDbLinetypeTableRecord
  2
ByBlock
 70
     0
  3

 72
    65
 73
     0
 40
0.0
  0
LTYPE
  5
14
330
5
100
AcDbSymbolTableRecord
100
AcDbLinetypeTableRecord
  2
ByLayer
 70
     0
  3

 72
    65
 73
     0
 40
0.0
  0
LTYPE
  5
15
330
5
100
AcDbSymbolTableRecord
100
AcDbLinetypeTableRecord
  2
CONTINUOUS
 70
     0
  3
Solid line
 72
    65
 73
     0
 40
0.0
  0
LTYPE
  5
24
330
5
100
AcDbSymbolTableRecord
100
AcDbLinetypeTableRecord
  2
ITTEN1
 70
     0
  3

 72
    65
 73
     4
 40
8.199999999999997
 49
5.0
 74
     0
 49
-1.0
 74
     0
 49
1.199999999999999
 74
     0
 49
-1.0
 74
     0
  0
LTYPE
  5
25
330
5
100
AcDbSymbolTableRecord
100
AcDbLinetypeTableRecord
  2
TENSEN2
 70
     0
  3

 72
    65
 73
     2
 40
2.1
 49
1.5
 74
     0
 49
-0.6
 74
     0
  0
LTYPE
  5
126
330
5
100
AcDbSymbolTableRecord
100
AcDbLinetypeTableRecord
  2
HIDDEN
 70
     0
  3
Hidden __ __ __ __ __ __ __ __ __ __ __ __ __ _
 72
    65
 73
     2
 40
0.375
 49
0.25
 74
     0
 49
-0.125
 74
     0
  0
LTYPE
  5
127
330
5
100
AcDbSymbolTableRecord
100
AcDbLinetypeTableRecord
  2
PHANTOM2
 70
     0
  3
Phantom (.5x) ___ _ _ ___ _ _ ___ _ _ ___ _ _
 72
    65
 73
     6
 40
1.25
 49
0.625
 74
     0
 49
-0.125
 74
     0
 49
0.125
 74
     0
 49
-0.125
 74
     0
 49
0.125
 74
     0
 49
-0.125
 74
     0
  0
LTYPE
  5
128
330
5
100
AcDbSymbolTableRecord
100
AcDbLinetypeTableRecord
  2
CENTER
 70
     0
  3
Center ____ _ ____ _ ____ _ ____ _ ____ _ ____
 72
    65
 73
     4
 40
2.0
 49
1.25
 74
     0
 49
-0.25
 74
     0
 49
0.25
 74
     0
 49
-0.25
 74
     0
  0
LTYPE
  5
18A
330
5
100
AcDbSymbolTableRecord
100
AcDbLinetypeTableRecord
  2
ASULTYPE
 70
     0
  3
実線
 72
    65
 73
     2
 40
3.0
 49
2.5
 74
     0
 49
0.5
 74
     0
  0
LTYPE
  5
18B
330
5
100
AcDbSymbolTableRecord
100
AcDbLinetypeTableRecord
  2
ASVLTYPE
 70
     0
  3
__ __ __ __ __ __ __ __ __ __ __ __ __ __ __ __ __ __ __ __ __
 72
    65
 73
     2
 40
0.75
 49
0.5
 74
     0
 49
-0.25
 74
     0
  0
LTYPE
  5
1CC
330
5
100
AcDbSymbolTableRecord
100
AcDbLinetypeTableRecord
  2
AM_ISO02W050
 70
     0
  3
__ __ __ __ __ __ __ __ __ __ __ __ __ __ __
 72
    65
 73
     2
 40
7.5
 49
6.0
 74
     0
 49
-1.5
 74
     0
  0
LTYPE
  5
1CD
330
5
100
AcDbSymbolTableRecord
100
AcDbLinetypeTableRecord
  2
AM_ISO08W050
 70
     0
  3
____ . ____ . ____ . ____ . ____ . ____ . ____
 72
    65
 73
     4
 40
18.0
 49
12.0
 74
     0
 49
-1.5
 74
     0
 49
3.0
 74
     0
 49
-1.5
 74
     0
  0
LTYPE
  5
1CE
330
5
100
AcDbSymbolTableRecord
100
AcDbLinetypeTableRecord
  2
AM_ISO09W050
 70
     0
  3
_____ . . _____ . . _____ . . ____ .. ____
 72
    65
 73
     6
 40
22.5
 49
12.0
 74
     0
 49
-1.5
 74
     0
 49
3.0
 74
     0
 49
-1.5
 74
     0
 49
3.0
 74
     0
 49
-1.5
 74
     0
  0
LTYPE
  5
1CF
330
5
100
AcDbSymbolTableRecord
100
AcDbLinetypeTableRecord
  2
Amconstr
 70
     0
  3
_______________________
 72
    65
 73
     2
 40
9999.0
 49
9999.0
 74
     0
 49
0.0
 74
     0
  0
LTYPE
  5
1D0
330
5
100
AcDbSymbolTableRecord
100
AcDbLinetypeTableRecord
  2
AM_ISO08W050x2
 70
     0
  3
__ . __ . __ . __ . __ . __
 72
    65
 73
     4
 40
9.0
 49
6.0
 74
     0
 49
-0.75
 74
     0
 49
1.5
 74
     0
 49
-0.75
 74
     0
  0
LTYPE
  5
1D1
330
5
100
AcDbSymbolTableRecord
100
AcDbLinetypeTableRecord
  2
AM_ISO02W050x2
 70
     0
  3
 _ _ _ _ _ _ _ _ _ _ _ _
 72
    65
 73
     2
 40
3.75
 49
3.0
 74
     0
 49
-0.75
 74
     0
  0
LTYPE
  5
1D4
330
5
100
AcDbSymbolTableRecord
100
AcDbLinetypeTableRecord
  2
Amzigzag
 70
     0
  3
/\/-/\/-/\/-/\/-/\/-/\/
 72
    65
 73
     2
 40
11.00009999999999
 49
0.0001
 74
     4
 75
   135
340
1D3
 46
0.04
 50
0.0
 44
0.0
 45
0.0
 49
-11.0
 74
     0
  0
LTYPE
  5
1D5
330
5
100
AcDbSymbolTableRecord
100
AcDbLinetypeTableRecord
  2
CENTER2
 70
     0
  3
Center (.5x) ___ _ ___ _ ___ _ ___ _ ___ _ ___
 72
    65
 73
     4
 40
1.125
 49
0.75
 74
     0
 49
-0.125
 74
     0
 49
0.125
 74
     0
 49
-0.125
 74
     0
  0
LTYPE
  5
1D6
330
5
100
AcDbSymbolTableRecord
100
AcDbLinetypeTableRecord
  2
HIDDEN2
 70
     0
  3
Hidden (.5x) _ _ _ _ _ _ _ _ _ _ _ _ _ _ _ _ _
 72
    65
 73
     2
 40
0.1875
 49
0.125
 74
     0
 49
-0.0625
 74
     0
  0
LTYPE
  5
1D7
330
5
100
AcDbSymbolTableRecord
100
AcDbLinetypeTableRecord
  2
Amzigzag2
 70
     0
  3
/\/-/\/-/\/-/\/-/\/-/\/
 72
    65
 73
     2
 40
0.4401
 49
0.0001
 74
     4
 75
   135
340
1D3
 46
0.0016
 50
0.0
 44
0.0
 45
0.0
 49
-0.4400000000000002
 74
     0
  0
ENDTAB
  0
TABLE
  2
LAYER
  5
2
330
0
100
AcDbSymbolTable
 70
     7
  0
LAYER
  5
10
330
2
100
AcDbSymbolTableRecord
100
AcDbLayerTableRecord
  2
0
 70
     0
 62
     7
  6
CONTINUOUS
370
    -3
390
F
  0
LAYER
  5
26
330
2
100
AcDbSymbolTableRecord
100
AcDbLayerTableRecord
  2
1
 70
     0
 62
     1
  6
ITTEN1
370
    -3
390
F
  0
LAYER
  5
27
330
2
100
AcDbSymbolTableRecord
100
AcDbLayerTableRecord
  2
2
 70
     0
 62
     2
  6
TENSEN2
370
    -3
390
F
  0
LAYER
  5
28
330
2
100
AcDbSymbolTableRecord
100
AcDbLayerTableRecord
  2
3
 70
     0
 62
     3
  6
CONTINUOUS
370
    -3
390
F
  0
LAYER
  5
2D9
330
2
100
AcDbSymbolTableRecord
100
AcDbLayerTableRecord
  2
4
 70
     0
 62
     6
  6
CONTINUOUS
370
    -3
390
F
  0
LAYER
  5
2DA
330
2
100
AcDbSymbolTableRecord
100
AcDbLayerTableRecord
  2
5
 70
     0
 62
     6
  6
TENSEN2
370
    -3
390
F
  0
LAYER
  5
463
330
2
100
AcDbSymbolTableRecord
100
AcDbLayerTableRecord
  2
Defpoints
 70
     0
 62
     7
  6
CONTINUOUS
290
     0
370
    -3
390
F
  0
ENDTAB
  0
TABLE
  2
STYLE
  5
3
330
0
100
AcDbSymbolTable
 70
     3
  0
STYLE
  5
11
330
3
100
AcDbSymbolTableRecord
100
AcDbTextStyleTableRecord
  2
STANDARD
 70
     0
 40
0.0
 41
1.0
 50
0.0
 71
     0
 42
0.2
  3
txt
  4

  0
STYLE
  5
22
330
3
100
AcDbSymbolTableRecord
100
AcDbTextStyleTableRecord
  2
BIGFONT
 70
     0
 40
16.0
 41
0.8
 50
0.0
 71
     0
 42
16.0
  3

  4
bigfont
  0
STYLE
  5
1D3
330
3
100
AcDbSymbolTableRecord
100
AcDbTextStyleTableRecord
  2

 70
     1
 40
0.0
 41
1.0
 50
0.0
 71
     0
 42
16.0
  3
ltypeshp.shx
  4

  0
ENDTAB
  0
TABLE
  2
VIEW
  5
6
330
0
100
AcDbSymbolTable
 70
     0
  0
ENDTAB
  0
TABLE
  2
UCS
  5
7
330
0
100
AcDbSymbolTable
 70
     0
  0
ENDTAB
  0
TABLE
  2
APPID
  5
9
330
0
100
AcDbSymbolTable
 70
    12
  0
APPID
  5
12
330
9
100
AcDbSymbolTableRecord
100
AcDbRegAppTableRecord
  2
ACAD
 70
     0
  0
APPID
  5
105
330
9
100
AcDbSymbolTableRecord
100
AcDbRegAppTableRecord
  2
GENIUS_GENDIM_13
 70
     0
  0
APPID
  5
106
330
9
100
AcDbSymbolTableRecord
100
AcDbRegAppTableRecord
  2
GENIUS_GENDTOL_13
 70
     0
  0
APPID
  5
107
330
9
100
AcDbSymbolTableRecord
100
AcDbRegAppTableRecord
  2
GENIUS_GE3DTOL_13
 70
     0
  0
APPID
  5
109
330
9
100
AcDbSymbolTableRecord
100
AcDbRegAppTableRecord
  2
MCAD_NO_VIS
 70
     0
  0
APPID
  5
10A
330
9
100
AcDbSymbolTableRecord
100
AcDbRegAppTableRecord
  2
ACAD_TEMP_GRAPHIC
 70
     0
  0
APPID
  5
13D
330
9
100
AcDbSymbolTableRecord
100
AcDbRegAppTableRecord
  2
AD_DRAW
 70
     0
  0
APPID
  5
140
330
9
100
AcDbSymbolTableRecord
100
AcDbRegAppTableRecord
  2
ACATTRIBSERVICES
 70
     0
  0
APPID
  5
18C
330
9
100
AcDbSymbolTableRecord
100
AcDbRegAppTableRecord
  2
ASURF_PCURVE_APPNAME
 70
     0
  0
APPID
  5
1BB
330
9
100
AcDbSymbolTableRecord
100
AcDbRegAppTableRecord
  2
DESIGNERASSEMBLIES
 70
     0
  0
APPID
  5
1C3
330
9
100
AcDbSymbolTableRecord
100
AcDbRegAppTableRecord
  2
ACADM_DIM_EDIT
 70
     0
  0
APPID
  5
1C4
330
9
100
AcDbSymbolTableRecord
100
AcDbRegAppTableRecord
  2
AMDT_DM_ADJ
 70
     0
  0
ENDTAB
  0
TABLE
  2
DIMSTYLE
  5
A
330
0
100
AcDbSymbolTable
 70
     1
100
AcDbDimStyleTable
 71
     1
340
29
  0
DIMSTYLE
105
29
330
A
100
AcDbSymbolTableRecord
100
AcDbDimStyleTableRecord
  2
STANDARD
 70
     0
279
     2
340
22
  0
ENDTAB
  0
TABLE
  2
BLOCK_RECORD
  5
1
330
0
100
AcDbSymbolTable
 70
     4
  0
BLOCK_RECORD
  5
1E
102
{ACAD_XDICTIONARY
360
20A
102
}
330
1
100
AcDbSymbolTableRecord
100
AcDbBlockTableRecord
  2
*Model_Space
340
21
  0
BLOCK_RECORD
  5
1A
330
1
100
AcDbSymbolTableRecord
100
AcDbBlockTableRecord
  2
*Paper_Space
340
1D
  0
BLOCK_RECORD
  5
1B2
330
1
100
AcDbSymbolTableRecord
100
AcDbBlockTableRecord
  2
*U0
340
0
  0
BLOCK_RECORD
  5
2BF
330
1
100
AcDbSymbolTableRecord
100
AcDbBlockTableRecord
  2
*U1
340
0
  0
BLOCK_RECORD
  5
464
330
1
100
AcDbSymbolTableRecord
100
AcDbBlockTableRecord
  2
*D3
340
0
  0
ENDTAB
  0
ENDSEC
  0
SECTION
  2
BLOCKS
  0
BLOCK
  5
1F
330
1E
100
AcDbEntity
  8
0
100
AcDbBlockBegin
  2
*Model_Space
 70
     0
 10
0.0
 20
0.0
 30
0.0
  3
*Model_Space
  1

  0
ENDBLK
  5
20
330
1E
100
AcDbEntity
  8
0
100
AcDbBlockEnd
  0
BLOCK
  5
1B
330
1A
100
AcDbEntity
 67
     1
  8
0
100
AcDbBlockBegin
  2
*Paper_Space
 70
     0
 10
0.0
 20
0.0
 30
0.0
  3
*Paper_Space
  1

  0
ENDBLK
  5
1C
330
1A
100
AcDbEntity
 67
     1
  8
0
100
AcDbBlockEnd
  0
BLOCK
  5
1B3
330
1B2
100
AcDbEntity
  8
0
100
AcDbBlockBegin
  2
*U0
 70
     1
 10
0.0
 20
0.0
 30
0.0
  3
*U0
  1

  0
ENDBLK
  5
1B4
330
1B2
100
AcDbEntity
  8
0
100
AcDbBlockEnd
  0
BLOCK
  5
2C0
330
2BF
100
AcDbEntity
  8
0
100
AcDbBlockBegin
  2
*U1
 70
     1
 10
0.0
 20
0.0
 30
0.0
  3
*U1
  1

  0
ENDBLK
  5
2C1
330
2BF
100
AcDbEntity
  8
0
100
AcDbBlockEnd
  0
BLOCK
  5
46F
330
464
100
AcDbEntity
  8
0
100
AcDbBlockBegin
  2
*D3
 70
     1
 10
0.0
 20
0.0
 30
0.0
  3
*D3
  1

  0
LINE
  5
465
330
464
100
AcDbEntity
  8
0
 62
     0
370
    -2
100
AcDbLine
 10
638.0624999999999
 20
448.0
 30
0.0
 11
758.5316397741552
 21
447.9999999999999
 31
0.0
  0
LINE
  5
466
330
464
100
AcDbEntity
  8
0
 62
     0
370
    -2
100
AcDbLine
 10
638.0624999999999
 20
269.9999999999998
 30
0.0
 11
758.5316397741552
 21
269.9999999999998
 31
0.0
  0
LINE
  5
467
330
464
100
AcDbEntity
  8
0
 62
     0
370
    -2
100
AcDbLine
 10
758.3516397741552
 20
447.8199999999999
 30
0.0
 11
758.3516397741552
 21
359.1799999999999
 31
0.0
  0
LINE
  5
468
330
464
100
AcDbEntity
  8
0
 62
     0
370
    -2
100
AcDbLine
 10
758.3516397741552
 20
270.1799999999998
 30
0.0
 11
758.3516397741552
 21
358.8199999999998
 31
0.0
  0
SOLID
  5
469
330
464
100
AcDbEntity
  8
0
 62
     0
100
AcDbTrace
 10
758.3216397741551
 20
447.8199999999999
 30
0.0
 11
758.3816397741551
 21
447.8199999999999
 31
0.0
 12
758.3516397741552
 22
447.9999999999999
 32
0.0
 13
758.3516397741552
 23
447.9999999999999
 33
0.0
  0
SOLID
  5
46A
330
464
100
AcDbEntity
  8
0
 62
     0
100
AcDbTrace
 10
758.3216397741551
 20
270.1799999999998
 30
0.0
 11
758.3816397741551
 21
270.1799999999998
 31
0.0
 12
758.3516397741552
 22
269.9999999999998
 32
0.0
 13
758.3516397741552
 23
269.9999999999998
 33
0.0
  0
MTEXT
  5
46B
330
464
100
AcDbEntity
  8
0
 62
     0
100
AcDbMText
 10
758.351639774155
 20
359.0
 30
0.0
 40
0.18
 41
0.0
 71
     5
 72
     1
  1
\A1;178.0000
 73
     1
 44
1.0
  0
POINT
  5
46C
330
464
100
AcDbEntity
  8
Defpoints
 62
     0
100
AcDbPoint
 10
637.9999999999999
 20
448.0
 30
0.0
  0
POINT
  5
46D
330
464
100
AcDbEntity
  8
Defpoints
 62
     0
100
AcDbPoint
 10
637.9999999999999
 20
269.9999999999998
 30
0.0
  0
POINT
  5
46E
330
464
100
AcDbEntity
  8
Defpoints
 62
     0
100
AcDbPoint
 10
758.3516397741552
 20
269.9999999999998
 30
0.0
  0
ENDBLK
  5
470
330
464
100
AcDbEntity
  8
0
100
AcDbBlockEnd
  0
ENDSEC
  0
SECTION
  2
ENTITIES
  0
LINE
  5
38
330
1E
100
AcDbEntity
  8
1
100
AcDbLine
 10
357.5
 20
519.5
 30
0.0
 11
357.5
 21
600.2174571857031
 31
0.0
  0
LINE
  5
3C
330
1E
100
AcDbEntity
  8
1
100
AcDbLine
 10
154.0
 20
466.9999999999998
 30
0.0
 11
154.0
 21
235.0
 31
0.0
  0
LINE
  5
3D
330
1E
100
AcDbEntity
  8
0
100
AcDbLine
 10
154.0
 20
442.9999999999998
 30
0.0
 11
165.0
 21
442.9999999999998
 31
0.0
  0
LINE
  5
3E
330
1E
100
AcDbEntity
  8
0
100
AcDbLine
 10
154.0
 20
442.9999999999998
 30
0.0
 11
142.9999999999997
 21
442.9999999999998
 31
0.0
  0
LINE
  5
3F
330
1E
100
AcDbEntity
  8
0
100
AcDbLine
 10
140.9999999999998
 20
441.0
 30
0.0
 11
140.9999999999998
 21
399.0
 31
0.0
  0
LINE
  5
40
330
1E
100
AcDbEntity
  8
0
100
AcDbLine
 10
142.9999999999997
 20
397.0
 30
0.0
 11
165.0
 21
397.0
 31
0.0
  0
ARC
  5
41
330
1E
100
AcDbEntity
  8
0
100
AcDbCircle
 10
164.9295567593476
 20
440.9295567593476
 30
0.0
 40
2.07164124860379
100
AcDbArc
 50
1.948637863118507
 51
88.05136213688154
  0
ARC
  5
42
330
1E
100
AcDbEntity
  8
0
100
AcDbCircle
 10
143.286736097078
 20
440.7132639029216
 30
0.0
 40
2.3046430454731
100
AcDbArc
 50
97.1470725678273
 51
172.8529274321719
  0
ARC
  5
43
330
1E
100
AcDbEntity
  8
0
100
AcDbCircle
 10
165.169150630568
 20
398.8308493694318
 30
0.0
 40
1.838646608070898
100
AcDbArc
 50
264.721475906502
 51
5.278524093499457
  0
ARC
  5
44
330
1E
100
AcDbEntity
  8
0
100
AcDbCircle
 10
143.3562636541344
 20
399.3562636541343
 30
0.0
 40
2.383044732910406
100
AcDbArc
 50
188.5979146602043
 51
261.4020853397955
  0
LINE
  5
45
330
1E
100
AcDbEntity
  8
1
100
AcDbLine
 10
115.9999999999999
 20
420.0
 30
0.0
 11
187.5
 21
420.0
 31
0.0
  0
LINE
  5
46
330
1E
100
AcDbEntity
  8
0
100
AcDbLine
 10
145.9999999999998
 20
440.0
 30
0.0
 11
162.0
 21
440.0
 31
0.0
  0
LINE
  5
47
330
1E
100
AcDbEntity
  8
0
100
AcDbLine
 10
163.4999999999998
 20
438.4999999999998
 30
0.0
 11
163.4999999999998
 21
401.4999999999998
 31
0.0
  0
LINE
  5
48
330
1E
100
AcDbEntity
  8
0
100
AcDbLine
 10
162.0
 20
400.0
 30
0.0
 11
156.8281867060083
 21
400.0
 31
0.0
  0
LINE
  5
49
330
1E
100
AcDbEntity
  8
0
100
AcDbLine
 10
144.5
 20
401.4999999999998
 30
0.0
 11
144.5
 21
438.4999999999998
 31
0.0
  0
ARC
  5
4A
330
1E
100
AcDbEntity
  8
0
100
AcDbCircle
 10
161.9143159509391
 20
438.4143159509391
 30
0.0
 40
1.587997373961715
100
AcDbArc
 50
3.093027579428828
 51
86.90697242057009
  0
ARC
  5
4B
330
1E
100
AcDbEntity
  8
0
100
AcDbCircle
 10
146.237414132536
 20
438.2625858674639
 30
0.0
 40
1.753560189518419
100
AcDbArc
 50
97.78115971444712
 51
172.2188402855528
  0
ARC
  5
4C
330
1E
100
AcDbEntity
  8
0
100
AcDbCircle
 10
162.0353882220488
 20
401.4646117779511
 30
0.0
 40
1.46503924397036
100
AcDbArc
 50
268.6158780375678
 51
1.384121962432265
  0
ARC
  5
4D
330
1E
100
AcDbEntity
  8
0
100
AcDbCircle
 10
146.087244280574
 20
401.587244280574
 30
0.0
 40
1.589640201651973
100
AcDbArc
 50
183.146147128759
 51
266.8538528712397
  0
LINE
  5
4E
330
1E
100
AcDbEntity
  8
0
100
AcDbLine
 10
166.0
 20
441.9999999999998
 30
0.0
 11
163.4999999999998
 21
440.0
 31
0.0
  0
LINE
  5
4F
330
1E
100
AcDbEntity
  8
0
100
AcDbLine
 10
141.9999999999997
 20
441.9999999999998
 30
0.0
 11
144.5
 21
440.0
 31
0.0
  0
LINE
  5
50
330
1E
100
AcDbEntity
  8
0
100
AcDbLine
 10
166.0
 20
398.0
 30
0.0
 11
163.4999999999998
 21
400.0
 31
0.0
  0
LINE
  5
51
330
1E
100
AcDbEntity
  8
0
100
AcDbLine
 10
141.9999999999997
 20
398.0
 30
0.0
 11
144.5
 21
400.0
 31
0.0
  0
ARC
  5
55
330
1E
100
AcDbEntity
  8
0
100
AcDbCircle
 10
154.0
 20
289.4999999999999
 30
0.0
 40
5.5
100
AcDbArc
 50
180.0
 51
0.0
  0
LINE
  5
56
330
1E
100
AcDbEntity
  8
0
100
AcDbLine
 10
159.4999999999997
 20
289.4999999999999
 30
0.0
 11
159.4999999999997
 21
380.5
 31
0.0
  0
LINE
  5
57
330
1E
100
AcDbEntity
  8
0
100
AcDbLine
 10
148.5
 20
289.4999999999999
 30
0.0
 11
148.5
 21
380.5
 31
0.0
  0
ARC
  5
58
330
1E
100
AcDbEntity
  8
0
100
AcDbCircle
 10
154.0
 20
380.5
 30
0.0
 40
5.5
100
AcDbArc
 50
0.0
 51
180.0
  0
LINE
  5
59
330
1E
100
AcDbEntity
  8
1
100
AcDbLine
 10
357.5
 20
463.4999999999998
 30
0.0
 11
357.5
 21
372.0
 31
0.0
  0
LINE
  5
5A
330
1E
100
AcDbEntity
  8
1
100
AcDbLine
 10
327.0
 20
420.0
 30
0.0
 11
425.4999999999998
 21
420.0
 31
0.0
  0
ARC
  5
5B
330
1E
100
AcDbEntity
  8
0
100
AcDbCircle
 10
357.5
 20
420.0
 30
0.0
 40
20.0
100
AcDbArc
 50
90.0
 51
270.0
  0
LINE
  5
5D
330
1E
100
AcDbEntity
  8
0
100
AcDbLine
 10
357.5
 20
400.0
 30
0.0
 11
398.4999999999998
 21
397.0
 31
0.0
  0
LINE
  5
5E
330
1E
100
AcDbEntity
  8
1
100
AcDbLine
 10
357.5
 20
523.5
 30
0.0
 11
357.5
 21
595.9999999999999
 31
0.0
  0
LINE
  5
5F
330
1E
100
AcDbEntity
  8
1
100
AcDbLine
 10
327.0
 20
560.0
 30
0.0
 11
425.9999999999998
 21
560.0
 31
0.0
  0
LINE
  5
64
330
1E
100
AcDbEntity
  8
0
100
AcDbLine
 10
337.5
 20
560.0
 30
0.0
 11
337.5
 21
566.5
 31
0.0
  0
LINE
  5
65
330
1E
100
AcDbEntity
  8
0
100
AcDbLine
 10
337.5
 20
560.0
 30
0.0
 11
337.5
 21
553.5
 31
0.0
  0
LINE
  5
68
330
1E
100
AcDbEntity
  8
0
100
AcDbLine
 10
398.4999999999998
 20
573.0
 30
0.0
 11
373.4999999999998
 21
571.5042735042733
 31
0.0
  0
LINE
  5
69
330
1E
100
AcDbEntity
  8
0
100
AcDbLine
 10
398.4999999999998
 20
546.9999999999998
 30
0.0
 11
373.4999999999998
 21
548.4957264957263
 31
0.0
  0
ARC
  5
6A
330
1E
100
AcDbEntity
  8
0
100
AcDbCircle
 10
340.8799080098928
 20
566.2250766584227
 30
0.0
 40
3.391070774708413
100
AcDbArc
 50
125.084724794058
 51
175.3497714598899
  0
ARC
  5
6B
330
1E
100
AcDbEntity
  8
0
100
AcDbCircle
 10
341.0819564940735
 20
553.9432970783945
 30
0.0
 40
3.609283117898712
100
AcDbArc
 50
187.0549596883718
 51
234.6348202011466
  0
LINE
  5
6C
330
1E
100
AcDbEntity
  8
2
100
AcDbLine
 10
341.5
 20
569.5
 30
0.0
 11
341.5
 21
569.0
 31
0.0
  0
LINE
  5
6D
330
1E
100
AcDbEntity
  8
2
100
AcDbLine
 10
341.5
 20
569.0
 30
0.0
 11
373.4999999999998
 21
569.0
 31
0.0
  0
LINE
  5
6E
330
1E
100
AcDbEntity
  8
2
100
AcDbLine
 10
373.4999999999998
 20
569.0
 30
0.0
 11
373.4999999999998
 21
571.4999999999998
 31
0.0
  0
LINE
  5
6F
330
1E
100
AcDbEntity
  8
2
100
AcDbLine
 10
373.4999999999998
 20
548.5
 30
0.0
 11
373.4999999999998
 21
550.9999999999998
 31
0.0
  0
LINE
  5
70
330
1E
100
AcDbEntity
  8
2
100
AcDbLine
 10
373.4999999999998
 20
550.9999999999998
 30
0.0
 11
341.5
 21
550.9999999999998
 31
0.0
  0
LINE
  5
71
330
1E
100
AcDbEntity
  8
2
100
AcDbLine
 10
341.5
 20
550.9999999999998
 30
0.0
 11
341.5
 21
550.4999999999999
 31
0.0
  0
LINE
  5
72
330
1E
100
AcDbEntity
  8
2
100
AcDbLine
 10
367.5
 20
569.0
 30
0.0
 11
367.5
 21
550.9999999999998
 31
0.0
  0
LINE
  5
73
330
1E
100
AcDbEntity
  8
2
100
AcDbLine
 10
365.5
 20
569.0
 30
0.0
 11
365.5
 21
550.9999999999998
 31
0.0
  0
LINE
  5
74
330
1E
100
AcDbEntity
  8
2
100
AcDbLine
 10
349.5
 20
569.0
 30
0.0
 11
349.5
 21
550.9999999999998
 31
0.0
  0
LINE
  5
75
330
1E
100
AcDbEntity
  8
2
100
AcDbLine
 10
347.5
 20
569.0
 30
0.0
 11
347.5
 21
550.9999999999998
 31
0.0
  0
CIRCLE
  5
76
330
1E
100
AcDbEntity
  8
2
100
AcDbCircle
 10
357.5
 20
560.0
 30
0.0
 40
3.0
  0
CIRCLE
  5
77
330
1E
100
AcDbEntity
  8
2
100
AcDbCircle
 10
357.5
 20
560.0
 30
0.0
 40
2.5
  0
LINE
  5
79
330
1E
100
AcDbEntity
  8
2
100
AcDbLine
 10
163.4999999999998
 20
436.0
 30
0.0
 11
163.0
 21
436.0
 31
0.0
  0
LINE
  5
7A
330
1E
100
AcDbEntity
  8
2
100
AcDbLine
 10
163.0
 20
436.0
 30
0.0
 11
163.0
 21
404.0
 31
0.0
  0
LINE
  5
7B
330
1E
100
AcDbEntity
  8
2
100
AcDbLine
 10
144.5
 20
436.0
 30
0.0
 11
145.0
 21
436.0
 31
0.0
  0
LINE
  5
7C
330
1E
100
AcDbEntity
  8
2
100
AcDbLine
 10
145.0
 20
436.0
 30
0.0
 11
145.0
 21
404.0
 31
0.0
  0
LINE
  5
7D
330
1E
100
AcDbEntity
  8
2
100
AcDbLine
 10
163.4999999999998
 20
404.0
 30
0.0
 11
163.0
 21
404.0
 31
0.0
  0
LINE
  5
7E
330
1E
100
AcDbEntity
  8
2
100
AcDbLine
 10
145.0
 20
404.0
 30
0.0
 11
144.5
 21
404.0
 31
0.0
  0
LINE
  5
7F
330
1E
100
AcDbEntity
  8
2
100
AcDbLine
 10
163.0
 20
429.9999999999998
 30
0.0
 11
145.0
 21
429.9999999999998
 31
0.0
  0
LINE
  5
80
330
1E
100
AcDbEntity
  8
2
100
AcDbLine
 10
163.0
 20
428.0
 30
0.0
 11
145.0
 21
428.0
 31
0.0
  0
LINE
  5
81
330
1E
100
AcDbEntity
  8
2
100
AcDbLine
 10
163.0
 20
412.0
 30
0.0
 11
145.0
 21
412.0
 31
0.0
  0
LINE
  5
82
330
1E
100
AcDbEntity
  8
2
100
AcDbLine
 10
163.0
 20
409.9999999999998
 30
0.0
 11
145.0
 21
409.9999999999998
 31
0.0
  0
LINE
  5
89
330
1E
100
AcDbEntity
  8
1
100
AcDbLine
 10
194.5
 20
420.0
 30
0.0
 11
111.1499117345117
 21
420.0
 31
0.0
  0
LINE
  5
8E
330
1E
100
AcDbEntity
  8
0
100
AcDbLine
 10
398.4999999999998
 20
442.9999999999998
 30
0.0
 11
357.5
 21
440.0
 31
0.0
  0
LINE
  5
8F
330
1E
100
AcDbEntity
  8
2
100
AcDbLine
 10
360.4999999999998
 20
400.0
 30
0.0
 11
360.4999999999998
 21
410.5
 31
0.0
  0
LINE
  5
90
330
1E
100
AcDbEntity
  8
2
100
AcDbLine
 10
360.0
 20
400.0
 30
0.0
 11
360.0
 21
410.5
 31
0.0
  0
LINE
  5
91
330
1E
100
AcDbEntity
  8
2
100
AcDbLine
 10
355.0
 20
400.9999999999998
 30
0.0
 11
355.0
 21
410.5
 31
0.0
  0
LINE
  5
92
330
1E
100
AcDbEntity
  8
2
100
AcDbLine
 10
354.4999999999998
 20
400.9999999999998
 30
0.0
 11
354.4999999999998
 21
410.5
 31
0.0
  0
LINE
  5
93
330
1E
100
AcDbEntity
  8
2
100
AcDbLine
 10
355.0
 20
409.9999999999998
 30
0.0
 11
360.0
 21
409.9999999999998
 31
0.0
  0
LINE
  5
94
330
1E
100
AcDbEntity
  8
2
100
AcDbLine
 10
360.0
 20
409.9999999999998
 30
0.0
 11
360.4999999999998
 21
409.4999999999997
 31
0.0
  0
LINE
  5
95
330
1E
100
AcDbEntity
  8
2
100
AcDbLine
 10
360.4999999999998
 20
409.4999999999997
 30
0.0
 11
354.4999999999998
 21
409.4999999999997
 31
0.0
  0
LINE
  5
96
330
1E
100
AcDbEntity
  8
2
100
AcDbLine
 10
354.4999999999998
 20
409.4999999999997
 30
0.0
 11
355.0
 21
409.9999999999998
 31
0.0
  0
LINE
  5
97
330
1E
100
AcDbEntity
  8
2
100
AcDbLine
 10
354.4999999999998
 20
404.9999999999998
 30
0.0
 11
356.0
 21
404.9999999999998
 31
0.0
  0
LINE
  5
98
330
1E
100
AcDbEntity
  8
2
100
AcDbLine
 10
356.0
 20
404.9999999999998
 30
0.0
 11
356.0
 21
406.5
 31
0.0
  0
LINE
  5
99
330
1E
100
AcDbEntity
  8
2
100
AcDbLine
 10
356.0
 20
406.5
 30
0.0
 11
358.9999999999998
 21
406.5
 31
0.0
  0
LINE
  5
9A
330
1E
100
AcDbEntity
  8
2
100
AcDbLine
 10
358.9999999999998
 20
406.5
 30
0.0
 11
358.9999999999998
 21
404.9999999999998
 31
0.0
  0
LINE
  5
9B
330
1E
100
AcDbEntity
  8
2
100
AcDbLine
 10
358.9999999999998
 20
404.9999999999998
 30
0.0
 11
360.4999999999998
 21
404.9999999999998
 31
0.0
  0
LINE
  5
9C
330
1E
100
AcDbEntity
  8
2
100
AcDbLine
 10
360.4999999999998
 20
404.9999999999998
 30
0.0
 11
360.0
 21
404.4999999999998
 31
0.0
  0
LINE
  5
9D
330
1E
100
AcDbEntity
  8
2
100
AcDbLine
 10
360.0
 20
404.4999999999998
 30
0.0
 11
358.9999999999998
 21
404.4999999999998
 31
0.0
  0
LINE
  5
9E
330
1E
100
AcDbEntity
  8
2
100
AcDbLine
 10
358.9999999999998
 20
404.4999999999998
 30
0.0
 11
358.9999999999998
 21
404.9999999999998
 31
0.0
  0
LINE
  5
9F
330
1E
100
AcDbEntity
  8
2
100
AcDbLine
 10
356.0
 20
404.9999999999998
 30
0.0
 11
356.0
 21
404.4999999999998
 31
0.0
  0
LINE
  5
A0
330
1E
100
AcDbEntity
  8
2
100
AcDbLine
 10
356.0
 20
404.4999999999998
 30
0.0
 11
355.0
 21
404.4999999999998
 31
0.0
  0
LINE
  5
A1
330
1E
100
AcDbEntity
  8
2
100
AcDbLine
 10
355.0
 20
404.4999999999998
 30
0.0
 11
354.4999999999998
 21
404.9999999999998
 31
0.0
  0
LINE
  5
A3
330
1E
100
AcDbEntity
  8
2
100
AcDbLine
 10
398.4999999999998
 20
385.9999999999998
 30
0.0
 11
415.5
 21
385.9999999999998
 31
0.0
  0
POLYLINE
  5
A5
330
1E
100
AcDbEntity
  8
0
100
AcDb2dPolyline
 66
     1
 10
0.0
 20
0.0
 30
0.0
 70
     1
  0
VERTEX
  5
A6
330
A5
100
AcDbEntity
  8
0
100
AcDbVertex
100
AcDb2dVertex
 10
154.0
 20
400.9999999999998
 30
0.0
 42
0.0258021259218798
  0
VERTEX
  5
A7
330
A5
100
AcDbEntity
  8
0
100
AcDbVertex
100
AcDb2dVertex
 10
152.765208887248
 20
400.9362370782969
 30
0.0
 42
0.0354631188121199
  0
VERTEX
  5
A8
330
A5
100
AcDbEntity
  8
0
100
AcDbVertex
100
AcDb2dVertex
 10
151.8786796564403
 20
400.7803300858896
 30
0.0
 42
0.0746505890983398
 70
     2
 50
194.0362434679265
  0
VERTEX
  5
A9
330
A5
100
AcDbEntity
  8
0
100
AcDbVertex
100
AcDb2dVertex
 10
151.1217152370078
 20
400.465627786424
 30
0.0
 42
0.2627498222191739
 50
194.0362434679265
  0
VERTEX
  5
AA
330
A5
100
AcDbEntity
  8
0
100
AcDbVertex
100
AcDb2dVertex
 10
150.9999999999998
 20
400.25
 30
0.0
 42
0.2627498222192342
  0
VERTEX
  5
AB
330
A5
100
AcDbEntity
  8
0
100
AcDbVertex
100
AcDb2dVertex
 10
151.1217152370078
 20
400.034372213576
 30
0.0
 42
0.074650589098372
  0
VERTEX
  5
AC
330
A5
100
AcDbEntity
  8
0
100
AcDbVertex
100
AcDb2dVertex
 10
151.8786796564403
 20
399.71966991411
 30
0.0
 42
0.0354631188121144
 70
     2
 50
345.9637565320732
  0
VERTEX
  5
AD
330
A5
100
AcDbEntity
  8
0
100
AcDbVertex
100
AcDb2dVertex
 10
152.765208887248
 20
399.563762921703
 30
0.0
 42
0.0258021259218787
 50
345.9637565320732
  0
VERTEX
  5
AE
330
A5
100
AcDbEntity
  8
0
100
AcDbVertex
100
AcDb2dVertex
 10
154.0
 20
399.5
 30
0.0
 42
0.0258021259218793
  0
VERTEX
  5
AF
330
A5
100
AcDbEntity
  8
0
100
AcDbVertex
100
AcDb2dVertex
 10
155.2347911127519
 20
399.563762921703
 30
0.0
 42
0.0354631188121171
  0
VERTEX
  5
B0
330
A5
100
AcDbEntity
  8
0
100
AcDbVertex
100
AcDb2dVertex
 10
156.1213203435596
 20
399.71966991411
 30
0.0
 42
0.0746505890983465
 70
     2
 50
14.03624346792648
  0
VERTEX
  5
B1
330
A5
100
AcDbEntity
  8
0
100
AcDbVertex
100
AcDb2dVertex
 10
156.8782847629918
 20
400.034372213576
 30
0.0
 42
0.2627498222192273
 50
14.03624346792648
  0
VERTEX
  5
B2
330
A5
100
AcDbEntity
  8
0
100
AcDbVertex
100
AcDb2dVertex
 10
157.0
 20
400.25
 30
0.0
 42
0.2627498222192273
  0
VERTEX
  5
B3
330
A5
100
AcDbEntity
  8
0
100
AcDbVertex
100
AcDb2dVertex
 10
156.8782847629918
 20
400.465627786424
 30
0.0
 42
0.0746505890983458
  0
VERTEX
  5
B4
330
A5
100
AcDbEntity
  8
0
100
AcDbVertex
100
AcDb2dVertex
 10
156.1213203435596
 20
400.7803300858896
 30
0.0
 42
0.0354631188120867
 70
     2
 50
165.9637565320734
  0
VERTEX
  5
B5
330
A5
100
AcDbEntity
  8
0
100
AcDbVertex
100
AcDb2dVertex
 10
155.2347911127519
 20
400.9362370782969
 30
0.0
 42
0.0258021259218563
 50
165.9637565320734
  0
SEQEND
  5
B6
330
A5
100
AcDbEntity
  8
0
  0
LINE
  5
B7
330
1E
100
AcDbEntity
  8
2
100
AcDbLine
 10
157.0
 20
400.4999999999998
 30
0.0
 11
157.0
 21
409.9999999999998
 31
0.0
  0
LINE
  5
B8
330
1E
100
AcDbEntity
  8
2
100
AcDbLine
 10
156.4999999999997
 20
400.4999999999998
 30
0.0
 11
156.4999999999997
 21
409.9999999999998
 31
0.0
  0
LINE
  5
B9
330
1E
100
AcDbEntity
  8
2
100
AcDbLine
 10
150.9999999999998
 20
400.4999999999998
 30
0.0
 11
150.9999999999998
 21
409.9999999999998
 31
0.0
  0
LINE
  5
BA
330
1E
100
AcDbEntity
  8
2
100
AcDbLine
 10
151.5
 20
400.4999999999998
 30
0.0
 11
151.5
 21
409.9999999999998
 31
0.0
  0
LINE
  5
BB
330
1E
100
AcDbEntity
  8
2
100
AcDbLine
 10
156.4999999999997
 20
409.9999999999998
 30
0.0
 11
157.0
 21
409.4999999999997
 31
0.0
  0
LINE
  5
BC
330
1E
100
AcDbEntity
  8
2
100
AcDbLine
 10
157.0
 20
409.4999999999997
 30
0.0
 11
150.9999999999998
 21
409.4999999999997
 31
0.0
  0
LINE
  5
BD
330
1E
100
AcDbEntity
  8
2
100
AcDbLine
 10
150.9999999999998
 20
409.4999999999997
 30
0.0
 11
151.5
 21
409.9999999999998
 31
0.0
  0
LINE
  5
BE
330
1E
100
AcDbEntity
  8
2
100
AcDbLine
 10
150.9999999999998
 20
404.4999999999998
 30
0.0
 11
152.5
 21
404.4999999999998
 31
0.0
  0
LINE
  5
BF
330
1E
100
AcDbEntity
  8
2
100
AcDbLine
 10
152.5
 20
404.4999999999998
 30
0.0
 11
152.5
 21
405.4999999999997
 31
0.0
  0
LINE
  5
C0
330
1E
100
AcDbEntity
  8
2
100
AcDbLine
 10
152.5
 20
405.4999999999997
 30
0.0
 11
155.4999999999997
 21
405.4999999999997
 31
0.0
  0
LINE
  5
C1
330
1E
100
AcDbEntity
  8
2
100
AcDbLine
 10
155.4999999999997
 20
405.4999999999997
 30
0.0
 11
155.4999999999997
 21
404.4999999999998
 31
0.0
  0
LINE
  5
C2
330
1E
100
AcDbEntity
  8
2
100
AcDbLine
 10
155.4999999999997
 20
404.4999999999998
 30
0.0
 11
157.0
 21
404.4999999999998
 31
0.0
  0
LINE
  5
C3
330
1E
100
AcDbEntity
  8
2
100
AcDbLine
 10
157.0
 20
404.4999999999998
 30
0.0
 11
156.4999999999997
 21
404.0
 31
0.0
  0
LINE
  5
C4
330
1E
100
AcDbEntity
  8
2
100
AcDbLine
 10
156.4999999999997
 20
404.0
 30
0.0
 11
155.4999999999997
 21
404.0
 31
0.0
  0
LINE
  5
C5
330
1E
100
AcDbEntity
  8
2
100
AcDbLine
 10
155.4999999999997
 20
404.0
 30
0.0
 11
155.4999999999997
 21
404.4999999999998
 31
0.0
  0
LINE
  5
C6
330
1E
100
AcDbEntity
  8
2
100
AcDbLine
 10
152.5
 20
404.4999999999998
 30
0.0
 11
152.5
 21
404.0
 31
0.0
  0
LINE
  5
C7
330
1E
100
AcDbEntity
  8
2
100
AcDbLine
 10
152.5
 20
404.0
 30
0.0
 11
151.5
 21
404.0
 31
0.0
  0
LINE
  5
C8
330
1E
100
AcDbEntity
  8
2
100
AcDbLine
 10
151.5
 20
404.0
 30
0.0
 11
150.9999999999998
 21
404.4999999999998
 31
0.0
  0
LINE
  5
C9
330
1E
100
AcDbEntity
  8
0
100
AcDbLine
 10
151.1897359103399
 20
400.0
 30
0.0
 11
145.9999999999998
 21
400.0
 31
0.0
  0
LINE
  5
CC
330
1E
100
AcDbEntity
  8
1
100
AcDbLine
 10
637.9999999999999
 20
466.9999999999998
 30
0.0
 11
637.9999999999999
 21
235.0
 31
0.0
  0
ARC
  5
CD
330
1E
100
AcDbEntity
  8
0
100
AcDbCircle
 10
637.9999999999999
 20
380.5
 30
0.0
 40
5.5
100
AcDbArc
 50
0.0
 51
180.0
  0
ARC
  5
CE
330
1E
100
AcDbEntity
  8
0
100
AcDbCircle
 10
637.9999999999999
 20
289.4999999999999
 30
0.0
 40
5.5
100
AcDbArc
 50
180.0
 51
0.0
  0
LINE
  5
D1
330
1E
100
AcDbEntity
  8
0
100
AcDbLine
 10
643.5
 20
289.4999999999999
 30
0.0
 11
643.5
 21
380.5
 31
0.0
  0
LINE
  5
D3
330
1E
100
AcDbEntity
  8
0
100
AcDbLine
 10
632.5
 20
289.4999999999999
 30
0.0
 11
632.5
 21
380.5
 31
0.0
  0
LINE
  5
D4
330
1E
100
AcDbEntity
  8
1
100
AcDbLine
 10
597.5
 20
420.0
 30
0.0
 11
684.5061750573891
 21
420.0
 31
0.0
  0
LINE
  5
D5
330
1E
100
AcDbEntity
  8
1
100
AcDbLine
 10
675.9999999999998
 20
420.0
 30
0.0
 11
604.4999999999999
 21
420.0
 31
0.0
  0
LINE
  5
D6
330
1E
100
AcDbEntity
  8
1
100
AcDbLine
 10
357.5
 20
182.5
 30
0.0
 11
357.5
 21
97.46059498047451
 31
0.0
  0
LINE
  5
D7
330
1E
100
AcDbEntity
  8
1
100
AcDbLine
 10
327.0
 20
141.9999999999997
 30
0.0
 11
425.9999999999998
 21
141.9999999999997
 31
0.0
  0
LINE
  5
DA
330
1E
100
AcDbEntity
  8
1
100
AcDbLine
 10
357.5
 20
178.5
 30
0.0
 11
357.5
 21
106.0
 31
0.0
  0
LINE
  5
DB
330
1E
100
AcDbEntity
  8
2
100
AcDbLine
 10
373.4999999999998
 20
150.9999999999998
 30
0.0
 11
341.5
 21
150.9999999999998
 31
0.0
  0
LINE
  5
DC
330
1E
100
AcDbEntity
  8
2
100
AcDbLine
 10
341.5
 20
133.0
 30
0.0
 11
373.4999999999998
 21
133.0
 31
0.0
  0
LINE
  5
E3
330
1E
100
AcDbEntity
  8
2
100
AcDbLine
 10
347.5
 20
133.0
 30
0.0
 11
347.5
 21
150.9999999999998
 31
0.0
  0
LINE
  5
E4
330
1E
100
AcDbEntity
  8
2
100
AcDbLine
 10
349.5
 20
133.0
 30
0.0
 11
349.5
 21
150.9999999999998
 31
0.0
  0
LINE
  5
E5
330
1E
100
AcDbEntity
  8
2
100
AcDbLine
 10
373.4999999999998
 20
153.5
 30
0.0
 11
373.4999999999998
 21
150.9999999999998
 31
0.0
  0
LINE
  5
E6
330
1E
100
AcDbEntity
  8
2
100
AcDbLine
 10
365.5
 20
133.0
 30
0.0
 11
365.5
 21
150.9999999999998
 31
0.0
  0
LINE
  5
E7
330
1E
100
AcDbEntity
  8
2
100
AcDbLine
 10
367.5
 20
133.0
 30
0.0
 11
367.5
 21
150.9999999999998
 31
0.0
  0
LINE
  5
E8
330
1E
100
AcDbEntity
  8
2
100
AcDbLine
 10
373.4999999999998
 20
133.0
 30
0.0
 11
373.4999999999998
 21
130.4999999999997
 31
0.0
  0
CIRCLE
  5
EF
330
1E
100
AcDbEntity
  8
0
100
AcDbCircle
 10
357.5
 20
141.9999999999997
 30
0.0
 40
3.0
  0
CIRCLE
  5
F0
330
1E
100
AcDbEntity
  8
0
100
AcDbCircle
 10
357.5
 20
141.9999999999997
 30
0.0
 40
2.5
  0
TEXT
  5
F8
330
1E
100
AcDbEntity
  8
0
100
AcDbText
 10
675.5809203829237
 20
5.011795428235243
 30
0.0
 40
16.0
  1
MSP00100
 41
0.8
  7
BIGFONT
100
AcDbText
  0
TEXT
  5
F9
330
1E
100
AcDbEntity
  8
0
100
AcDbText
 10
639.7600868118443
 20
29.35480957198841
 30
0.0
 40
16.0
  1
AL-1
 41
0.8
  7
BIGFONT
100
AcDbText
  0
CIRCLE
  5
FA
330
1E
100
AcDbEntity
  8
0
100
AcDbCircle
 10
357.5
 20
420.0
 30
0.0
 40
10.01167602372559
  0
CIRCLE
  5
FB
330
1E
100
AcDbEntity
  8
0
100
AcDbCircle
 10
357.5
 20
420.0
 30
0.0
 40
7.900600110088587
  0
LINE
  5
FC
330
1E
100
AcDbEntity
  8
0
100
AcDbLine
 10
166.9343779877235
 20
441.0
 30
0.0
 11
166.9343779877235
 21
399.0
 31
0.0
  0
LINE
  5
1E0
330
1E
100
AcDbEntity
  8
0
100
AcDbLine
 10
373.4999999999998
 20
571.4999999999998
 30
0.0
 11
373.4999999999998
 21
569.0
 31
0.0
  0
LINE
  5
1E1
330
1E
100
AcDbEntity
  8
0
100
AcDbLine
 10
373.4999999999998
 20
569.0
 30
0.0
 11
338.9307642369886
 21
569.0
 31
0.0
  0
LINE
  5
1E2
330
1E
100
AcDbEntity
  8
0
100
AcDbLine
 10
373.4999999999998
 20
548.5
 30
0.0
 11
373.4999999999998
 21
550.9999999999998
 31
0.0
  0
LINE
  5
1E3
330
1E
100
AcDbEntity
  8
0
100
AcDbLine
 10
373.4999999999998
 20
550.9999999999998
 30
0.0
 11
338.9929550739058
 21
550.9999999999998
 31
0.0
  0
LINE
  5
1E4
330
1E
100
AcDbEntity
  8
0
100
AcDbLine
 10
373.4999999999998
 20
571.4999999999998
 30
0.0
 11
373.4999999999998
 21
571.5042735042733
 31
0.0
  0
LINE
  5
1E5
330
1E
100
AcDbEntity
  8
0
100
AcDbLine
 10
373.4999999999998
 20
548.5
 30
0.0
 11
373.4999999999998
 21
548.4957264957263
 31
0.0
  0
LINE
  5
1E6
330
1E
100
AcDbEntity
  8
0
100
AcDbLine
 10
373.4999999999998
 20
441.170731707317
 30
0.0
 11
373.4999999999998
 21
398.8292682926828
 31
0.0
  0
ARC
  5
1EC
330
1E
100
AcDbEntity
  8
0
100
AcDbCircle
 10
340.8799080098928
 20
148.2250766584225
 30
0.0
 40
3.391070774708413
100
AcDbArc
 50
125.084724794058
 51
175.3497714598899
  0
LINE
  5
1ED
330
1E
100
AcDbEntity
  8
2
100
AcDbLine
 10
347.5
 20
150.9999999999998
 30
0.0
 11
347.5
 21
132.9999999999996
 31
0.0
  0
LINE
  5
1EE
330
1E
100
AcDbEntity
  8
2
100
AcDbLine
 10
349.5
 20
150.9999999999998
 30
0.0
 11
349.5
 21
132.9999999999996
 31
0.0
  0
LINE
  5
1EF
330
1E
100
AcDbEntity
  8
2
100
AcDbLine
 10
365.5
 20
150.9999999999998
 30
0.0
 11
365.5
 21
132.9999999999996
 31
0.0
  0
LINE
  5
1F0
330
1E
100
AcDbEntity
  8
2
100
AcDbLine
 10
367.5
 20
150.9999999999998
 30
0.0
 11
367.5
 21
132.9999999999996
 31
0.0
  0
ARC
  5
1F4
330
1E
100
AcDbEntity
  8
0
100
AcDbCircle
 10
341.0819564940735
 20
135.9432970783942
 30
0.0
 40
3.609283117898712
100
AcDbArc
 50
187.0549596883718
 51
234.6348202011466
  0
LINE
  5
1F5
330
1E
100
AcDbEntity
  8
0
100
AcDbLine
 10
337.5
 20
141.9999999999997
 30
0.0
 11
337.5
 21
135.4999999999997
 31
0.0
  0
LINE
  5
1F6
330
1E
100
AcDbEntity
  8
0
100
AcDbLine
 10
337.5
 20
141.9999999999997
 30
0.0
 11
337.5
 21
148.4999999999998
 31
0.0
  0
LINE
  5
1F7
330
1E
100
AcDbEntity
  8
0
100
AcDbLine
 10
373.4999999999998
 20
132.9999999999996
 30
0.0
 11
338.9929550739058
 21
132.9999999999996
 31
0.0
  0
LINE
  5
1F8
330
1E
100
AcDbEntity
  8
2
100
AcDbLine
 10
373.4999999999998
 20
132.9999999999996
 30
0.0
 11
341.5
 21
132.9999999999996
 31
0.0
  0
LINE
  5
1F9
330
1E
100
AcDbEntity
  8
2
100
AcDbLine
 10
341.5
 20
132.9999999999996
 30
0.0
 11
341.5
 21
132.4999999999996
 31
0.0
  0
LINE
  5
1FD
330
1E
100
AcDbEntity
  8
0
100
AcDbLine
 10
398.4999999999998
 20
128.9999999999996
 30
0.0
 11
373.4999999999998
 21
130.4957264957261
 31
0.0
  0
LINE
  5
1FE
330
1E
100
AcDbEntity
  8
0
100
AcDbLine
 10
373.4999999999998
 20
130.4999999999997
 30
0.0
 11
373.4999999999998
 21
130.4957264957261
 31
0.0
  0
LINE
  5
1FF
330
1E
100
AcDbEntity
  8
0
100
AcDbLine
 10
373.4999999999998
 20
130.4999999999997
 30
0.0
 11
373.4999999999998
 21
132.9999999999996
 31
0.0
  0
LINE
  5
200
330
1E
100
AcDbEntity
  8
2
100
AcDbLine
 10
373.4999999999998
 20
130.4999999999997
 30
0.0
 11
373.4999999999998
 21
132.9999999999996
 31
0.0
  0
LINE
  5
201
330
1E
100
AcDbEntity
  8
0
100
AcDbLine
 10
373.4999999999998
 20
150.9999999999998
 30
0.0
 11
338.9307642369886
 21
150.9999999999998
 31
0.0
  0
LINE
  5
202
330
1E
100
AcDbEntity
  8
2
100
AcDbLine
 10
341.5
 20
150.9999999999998
 30
0.0
 11
373.4999999999998
 21
150.9999999999998
 31
0.0
  0
LINE
  5
203
330
1E
100
AcDbEntity
  8
2
100
AcDbLine
 10
341.5
 20
151.4999999999998
 30
0.0
 11
341.5
 21
150.9999999999998
 31
0.0
  0
LINE
  5
204
330
1E
100
AcDbEntity
  8
0
100
AcDbLine
 10
398.4999999999998
 20
154.9999999999998
 30
0.0
 11
373.4999999999998
 21
153.5042735042733
 31
0.0
  0
LINE
  5
205
330
1E
100
AcDbEntity
  8
0
100
AcDbLine
 10
373.4999999999998
 20
153.4999999999996
 30
0.0
 11
373.4999999999998
 21
153.5042735042733
 31
0.0
  0
LINE
  5
206
330
1E
100
AcDbEntity
  8
0
100
AcDbLine
 10
373.4999999999998
 20
153.4999999999996
 30
0.0
 11
373.4999999999998
 21
150.9999999999998
 31
0.0
  0
LINE
  5
207
330
1E
100
AcDbEntity
  8
2
100
AcDbLine
 10
373.4999999999998
 20
150.9999999999998
 30
0.0
 11
373.4999999999998
 21
153.4999999999996
 31
0.0
  0
ARC
  5
471
330
1E
100
AcDbEntity
  8
0
100
AcDbCircle
 10
637.9999999999999
 20
430.0
 30
0.0
 40
20.0
100
AcDbArc
 50
0.0
 51
180.0
  0
ARC
  5
472
330
1E
100
AcDbEntity
  8
0
100
AcDbCircle
 10
637.9999999999999
 20
289.9999999999998
 30
0.0
 40
20.0
100
AcDbArc
 50
180.0
 51
0.4092538279263766
  0
LINE
  5
473
330
1E
100
AcDbEntity
  8
0
100
AcDbLine
 10
657.9999999999999
 20
289.9999999999998
 30
0.0
 11
657.9999999999999
 21
430.0
 31
0.0
  0
LINE
  5
474
330
1E
100
AcDbEntity
  8
0
100
AcDbLine
 10
617.9999999999997
 20
289.9999999999998
 30
0.0
 11
617.9999999999997
 21
430.0
 31
0.0
  0
LINE
  5
475
330
1E
100
AcDbEntity
  8
0
100
AcDbLine
 10
174.0
 20
289.9999999999998
 30
0.0
 11
174.0
 21
430.0
 31
0.0
  0
ARC
  5
476
330
1E
100
AcDbEntity
  8
0
100
AcDbCircle
 10
154.0
 20
430.0
 30
0.0
 40
20.0
100
AcDbArc
 50
0.0
 51
180.0
  0
LINE
  5
477
330
1E
100
AcDbEntity
  8
0
100
AcDbLine
 10
133.9999999999998
 20
289.9999999999998
 30
0.0
 11
133.9999999999998
 21
430.0
 31
0.0
  0
ARC
  5
478
330
1E
100
AcDbEntity
  8
0
100
AcDbCircle
 10
154.0
 20
289.9999999999998
 30
0.0
 40
20.0
100
AcDbArc
 50
180.0
 51
0.4092538279263766
  0
LINE
  5
479
330
1E
100
AcDbEntity
  8
0
100
AcDbLine
 10
415.5
 20
560.0
 30
0.0
 11
415.5
 21
540.0
 31
0.0
  0
LINE
  5
47A
330
1E
100
AcDbEntity
  8
0
100
AcDbLine
 10
398.4999999999999
 20
560.0
 30
0.0
 11
398.4999999999999
 21
540.5
 31
0.0
  0
LINE
  5
47B
330
1E
100
AcDbEntity
  8
0
100
AcDbLine
 10
398.4999999999999
 20
540.5
 30
0.0
 11
415.5
 21
540.0
 31
0.0
  0
LINE
  5
47C
330
1E
100
AcDbEntity
  8
2
100
AcDbLine
 10
415.5
 20
554.4999999999999
 30
0.0
 11
398.4999999999999
 21
554.4999999999999
 31
0.0
  0
LINE
  5
47D
330
1E
100
AcDbEntity
  8
0
100
AcDbLine
 10
398.4999999999999
 20
579.4999999999999
 30
0.0
 11
415.5
 21
579.9999999999998
 31
0.0
  0
LINE
  5
47E
330
1E
100
AcDbEntity
  8
2
100
AcDbLine
 10
415.5
 20
565.5
 30
0.0
 11
398.4999999999999
 21
565.5
 31
0.0
  0
LINE
  5
47F
330
1E
100
AcDbEntity
  8
0
100
AcDbLine
 10
398.4999999999999
 20
560.0
 30
0.0
 11
398.4999999999999
 21
579.4999999999999
 31
0.0
  0
LINE
  5
480
330
1E
100
AcDbEntity
  8
0
100
AcDbLine
 10
415.5
 20
560.0
 30
0.0
 11
415.5
 21
579.9999999999998
 31
0.0
  0
LINE
  5
481
330
1E
100
AcDbEntity
  8
2
100
AcDbLine
 10
415.5
 20
147.4999999999997
 30
0.0
 11
398.4999999999999
 21
147.4999999999997
 31
0.0
  0
LINE
  5
482
330
1E
100
AcDbEntity
  8
0
100
AcDbLine
 10
398.4999999999999
 20
161.4999999999996
 30
0.0
 11
415.5
 21
161.9999999999995
 31
0.0
  0
LINE
  5
483
330
1E
100
AcDbEntity
  8
2
100
AcDbLine
 10
415.5
 20
136.4999999999996
 30
0.0
 11
398.4999999999999
 21
136.4999999999996
 31
0.0
  0
LINE
  5
484
330
1E
100
AcDbEntity
  8
0
100
AcDbLine
 10
398.4999999999999
 20
122.4999999999997
 30
0.0
 11
415.5
 21
121.9999999999997
 31
0.0
  0
LINE
  5
485
330
1E
100
AcDbEntity
  8
0
100
AcDbLine
 10
398.4999999999999
 20
141.9999999999997
 30
0.0
 11
398.4999999999999
 21
161.4999999999996
 31
0.0
  0
LINE
  5
486
330
1E
100
AcDbEntity
  8
0
100
AcDbLine
 10
398.4999999999999
 20
141.9999999999997
 30
0.0
 11
398.4999999999999
 21
122.4999999999997
 31
0.0
  0
LINE
  5
487
330
1E
100
AcDbEntity
  8
0
100
AcDbLine
 10
415.5
 20
141.9999999999997
 30
0.0
 11
415.5
 21
161.9999999999995
 31
0.0
  0
LINE
  5
488
330
1E
100
AcDbEntity
  8
0
100
AcDbLine
 10
415.5
 20
141.9999999999997
 30
0.0
 11
415.5
 21
121.9999999999997
 31
0.0
  0
LINE
  5
489
330
1E
100
AcDbEntity
  8
0
100
AcDbLine
 10
415.5
 20
450.0
 30
0.0
 11
415.5
 21
270.0
 31
0.0
  0
LINE
  5
48A
330
1E
100
AcDbEntity
  8
0
100
AcDbLine
 10
398.4999999999999
 20
387.9999999999999
 30
0.0
 11
398.4999999999999
 21
270.5
 31
0.0
  0
LINE
  5
48B
330
1E
100
AcDbEntity
  8
0
100
AcDbLine
 10
415.5
 20
270.0
 30
0.0
 11
398.0
 21
270.5
 31
0.0
  0
LINE
  5
48C
330
1E
100
AcDbEntity
  8
2
100
AcDbLine
 10
398.4999999999999
 20
283.9999999999998
 30
0.0
 11
415.5
 21
283.9999999999998
 31
0.0
  0
LINE
  5
48D
330
1E
100
AcDbEntity
  8
0
100
AcDbLine
 10
398.4999999999999
 20
449.5
 30
0.0
 11
398.4999999999999
 21
387.0
 31
0.0
  0
LINE
  5
48E
330
1E
100
AcDbEntity
  8
2
100
AcDbLine
 10
398.4999999999999
 20
385.9999999999999
 30
0.0
 11
415.5
 21
385.9999999999999
 31
0.0
  0
LINE
  5
48F
330
1E
100
AcDbEntity
  8
0
100
AcDbLine
 10
415.5
 20
450.0
 30
0.0
 11
398.4999999999999
 21
449.5
 31
0.0
  0
ENDSEC
  0
SECTION
  2
OBJECTS
  0
DICTIONARY
  5
C
330
0
100
AcDbDictionary
281
     1
  3
ACAD_GROUP
350
D
  3
ACAD_LAYOUT
350
19
  3
ACAD_MLINESTYLE
350
16
  3
ACAD_PLOTSETTINGS
350
18
  3
ACAD_PLOTSTYLENAME
350
E
  3
AcDbVariableDictionary
350
211
  3
AcmDictionary
350
1BC
  3
AMG
350
102
  3
AMGSNAPSETTINGS
350
1D9
  3
DWGPROPS
350
2D8
  0
DICTIONARY
  5
20A
330
1E
100
AcDbDictionary
280
     1
281
     1
  3
ACAD_INDEX
360
20B
  0
DICTIONARY
  5
D
102
{ACAD_REACTORS
330
C
102
}
330
C
100
AcDbDictionary
281
     1
  0
DICTIONARY
  5
19
102
{ACAD_REACTORS
330
C
102
}
330
C
100
AcDbDictionary
281
     1
  3
Model
350
21
  3
ﾚｲｱｳﾄ1
350
1D
  0
DICTIONARY
  5
16
102
{ACAD_REACTORS
330
C
102
}
330
C
100
AcDbDictionary
281
     1
  3
Standard
350
17
  0
DICTIONARY
  5
18
102
{ACAD_REACTORS
330
C
102
}
330
C
100
AcDbDictionary
281
     1
  0
ACDBDICTIONARYWDFLT
  5
E
102
{ACAD_REACTORS
330
C
102
}
330
C
100
AcDbDictionary
281
     1
  3
Normal
350
F
100
AcDbDictionaryWithDefault
340
F
  0
DICTIONARY
  5
211
102
{ACAD_REACTORS
330
C
102
}
330
C
100
AcDbDictionary
281
     1
  3
DIMASSOC
350
213
  3
INDEXCTL
350
212
  0
DICTIONARY
  5
1BC
102
{ACAD_REACTORS
330
C
102
}
330
C
100
AcDbDictionary
281
     1
  3
AcmBOMDATA
350
2C9
  0
DICTIONARY
  5
102
102
{ACAD_REACTORS
330
C
102
}
330
C
100
AcDbDictionary
281
     1
  3
AcMgSettings
350
103
  3
AMGLAYCFG
350
2D3
  0
DICTIONARY
  5
1D9
102
{ACAD_REACTORS
330
C
102
}
330
C
100
AcDbDictionary
281
     1
  3
DIMENSION
350
1DE
  3
FEA
350
1DD
  3
HATCH (1)
350
1DA
  3
HATCH (2)
350
1DB
  3
SIMPLE WELD
350
1DF
  3
SYMBOLS
350
1DC
  0
XRECORD
  5
2D8
102
{ACAD_REACTORS
330
C
102
}
330
C
100
AcDbXrecord
280
     1
  1
DWGPROPS COOKIE
  2

  3

  4

  6

  7

  8

  9

300
AmdtFileType=84
301
=
302
=
303
=
304
=
305
=
306
=
307
=
308
=
309
=
 40
0.0039384490740741
 41
2450686.775891203
 42
2455841.700106875
  1

 90
        1
  0
DICTIONARY
  5
20B
102
{ACAD_REACTORS
330
20A
102
}
330
20A
100
AcDbDictionary
281
     1
  3
*A1
350
20C
  0
LAYOUT
  5
21
102
{ACAD_REACTORS
330
19
102
}
330
19
100
AcDbPlotSettings
  1

  2
\\KONISHIDENXP\SHARP MX-2700FG
  4

  6

 40
0.0
 41
0.0
 42
0.0
 43
0.0
 44
0.0
 45
0.0
 46
0.0
 47
0.0
 48
0.0
 49
0.0
140
0.0
141
0.0
142
1.0
143
1.0
 70
  1712
 72
     0
 73
     0
 74
     0
  7

 75
     0
147
1.0
148
0.0
149
0.0
100
AcDbLayout
  1
Model
 70
     1
 71
     0
 10
0.0
 20
0.0
 11
12.0
 21
9.0
 12
0.0
 22
0.0
 32
0.0
 14
0.0
 24
0.0
 34
0.0
 15
0.0
 25
0.0
 35
0.0
146
0.0
 13
0.0
 23
0.0
 33
0.0
 16
1.0
 26
0.0
 36
0.0
 17
0.0
 27
1.0
 37
0.0
 76
     0
330
1E
  0
LAYOUT
  5
1D
102
{ACAD_REACTORS
330
19
102
}
330
19
100
AcDbPlotSettings
  1

  2
\\KONISHIDENXP\SHARP MX-2700FG
  4

  6

 40
0.0
 41
0.0
 42
0.0
 43
0.0
 44
0.0
 45
0.0
 46
0.0
 47
0.0
 48
0.0
 49
0.0
140
0.0
141
0.0
142
1.0
143
1.0
 70
   688
 72
     0
 73
     0
 74
     5
  7

 75
    16
147
1.0
148
0.0
149
0.0
100
AcDbLayout
  1
ﾚｲｱｳﾄ1
 70
     1
 71
     1
 10
0.0
 20
0.0
 11
12.0
 21
9.0
 12
0.0
 22
0.0
 32
0.0
 14
1.000000000000000E+20
 24
1.000000000000000E+20
 34
1.000000000000000E+20
 15
-1.000000000000000E+20
 25
-1.000000000000000E+20
 35
-1.000000000000000E+20
146
0.0
 13
0.0
 23
0.0
 33
0.0
 16
1.0
 26
0.0
 36
0.0
 17
0.0
 27
1.0
 37
0.0
 76
     0
330
1A
  0
MLINESTYLE
  5
17
102
{ACAD_REACTORS
330
16
102
}
330
16
100
AcDbMlineStyle
  2
STANDARD
 70
     0
  3

 62
   256
 51
90.0
 52
90.0
 71
     2
 49
0.5
 62
   256
  6
BYLAYER
 49
-0.5
 62
   256
  6
BYLAYER
  0
ACDBPLACEHOLDER
  5
F
102
{ACAD_REACTORS
330
E
102
}
330
E
  0
DICTIONARYVAR
  5
213
102
{ACAD_REACTORS
330
211
102
}
330
211
100
DictionaryVariables
280
     0
  1
1
  0
DICTIONARYVAR
  5
212
102
{ACAD_REACTORS
330
211
102
}
330
211
100
DictionaryVariables
280
     0
  1
1
  0
ACMDATADICTIONARY
  5
2C9
102
{ACAD_REACTORS
330
1BC
102
}
330
1BC
100
AcDbDictionary
281
     1
  3
*A1
350
2CA
100
AcmDataDictionary
  0
DICTIONARY
  5
103
102
{ACAD_REACTORS
330
102
102
}
330
102
100
AcDbDictionary
281
     1
  3
DWGSETTINGS
350
21B
  0
ACAMGFILTERDAT
  5
1DE
102
{ACAD_REACTORS
330
1D9
102
}
330
1D9
100
AcAmgFilterDat
 70
    15
  1
DIMENSION,AMDT_*_DIM
  2
*
  3
*
  4
*
  5
*
290
     1
  0
ACAMGFILTERDAT
  5
1DD
102
{ACAD_REACTORS
330
1D9
102
}
330
1D9
100
AcAmgFilterDat
 70
    15
  1
*
  2
AM_FEA-AM_*
  3
*
  4
*
  5
*
290
     1
  0
ACAMGFILTERDAT
  5
1DA
102
{ACAD_REACTORS
330
1D9
102
}
330
1D9
100
AcAmgFilterDat
 70
    15
  1
HATCH
  2
*
  3
*
  4
*
  5
*
290
     1
  0
ACAMGFILTERDAT
  5
1DB
102
{ACAD_REACTORS
330
1D9
102
}
330
1D9
100
AcAmgFilterDat
 70
    15
  1
LINE
  2
8,8N,*-8,*-8N,AM_8,AM_8N,*-AM_8,*-AM_8N
  3
*
  4
*
  5
INSERT,STDPART2D
290
     1
  0
ACAMGFILTERDAT
  5
1DF
102
{ACAD_REACTORS
330
1D9
102
}
330
1D9
100
AcAmgFilterDat
 70
    15
  1
ARC
  2
AM_5
  3
*
  4
2
  5
INSERT
290
     0
  0
ACAMGFILTERDAT
  5
1DC
102
{ACAD_REACTORS
330
1D9
102
}
330
1D9
100
AcAmgFilterDat
 70
    15
  1
ACMFCFRAME,ACMDATUMTARGET,ACMDATUMID,ACMWELDSYM,ACMSURFSYM,ACMFEATID,ACMPARTREF,ACMBALLOON,AMDTEDGESYM,AMGSCREWCALCTABLE
  2
*
  3
*
  4
*
  5
*
290
     1
  0
LAYER_INDEX
  5
20C
102
{ACAD_REACTORS
330
20B
102
}
330
20B
100
AcDbIndex
 40
2456525.407857349
100
AcDbLayerIndex
  8
0
360
20D
 90
       90
  8
1
360
20E
 90
       14
  8
2
360
20F
 90
       84
  8
3
360
210
 90
        0
  8
4
360
490
 90
        0
  8
5
360
491
 90
        0
  8
Defpoints
360
492
 90
        0
  0
ACMDATAENTRYBLOCK
  5
2CA
102
{ACAD_REACTORS
330
2C9
102
}
330
2C9
100
AcmDataEntry
100
AcmDataEntryBlock
  0
IDBUFFER
  5
20D
330
0
100
AcDbIdBuffer
330
3D
330
3E
330
3F
330
40
330
41
330
42
330
43
330
44
330
46
330
47
330
48
330
49
330
4A
330
4B
330
4C
330
4D
330
4E
330
4F
330
50
330
51
330
55
330
56
330
57
330
58
330
5B
330
5D
330
64
330
65
330
68
330
69
330
6A
330
6B
330
8E
330
A5
330
C9
330
CD
330
CE
330
D1
330
D3
330
EF
330
F0
330
F8
330
F9
330
FA
330
FB
330
FC
330
1E0
330
1E1
330
1E2
330
1E3
330
1E4
330
1E5
330
1E6
330
1EC
330
1F4
330
1F5
330
1F6
330
1F7
330
1FD
330
1FE
330
1FF
330
201
330
204
330
205
330
206
330
471
330
472
330
473
330
474
330
475
330
476
330
477
330
478
330
479
330
47A
330
47B
330
47D
330
47F
330
480
330
482
330
484
330
485
330
486
330
487
330
488
330
489
330
48A
330
48B
330
48D
330
48F
  0
IDBUFFER
  5
20E
330
0
100
AcDbIdBuffer
330
38
330
3C
330
45
330
59
330
5A
330
5E
330
5F
330
89
330
CC
330
D4
330
D5
330
D6
330
D7
330
DA
  0
IDBUFFER
  5
20F
330
0
100
AcDbIdBuffer
330
48E
330
6C
330
6D
330
6E
330
6F
330
70
330
71
330
72
330
73
330
74
330
75
330
76
330
77
330
79
330
7A
330
7B
330
7C
330
7D
330
7E
330
7F
330
80
330
81
330
82
330
8F
330
90
330
91
330
92
330
93
330
94
330
95
330
96
330
97
330
98
330
99
330
9A
330
9B
330
9C
330
9D
330
9E
330
9F
330
A0
330
A1
330
A3
330
B7
330
B8
330
B9
330
BA
330
BB
330
BC
330
BD
330
BE
330
BF
330
C0
330
C1
330
C2
330
C3
330
C4
330
C5
330
C6
330
C7
330
C8
330
DB
330
DC
330
E3
330
E4
330
E5
330
E6
330
E7
330
E8
330
1ED
330
1EE
330
1EF
330
1F0
330
1F8
330
1F9
330
200
330
202
330
203
330
207
330
47C
330
47E
330
481
330
483
330
48C
  0
IDBUFFER
  5
210
330
0
100
AcDbIdBuffer
  0
IDBUFFER
  5
490
330
0
100
AcDbIdBuffer
  0
IDBUFFER
  5
491
330
0
100
AcDbIdBuffer
  0
IDBUFFER
  5
492
330
0
100
AcDbIdBuffer
  0
ENDSEC
  0
EOF
