  0
SECTION
  2
HEADER
  9
$ACADVER
  1
AC1015
  9
$ACADMAINTVER
 70
    13
  9
$DWGCODEPAGE
  3
ANSI_932
  9
$INSBASE
 10
0.0
 20
0.0
 30
0.0
  9
$EXTMIN
 10
117.1623241821796
 20
67.16574721986319
 30
-0.0015258207003583
  9
$EXTMAX
 10
396.1120615318791
 20
180.7905305797412
 30
0.0000000349246037
  9
$LIMMIN
 10
0.0
 20
0.0
  9
$LIMMAX
 10
450.0
 20
300.0
  9
$ORTHOMODE
 70
     1
  9
$REGENMODE
 70
     1
  9
$FILLMODE
 70
     1
  9
$QTEXTMODE
 70
     0
  9
$MIRRTEXT
 70
     1
  9
$LTSCALE
 40
1.0
  9
$ATTMODE
 70
     1
  9
$TEXTSIZE
 40
17.0
  9
$TRACEWID
 40
0.05
  9
$TEXTSTYLE
  7
BIGFONT
  9
$CLAYER
  8
0
  9
$CELTYPE
  6
ByLayer
  9
$CECOLOR
 62
   256
  9
$CELTSCALE
 40
1.0
  9
$DISPSILH
 70
     0
  9
$DIMSCALE
 40
1.0
  9
$DIMASZ
 40
0.18
  9
$DIMEXO
 40
0.0625
  9
$DIMDLI
 40
0.38
  9
$DIMRND
 40
0.0
  9
$DIMDLE
 40
0.0
  9
$DIMEXE
 40
0.18
  9
$DIMTP
 40
0.0
  9
$DIMTM
 40
0.0
  9
$DIMTXT
 40
0.18
  9
$DIMCEN
 40
0.09
  9
$DIMTSZ
 40
0.0
  9
$DIMTOL
 70
     0
  9
$DIMLIM
 70
     0
  9
$DIMTIH
 70
     1
  9
$DIMTOH
 70
     1
  9
$DIMSE1
 70
     0
  9
$DIMSE2
 70
     0
  9
$DIMTAD
 70
     0
  9
$DIMZIN
 70
     0
  9
$DIMBLK
  1

  9
$DIMASO
 70
     1
  9
$DIMSHO
 70
     1
  9
$DIMPOST
  1

  9
$DIMAPOST
  1

  9
$DIMALT
 70
     0
  9
$DIMALTD
 70
     2
  9
$DIMALTF
 40
25.4
  9
$DIMLFAC
 40
1.0
  9
$DIMTOFL
 70
     0
  9
$DIMTVP
 40
0.0
  9
$DIMTIX
 70
     0
  9
$DIMSOXD
 70
     0
  9
$DIMSAH
 70
     0
  9
$DIMBLK1
  1

  9
$DIMBLK2
  1

  9
$DIMSTYLE
  2
STANDARD
  9
$DIMCLRD
 70
     0
  9
$DIMCLRE
 70
     0
  9
$DIMCLRT
 70
     0
  9
$DIMTFAC
 40
1.0
  9
$DIMGAP
 40
0.09
  9
$DIMJUST
 70
     0
  9
$DIMSD1
 70
     0
  9
$DIMSD2
 70
     0
  9
$DIMTOLJ
 70
     1
  9
$DIMTZIN
 70
     0
  9
$DIMALTZ
 70
     0
  9
$DIMALTTZ
 70
     0
  9
$DIMUPT
 70
     0
  9
$DIMDEC
 70
     4
  9
$DIMTDEC
 70
     4
  9
$DIMALTU
 70
     2
  9
$DIMALTTD
 70
     2
  9
$DIMTXSTY
  7
STANDARD
  9
$DIMAUNIT
 70
     0
  9
$DIMADEC
 70
     0
  9
$DIMALTRND
 40
0.0
  9
$DIMAZIN
 70
     0
  9
$DIMDSEP
 70
    46
  9
$DIMATFIT
 70
     3
  9
$DIMFRAC
 70
     0
  9
$DIMLDRBLK
  1

  9
$DIMLUNIT
 70
     2
  9
$DIMLWD
 70
    -2
  9
$DIMLWE
 70
    -2
  9
$DIMTMOVE
 70
     0
  9
$LUNITS
 70
     2
  9
$LUPREC
 70
     4
  9
$SKETCHINC
 40
0.1
  9
$FILLETRAD
 40
0.0
  9
$AUNITS
 70
     0
  9
$AUPREC
 70
     0
  9
$MENU
  1
acad
  9
$ELEVATION
 40
0.0
  9
$PELEVATION
 40
0.0
  9
$THICKNESS
 40
0.0
  9
$LIMCHECK
 70
     0
  9
$CHAMFERA
 40
2.0
  9
$CHAMFERB
 40
2.0
  9
$CHAMFERC
 40
0.0
  9
$CHAMFERD
 40
0.0
  9
$SKPOLY
 70
     0
  9
$TDCREATE
 40
2450686.775624999
  9
$TDUCREATE
 40
2450686.400624999
  9
$TDUPDATE
 40
2456525.375013194
  9
$TDUUPDATE
 40
2456525.000013194
  9
$TDINDWG
 40
0.0051197222
  9
$TDUSRTIMER
 40
0.0051195370
  9
$USRTIMER
 70
     1
  9
$ANGBASE
 50
0.0
  9
$ANGDIR
 70
     0
  9
$PDMODE
 70
     0
  9
$PDSIZE
 40
0.0
  9
$PLINEWID
 40
0.0
  9
$SPLFRAME
 70
     0
  9
$SPLINETYPE
 70
     6
  9
$SPLINESEGS
 70
     8
  9
$HANDSEED
  5
345
  9
$SURFTAB1
 70
     6
  9
$SURFTAB2
 70
     6
  9
$SURFTYPE
 70
     6
  9
$SURFU
 70
     6
  9
$SURFV
 70
     6
  9
$UCSBASE
  2

  9
$UCSNAME
  2

  9
$UCSORG
 10
0.0
 20
0.0
 30
0.0
  9
$UCSXDIR
 10
1.0
 20
0.0
 30
0.0
  9
$UCSYDIR
 10
0.0
 20
1.0
 30
0.0
  9
$UCSORTHOREF
  2

  9
$UCSORTHOVIEW
 70
     0
  9
$UCSORGTOP
 10
0.0
 20
0.0
 30
0.0
  9
$UCSORGBOTTOM
 10
0.0
 20
0.0
 30
0.0
  9
$UCSORGLEFT
 10
0.0
 20
0.0
 30
0.0
  9
$UCSORGRIGHT
 10
0.0
 20
0.0
 30
0.0
  9
$UCSORGFRONT
 10
0.0
 20
0.0
 30
0.0
  9
$UCSORGBACK
 10
0.0
 20
0.0
 30
0.0
  9
$PUCSBASE
  2

  9
$PUCSNAME
  2

  9
$PUCSORG
 10
0.0
 20
0.0
 30
0.0
  9
$PUCSXDIR
 10
1.0
 20
0.0
 30
0.0
  9
$PUCSYDIR
 10
0.0
 20
1.0
 30
0.0
  9
$PUCSORTHOREF
  2

  9
$PUCSORTHOVIEW
 70
     0
  9
$PUCSORGTOP
 10
0.0
 20
0.0
 30
0.0
  9
$PUCSORGBOTTOM
 10
0.0
 20
0.0
 30
0.0
  9
$PUCSORGLEFT
 10
0.0
 20
0.0
 30
0.0
  9
$PUCSORGRIGHT
 10
0.0
 20
0.0
 30
0.0
  9
$PUCSORGFRONT
 10
0.0
 20
0.0
 30
0.0
  9
$PUCSORGBACK
 10
0.0
 20
0.0
 30
0.0
  9
$USERI1
 70
     0
  9
$USERI2
 70
     0
  9
$USERI3
 70
     0
  9
$USERI4
 70
     0
  9
$USERI5
 70
     0
  9
$USERR1
 40
0.0
  9
$USERR2
 40
0.0
  9
$USERR3
 40
0.0
  9
$USERR4
 40
0.0
  9
$USERR5
 40
0.0
  9
$WORLDVIEW
 70
     1
  9
$SHADEDGE
 70
     3
  9
$SHADEDIF
 70
    70
  9
$TILEMODE
 70
     1
  9
$MAXACTVP
 70
    16
  9
$PINSBASE
 10
0.0
 20
0.0
 30
0.0
  9
$PLIMCHECK
 70
     0
  9
$PEXTMIN
 10
1.000000000000000E+20
 20
1.000000000000000E+20
 30
1.000000000000000E+20
  9
$PEXTMAX
 10
-1.000000000000000E+20
 20
-1.000000000000000E+20
 30
-1.000000000000000E+20
  9
$PLIMMIN
 10
0.0
 20
0.0
  9
$PLIMMAX
 10
12.0
 20
9.0
  9
$UNITMODE
 70
     0
  9
$VISRETAIN
 70
     0
  9
$PLINEGEN
 70
     0
  9
$PSLTSCALE
 70
     1
  9
$TREEDEPTH
 70
  3020
  9
$CMLSTYLE
  2
Standard
  9
$CMLJUST
 70
     0
  9
$CMLSCALE
 40
1.0
  9
$PROXYGRAPHICS
 70
     1
  9
$MEASUREMENT
 70
     0
  9
$CELWEIGHT
370
    -1
  9
$ENDCAPS
280
     0
  9
$JOINSTYLE
280
     0
  9
$LWDISPLAY
290
     0
  9
$INSUNITS
 70
     0
  9
$HYPERLINKBASE
  1

  9
$STYLESHEET
  1

  9
$XEDIT
290
     1
  9
$CEPSNTYPE
380
     0
  9
$PSTYLEMODE
290
     1
  9
$FINGERPRINTGUID
  2
{59680494-7CC7-46B5-A15D-A95B495B00FC}
  9
$VERSIONGUID
  2
{2EEE578B-1FEA-482A-BB35-A4B6849F93DE}
  9
$EXTNAMES
290
     1
  9
$PSVPSCALE
 40
0.0
  9
$OLESTARTUP
290
     0
  0
ENDSEC
  0
SECTION
  2
CLASSES
  0
CLASS
  1
ACDBDICTIONARYWDFLT
  2
AcDbDictionaryWithDefault
  3
AutoCAD 2000
 90
        0
280
     0
281
     0
  0
CLASS
  1
ACDBPLACEHOLDER
  2
AcDbPlaceHolder
  3
AutoCAD 2000
 90
        0
280
     0
281
     0
  0
CLASS
  1
LAYOUT
  2
AcDbLayout
  3
AutoCAD 2000
 90
        0
280
     0
281
     0
  0
CLASS
  1
AMGSETTINGSOBJ
  2
AmgSettingsObj
  3
"AcadM|Product Description: AutoCAD Mechanical 2000|Company: Autodesk"
 90
        0
280
     0
281
     0
  0
CLASS
  1
ACME_DOCUMENT
  2
AcMeDbDoc
  3
AcMeServices
 90
        0
280
     0
281
     0
  0
CLASS
  1
ACMESCOPE
  2
AcMeScope
  3
AcMeServices
 90
        0
280
     0
281
     0
  0
CLASS
  1
ACMECOMMANDHISTORY
  2
AcMeCommandHistory
  3
AcMeServices
 90
        0
280
     0
281
     0
  0
CLASS
  1
ACIMSYSVARMAN
  2
AcImSysVarManager
  3
AcMeServices
 90
        0
280
     0
281
     0
  0
CLASS
  1
ACIMREALSYSVAR
  2
AcImRealSysVar
  3
AcMeServices
 90
        0
280
     0
281
     0
  0
CLASS
  1
ACIMINTSYSVAR
  2
AcImIntSysVar
  3
AcMeServices
 90
        0
280
     0
281
     0
  0
CLASS
  1
ACMEDRAWINGMAN
  2
AcMeDrawingMan
  3
AcMeServices
 90
        0
280
     0
281
     0
  0
CLASS
  1
ACMEVIEW
  2
AcMeView
  3
AcMeServices
 90
        0
280
     0
281
     0
  0
CLASS
  1
ACDBENTITYCACHE
  2
AcMeEntityCache
  3
AcMeServices
 90
        0
280
     0
281
     0
  0
CLASS
  1
GSMANAGER
  2
AcMeGSManager
  3
AcMeServices
 90
        0
280
     0
281
     0
  0
CLASS
  1
AMDTINTERNALREACTOR
  2
AmdtInternalReactor
  3
AcMeServices
 90
        0
280
     0
281
     0
  0
CLASS
  1
ACMESTATEMGR
  2
AcMeStateMgr
  3
AcMeServices
 90
        0
280
     0
281
     0
  0
CLASS
  1
ACGREFMASTER
  2
AcGrefMaster
  3
AcAttribServices
 90
        0
280
     0
281
     0
  0
CLASS
  1
AM_DRAWING_MGR
  2
AcDmDwgMgr
  3
AcMechDwgViewMgmt
 90
        0
280
     0
281
     0
  0
CLASS
  1
AM_DWG_DOCUMENT
  2
AcDmDwgDocument
  3
AcMechDwgViewMgmt
 90
        0
280
     0
281
     0
  0
CLASS
  1
AM_DWG_SHEET
  2
AcDmSheet
  3
AcMechDwgViewMgmt
 90
        0
280
     0
281
     0
  0
CLASS
  1
AM_VIEWDIMPARMAP
  2
AcDmViewDimParMap
  3
AcMechDwgViewMgmt
 90
        0
280
     0
281
     0
  0
CLASS
  1
AM_DWGMGR_NAME
  2
AcDmDwgMgrName
  3
AcMechDwgViewMgmt
 90
        0
280
     0
281
     0
  0
CLASS
  1
ACME_DATABASE
  2
AcMeDbDatabase
  3
AcMeServices
 90
        0
280
     0
281
     0
  0
CLASS
  1
ACRFINSADJUSTERMGR
  2
AcRfInsAdjusterMgr
  3
AcMeServices
 90
        0
280
     0
281
     0
  0
CLASS
  1
ACGREFACADMASTER
  2
AcGrefacadMaster
  3
AcGrefServices
 90
        0
280
     0
281
     0
  0
CLASS
  1
AMDTMENUSTATEMGR
  2
AmdtMenuStateMgr
  3
McadcomServices
 90
        0
280
     0
281
     0
  0
CLASS
  1
AMDTMCOMMENUSTATE
  2
AmdtMcomMenuState
  3
McadcomServices
 90
        0
280
     0
281
     0
  0
CLASS
  1
AMIMASTER
  2
AmiMaster
  3
AmiServices
 90
        0
280
     0
281
     0
  0
CLASS
  1
ASAPP
  2
AcAsAppObject
  3
AutoSurfServices
 90
        0
280
     0
281
     0
  0
CLASS
  1
IM_STATIC_MAN
  2
AcImStaticVarManager
  3
AcMeServices
 90
        0
280
     0
281
     0
  0
CLASS
  1
ACIMSTRSYSVAR
  2
AcImStrSysVar
  3
AcMeServices
 90
        0
280
     0
281
     0
  0
CLASS
  1
ACIMDBLSTATICVAR
  2
AcImDblStaticVar
  3
AcMeServices
 90
        0
280
     0
281
     0
  0
CLASS
  1
ACIMSTRSTATICVAR
  2
AcImStrStaticVar
  3
AcMeServices
 90
        0
280
     0
281
     0
  0
CLASS
  1
ACIMINTSTATICVAR
  2
AcImIntStaticVar
  3
AcMeServices
 90
        0
280
     0
281
     0
  0
CLASS
  1
ACASGREFMASTER
  2
AcAsGrefMaster
  3
AutoSurfResolverServices
 90
        0
280
     0
281
     0
  0
CLASS
  1
ACADGREFMODULE
  2
AcAdGrefModule
  3
AdGrefServices
 90
        0
280
     0
281
     0
  0
CLASS
  1
AMDTMAPISURFMOUDULE
  2
AmdtMApiSurfModule
  3
MApiSurfServices
 90
        0
280
     0
281
     0
  0
CLASS
  1
MAPIAMMOUDLE
  2
MApiAmModule
  3
MApiAmServices
 90
        0
280
     0
281
     0
  0
CLASS
  1
AMDTADMENUSTATE
  2
AmdtAdMenuState
  3
DesignerServices
 90
        0
280
     0
281
     0
  0
CLASS
  1
ADAPPL
  2
AcAdAppl
  3
DesignerServices
 90
        0
280
     0
281
     0
  0
CLASS
  1
DEPMGR
  2
AcAdDepMgr
  3
DesignerServices
 90
        0
280
     0
281
     0
  0
CLASS
  1
PARAMMGR
  2
AcAdParamMgr
  3
DesignerServices
 90
        0
280
     0
281
     0
  0
CLASS
  1
PARAMSCOPE
  2
AcAdParamScope
  3
DesignerServices
 90
        0
280
     0
281
     0
  0
CLASS
  1
NAMEDAPPL
  2
AcAdNamedAppl
  3
DesignerServices
 90
        0
280
     0
281
     0
  0
CLASS
  1
AMDTDMMENUSTATE
  2
AmdtDmMenuState
  3
AcMechDwgViewMgmt
 90
        0
280
     0
281
     0
  0
CLASS
  1
MAPIADMODULE
  2
MApiAdModule
  3
MApiAdServices
 90
        0
280
     0
281
     0
  0
CLASS
  1
AMDTAMMENUSTATE
  2
AmdtAmMenuState
  3
DesignerAssemblies
 90
        0
280
     0
281
     0
  0
CLASS
  1
ACAMPROJECT
  2
AcAmProject
  3
DesignerAssemblies
 90
        0
280
     0
281
     0
  0
CLASS
  1
ACAMGRCOMPDEF
  2
AcAmGrCompDef
  3
DesignerAssemblies
 90
        0
280
     0
281
     0
  0
CLASS
  1
ACCMCONTEXT
  2
AcCmContext
  3
DesignerAssemblies
 90
        0
280
     0
281
     0
  0
CLASS
  1
ACAMCOMPDEF
  2
AcAmCompDef
  3
DesignerAssemblies
 90
        0
280
     0
281
     0
  0
CLASS
  1
ACAMCOMPDEFMGR
  2
AcAmCompDefMgr
  3
DesignerAssemblies
 90
        0
280
     0
281
     0
  0
CLASS
  1
AMCONTEXTMGR
  2
AcAmContextMgr
  3
DesignerAssemblies
 90
        0
280
     0
281
     0
  0
CLASS
  1
ACAMCONTEXTMODELER
  2
AcAmContextModeler
  3
DesignerAssemblies
 90
        0
280
     0
281
     0
  0
CLASS
  1
ACMDATADICTIONARY
  2
AcmDataDictionary
  3
"AcmSymBB|Product Description: AutoCAD Mechanical 2000|Company: Autodesk"
 90
        0
280
     0
281
     0
  0
CLASS
  1
ACMDATAENTRYBLOCK
  2
AcmDataEntryBlock
  3
"AcmSymBB|Product Description: AutoCAD Mechanical 2000|Company: Autodesk"
 90
        0
280
     0
281
     0
  0
CLASS
  1
CATALOGSTATE
  2
AcAmCatalogState
  3
DesignerAssemblies
 90
        0
280
     0
281
     0
  0
CLASS
  1
ACAMGRCOMPDEFSET
  2
AcAmGrCompDefSet
  3
DesignerAssemblies
 90
        0
280
     0
281
     0
  0
CLASS
  1
AMDTBROWSERDBTAB
  2
AmdtBrowserDbTab
  3
McadcomServices
 90
        0
280
     0
281
     0
  0
CLASS
  1
CBROWSERAPPOBJECT
  2
CBrowserAppObject
  3
McadcomServices
 90
        0
280
     0
281
     0
  0
CLASS
  1
DM_PLACEHOLDER
  2
AcDmSelsetPlaceholder
  3
AcMechDwgViewMgmt
 90
        0
280
     0
281
     0
  0
CLASS
  1
AMGOBJPROPCFG
  2
AmgObjPropCfg
  3
"AmgLay|Product Description: AutoCAD Mechanical 2000|Company: Autodesk"
 90
        1
280
     0
281
     0
  0
CLASS
  1
ACAMGFILTERDAT
  2
AcAmgFilterDat
  3
"AcadM|Product Description: AutoCAD Mechanical 2000|Company: Autodesk"
 90
        0
280
     0
281
     0
  0
CLASS
  1
ACMSTANDARDANSI
  2
AcmStandardANSI
  3
"Amdt_StdImp|Product Description: AutoCAD Mechanical 2000|Company: Autodesk"
 90
        0
280
     0
281
     0
  0
CLASS
  1
ACMSURFSTANDARDANSI
  2
AcmSurfTextStdANSI
  3
"Amdt_StdImp|Product Description: AutoCAD Mechanical 2000|Company: Autodesk"
 90
        0
280
     0
281
     0
  0
CLASS
  1
ACMFCFSTANDARDANSI
  2
AcmFCFStdANSI
  3
"Amdt_StdImp|Product Description: AutoCAD Mechanical 2000|Company: Autodesk"
 90
        0
280
     0
281
     0
  0
CLASS
  1
ACMWELDSTANDARDANSI
  2
AcmWeldingStdANSI
  3
"Amdt_StdImp|Product Description: AutoCAD Mechanical 2000|Company: Autodesk"
 90
        0
280
     0
281
     0
  0
CLASS
  1
ACMIDSTANDARDANSI
  2
AcmIdStdANSI
  3
"Amdt_StdImp|Product Description: AutoCAD Mechanical 2000|Company: Autodesk"
 90
        0
280
     0
281
     0
  0
CLASS
  1
ACMDATUMSTANDARDANSI
  2
AcmDatumStdANSI
  3
"Amdt_StdImp|Product Description: AutoCAD Mechanical 2000|Company: Autodesk"
 90
        0
280
     0
281
     0
  0
CLASS
  1
ACMBOMSTANDARDANSI
  2
AcmBOMStdANSI
  3
"Amdt_StdImp|Product Description: AutoCAD Mechanical 2000|Company: Autodesk"
 90
        0
280
     0
281
     0
  0
CLASS
  1
ACMDETAILSTANDARDANSI
  2
AmdtDetailSymStdANSI
  3
"Amdt_StdImp|Product Description: AutoCAD Mechanical 2000|Company: Autodesk"
 90
        0
280
     0
281
     0
  0
CLASS
  1
ACMSECTIONSTANDARDANSI
  2
AmdtSectionSymStdANSI
  3
"Amdt_StdImp|Product Description: AutoCAD Mechanical 2000|Company: Autodesk"
 90
        0
280
     0
281
     0
  0
CLASS
  1
ACMCENTERLINESTANDARDANSI
  2
AmdtCenterLineStdANSI
  3
"Amdt_StdImp|Product Description: AutoCAD Mechanical 2000|Company: Autodesk"
 90
        0
280
     0
281
     0
  0
CLASS
  1
ACMTHREADLINESTANDARDANSI
  2
AmdtThreadLineStdANSI
  3
"Amdt_StdImp|Product Description: AutoCAD Mechanical 2000|Company: Autodesk"
 90
        0
280
     0
281
     0
  0
CLASS
  1
ACMNOTESTANDARDANSI
  2
AmdtNoteStdANSI
  3
"Amdt_StdImp|Product Description: AutoCAD Mechanical 2000|Company: Autodesk"
 90
        0
280
     0
281
     0
  0
CLASS
  1
ACAMGLAYSTD
  2
AcAmgLayStd
  3
"AcAmgLayStd|Product Description: AutoCAD Mechanical 2000|Company: Autodesk"
 90
        0
280
     0
281
     0
  0
CLASS
  1
ACAMGDIMSTD
  2
AcAmgDimStd
  3
"AcAmgDimStd|Product Description: AutoCAD Mechanical 2000|Company: Autodesk"
 90
        0
280
     0
281
     0
  0
CLASS
  1
ACAMGHOLECHARTSTDANSI
  2
AcAmgHoleChartStdANSI
  3
ACMSYMBB_MODULE_NAME
 90
        0
280
     0
281
     0
  0
CLASS
  1
ACAMGTITLESTD
  2
AcAmgTitleStd
  3
"TITLEAPP"
 90
        0
280
     0
281
     0
  0
CLASS
  1
AMDTFORMULAUPDATEDISPATCHER
  2
AmdtFormulaUpdateDispatcher
  3
AcMeServices
 90
        0
280
     0
281
     0
  0
CLASS
  1
LAYER_INDEX
  2
AcDbLayerIndex
  3
AutoCAD 2000
 90
        0
280
     0
281
     0
  0
CLASS
  1
IDBUFFER
  2
AcDbIdBuffer
  3
AutoCAD 2000
 90
        0
280
     0
281
     0
  0
CLASS
  1
DICTIONARYVAR
  2
AcDbDictionaryVar
  3
AutoCAD 2000
 90
        0
280
     0
281
     0
  0
ENDSEC
  0
SECTION
  2
TABLES
  0
TABLE
  2
VPORT
  5
8
330
0
100
AcDbSymbolTable
 70
     3
  0
VPORT
  5
344
330
8
100
AcDbSymbolTableRecord
100
AcDbViewportTableRecord
  2
*Active
 70
     0
 10
0.0
 20
0.0
 11
1.0
 21
1.0
 12
-7.631578947368382
 22
-6.1577238550922
 13
0.0
 23
0.0
 14
10.0
 24
10.0
 15
10.0
 25
10.0
 16
0.0
 26
0.0
 36
1.0
 17
232.6315789473683
 27
156.1577238550922
 37
0.0
 40
303.5391476619618
 41
1.489721886336154
 42
50.0
 43
0.0
 44
0.0
 50
0.0
 51
0.0
 71
     0
 72
 20000
 73
     1
 74
     1
 75
     0
 76
     0
 77
     0
 78
     0
281
     0
 65
     0
110
0.0
120
0.0
130
0.0
111
1.0
121
0.0
131
0.0
112
0.0
122
1.0
132
0.0
 79
     0
146
0.0
  0
ENDTAB
  0
TABLE
  2
LTYPE
  5
5
330
0
100
AcDbSymbolTable
 70
    23
  0
LTYPE
  5
13
330
5
100
AcDbSymbolTableRecord
100
AcDbLinetypeTableRecord
  2
ByBlock
 70
     0
  3

 72
    65
 73
     0
 40
0.0
  0
LTYPE
  5
14
330
5
100
AcDbSymbolTableRecord
100
AcDbLinetypeTableRecord
  2
ByLayer
 70
     0
  3

 72
    65
 73
     0
 40
0.0
  0
LTYPE
  5
15
330
5
100
AcDbSymbolTableRecord
100
AcDbLinetypeTableRecord
  2
CONTINUOUS
 70
     0
  3
Solid line
 72
    65
 73
     0
 40
0.0
  0
LTYPE
  5
23
330
5
100
AcDbSymbolTableRecord
100
AcDbLinetypeTableRecord
  2
BYLAYER
 70
     0
  3

 72
    65
 73
     0
 40
0.0
  0
LTYPE
  5
24
330
5
100
AcDbSymbolTableRecord
100
AcDbLinetypeTableRecord
  2
ITTEN1
 70
     0
  3

 72
    65
 73
     4
 40
8.199999999999997
 49
5.0
 74
     0
 49
-1.0
 74
     0
 49
1.199999999999999
 74
     0
 49
-1.0
 74
     0
  0
LTYPE
  5
25
330
5
100
AcDbSymbolTableRecord
100
AcDbLinetypeTableRecord
  2
TENSEN2
 70
     0
  3

 72
    65
 73
     2
 40
2.1
 49
1.5
 74
     0
 49
-0.6
 74
     0
  0
LTYPE
  5
CA
330
5
100
AcDbSymbolTableRecord
100
AcDbLinetypeTableRecord
  2
HIDDEN
 70
     0
  3
Hidden __ __ __ __ __ __ __ __ __ __ __ __ __ _
 72
    65
 73
     2
 40
0.375
 49
0.25
 74
     0
 49
-0.125
 74
     0
  0
LTYPE
  5
CB
330
5
100
AcDbSymbolTableRecord
100
AcDbLinetypeTableRecord
  2
PHANTOM2
 70
     0
  3
Phantom (.5x) ___ _ _ ___ _ _ ___ _ _ ___ _ _
 72
    65
 73
     6
 40
1.25
 49
0.625
 74
     0
 49
-0.125
 74
     0
 49
0.125
 74
     0
 49
-0.125
 74
     0
 49
0.125
 74
     0
 49
-0.125
 74
     0
  0
LTYPE
  5
CC
330
5
100
AcDbSymbolTableRecord
100
AcDbLinetypeTableRecord
  2
CENTER
 70
     0
  3
Center ____ _ ____ _ ____ _ ____ _ ____ _ ____
 72
    65
 73
     4
 40
2.0
 49
1.25
 74
     0
 49
-0.25
 74
     0
 49
0.25
 74
     0
 49
-0.25
 74
     0
  0
LTYPE
  5
12E
330
5
100
AcDbSymbolTableRecord
100
AcDbLinetypeTableRecord
  2
ASULTYPE
 70
     0
  3
実線
 72
    65
 73
     2
 40
3.0
 49
2.5
 74
     0
 49
0.5
 74
     0
  0
LTYPE
  5
12F
330
5
100
AcDbSymbolTableRecord
100
AcDbLinetypeTableRecord
  2
ASVLTYPE
 70
     0
  3
__ __ __ __ __ __ __ __ __ __ __ __ __ __ __ __ __ __ __ __ __
 72
    65
 73
     2
 40
0.75
 49
0.5
 74
     0
 49
-0.25
 74
     0
  0
LTYPE
  5
170
330
5
100
AcDbSymbolTableRecord
100
AcDbLinetypeTableRecord
  2
AM_ISO02W050
 70
     0
  3
__ __ __ __ __ __ __ __ __ __ __ __ __ __ __
 72
    65
 73
     2
 40
7.5
 49
6.0
 74
     0
 49
-1.5
 74
     0
  0
LTYPE
  5
171
330
5
100
AcDbSymbolTableRecord
100
AcDbLinetypeTableRecord
  2
AM_ISO08W050
 70
     0
  3
____ . ____ . ____ . ____ . ____ . ____ . ____
 72
    65
 73
     4
 40
18.0
 49
12.0
 74
     0
 49
-1.5
 74
     0
 49
3.0
 74
     0
 49
-1.5
 74
     0
  0
LTYPE
  5
172
330
5
100
AcDbSymbolTableRecord
100
AcDbLinetypeTableRecord
  2
AM_ISO09W050
 70
     0
  3
_____ . . _____ . . _____ . . ____ .. ____
 72
    65
 73
     6
 40
22.5
 49
12.0
 74
     0
 49
-1.5
 74
     0
 49
3.0
 74
     0
 49
-1.5
 74
     0
 49
3.0
 74
     0
 49
-1.5
 74
     0
  0
LTYPE
  5
173
330
5
100
AcDbSymbolTableRecord
100
AcDbLinetypeTableRecord
  2
Amconstr
 70
     0
  3
_______________________
 72
    65
 73
     2
 40
9999.0
 49
9999.0
 74
     0
 49
0.0
 74
     0
  0
LTYPE
  5
174
330
5
100
AcDbSymbolTableRecord
100
AcDbLinetypeTableRecord
  2
AM_ISO08W050x2
 70
     0
  3
__ . __ . __ . __ . __ . __
 72
    65
 73
     4
 40
9.0
 49
6.0
 74
     0
 49
-0.75
 74
     0
 49
1.5
 74
     0
 49
-0.75
 74
     0
  0
LTYPE
  5
175
330
5
100
AcDbSymbolTableRecord
100
AcDbLinetypeTableRecord
  2
AM_ISO02W050x2
 70
     0
  3
 _ _ _ _ _ _ _ _ _ _ _ _
 72
    65
 73
     2
 40
3.75
 49
3.0
 74
     0
 49
-0.75
 74
     0
  0
LTYPE
  5
178
330
5
100
AcDbSymbolTableRecord
100
AcDbLinetypeTableRecord
  2
Amzigzag
 70
     0
  3
/\/-/\/-/\/-/\/-/\/-/\/
 72
    65
 73
     2
 40
11.00009999999999
 49
0.0001
 74
     4
 75
   135
340
177
 46
0.04
 50
0.0
 44
0.0
 45
0.0
 49
-11.0
 74
     0
  0
LTYPE
  5
179
330
5
100
AcDbSymbolTableRecord
100
AcDbLinetypeTableRecord
  2
CENTER2
 70
     0
  3
Center (.5x) ___ _ ___ _ ___ _ ___ _ ___ _ ___
 72
    65
 73
     4
 40
1.125
 49
0.75
 74
     0
 49
-0.125
 74
     0
 49
0.125
 74
     0
 49
-0.125
 74
     0
  0
LTYPE
  5
17A
330
5
100
AcDbSymbolTableRecord
100
AcDbLinetypeTableRecord
  2
HIDDEN2
 70
     0
  3
Hidden (.5x) _ _ _ _ _ _ _ _ _ _ _ _ _ _ _ _ _
 72
    65
 73
     2
 40
0.1875
 49
0.125
 74
     0
 49
-0.0625
 74
     0
  0
LTYPE
  5
17B
330
5
100
AcDbSymbolTableRecord
100
AcDbLinetypeTableRecord
  2
Amzigzag2
 70
     0
  3
/\/-/\/-/\/-/\/-/\/-/\/
 72
    65
 73
     2
 40
0.4401
 49
0.0001
 74
     4
 75
   135
340
177
 46
0.0016
 50
0.0
 44
0.0
 45
0.0
 49
-0.4400000000000001
 74
     0
  0
LTYPE
  5
1D4
330
5
100
AcDbSymbolTableRecord
100
AcDbLinetypeTableRecord
  2
TENSEN
 70
     0
  3

 72
    65
 73
     2
 40
3.0
 49
2.0
 74
     0
 49
-1.0
 74
     0
  0
LTYPE
  5
1D5
330
5
100
AcDbSymbolTableRecord
100
AcDbLinetypeTableRecord
  2
ITTEN
 70
     0
  3

 72
    65
 73
     4
 40
5.5
 49
2.5
 74
     0
 49
-1.0
 74
     0
 49
1.0
 74
     0
 49
-1.0
 74
     0
  0
LTYPE
  5
1D6
330
5
100
AcDbSymbolTableRecord
100
AcDbLinetypeTableRecord
  2
ACANSTGB
 70
     0
  3
__ . . __ . .
 72
    65
 73
     6
 40
0.35433070866
 49
0.15748031496
 74
     0
 49
-0.03937007874
 74
     0
 49
0.03937007874
 74
     0
 49
-0.03937007874
 74
     0
 49
0.03937007874
 74
     0
 49
-0.03937007874
 74
     0
  0
LTYPE
  5
1D7
330
5
100
AcDbSymbolTableRecord
100
AcDbLinetypeTableRecord
  2
ACANSTGL
 70
     0
  3
_ _ _ _ _
 72
    65
 73
     2
 40
0.11811023622
 49
0.07874015748
 74
     0
 49
-0.03937007874
 74
     0
  0
ENDTAB
  0
TABLE
  2
LAYER
  5
2
330
0
100
AcDbSymbolTable
 70
     5
  0
LAYER
  5
10
330
2
100
AcDbSymbolTableRecord
100
AcDbLayerTableRecord
  2
0
 70
     0
 62
     7
  6
CONTINUOUS
370
    -3
390
F
  0
LAYER
  5
26
330
2
100
AcDbSymbolTableRecord
100
AcDbLayerTableRecord
  2
1
 70
     0
 62
     1
  6
ITTEN1
370
    -3
390
F
  0
LAYER
  5
27
330
2
100
AcDbSymbolTableRecord
100
AcDbLayerTableRecord
  2
2
 70
     0
 62
     7
  6
TENSEN2
370
    -3
390
F
  0
LAYER
  5
28
330
2
100
AcDbSymbolTableRecord
100
AcDbLayerTableRecord
  2
3
 70
     0
 62
     7
  6
CONTINUOUS
370
    -3
390
F
  0
LAYER
  5
1D8
330
2
100
AcDbSymbolTableRecord
100
AcDbLayerTableRecord
  2
DEFPOINTS
 70
     0
 62
    -7
  6
CONTINUOUS
290
     0
370
    -3
390
F
  0
ENDTAB
  0
TABLE
  2
STYLE
  5
3
330
0
100
AcDbSymbolTable
 70
     5
  0
STYLE
  5
11
330
3
100
AcDbSymbolTableRecord
100
AcDbTextStyleTableRecord
  2
STANDARD
 70
     0
 40
0.0
 41
1.0
 50
0.0
 71
     0
 42
0.2
  3
txt
  4

  0
STYLE
  5
22
330
3
100
AcDbSymbolTableRecord
100
AcDbTextStyleTableRecord
  2
BIGFONT
 70
     0
 40
17.0
 41
1.0
 50
0.0
 71
     0
 42
17.0
  3

  4
bigfont
  0
STYLE
  5
177
330
3
100
AcDbSymbolTableRecord
100
AcDbTextStyleTableRecord
  2

 70
     1
 40
0.0
 41
1.0
 50
0.0
 71
     0
 42
17.0
  3
ltypeshp.shx
  4

  0
STYLE
  5
1D9
330
3
100
AcDbSymbolTableRecord
100
AcDbTextStyleTableRecord
  2
ACANSTS
 70
     0
 40
1.0
 41
1.0
 50
0.0
 71
     0
 42
3.5
  3
romans.shx
  4
extfont.shx
  0
STYLE
  5
1DA
330
3
100
AcDbSymbolTableRecord
100
AcDbTextStyleTableRecord
  2
ACANSGDT
 70
     0
 40
0.0
 41
1.0
 50
0.0
 71
     0
 42
3.5
  3
amgdtans.shx
  4

  0
ENDTAB
  0
TABLE
  2
VIEW
  5
6
330
0
100
AcDbSymbolTable
 70
     0
  0
ENDTAB
  0
TABLE
  2
UCS
  5
7
330
0
100
AcDbSymbolTable
 70
     0
  0
ENDTAB
  0
TABLE
  2
APPID
  5
9
330
0
100
AcDbSymbolTable
 70
    12
  0
APPID
  5
12
330
9
100
AcDbSymbolTableRecord
100
AcDbRegAppTableRecord
  2
ACAD
 70
     0
  0
APPID
  5
A9
330
9
100
AcDbSymbolTableRecord
100
AcDbRegAppTableRecord
  2
GENIUS_GENDIM_13
 70
     0
  0
APPID
  5
AA
330
9
100
AcDbSymbolTableRecord
100
AcDbRegAppTableRecord
  2
GENIUS_GENDTOL_13
 70
     0
  0
APPID
  5
AB
330
9
100
AcDbSymbolTableRecord
100
AcDbRegAppTableRecord
  2
GENIUS_GE3DTOL_13
 70
     0
  0
APPID
  5
AD
330
9
100
AcDbSymbolTableRecord
100
AcDbRegAppTableRecord
  2
MCAD_NO_VIS
 70
     0
  0
APPID
  5
AE
330
9
100
AcDbSymbolTableRecord
100
AcDbRegAppTableRecord
  2
ACAD_TEMP_GRAPHIC
 70
     0
  0
APPID
  5
E1
330
9
100
AcDbSymbolTableRecord
100
AcDbRegAppTableRecord
  2
AD_DRAW
 70
     0
  0
APPID
  5
E4
330
9
100
AcDbSymbolTableRecord
100
AcDbRegAppTableRecord
  2
ACATTRIBSERVICES
 70
     0
  0
APPID
  5
130
330
9
100
AcDbSymbolTableRecord
100
AcDbRegAppTableRecord
  2
ASURF_PCURVE_APPNAME
 70
     0
  0
APPID
  5
15F
330
9
100
AcDbSymbolTableRecord
100
AcDbRegAppTableRecord
  2
DESIGNERASSEMBLIES
 70
     0
  0
APPID
  5
167
330
9
100
AcDbSymbolTableRecord
100
AcDbRegAppTableRecord
  2
ACADM_DIM_EDIT
 70
     0
  0
APPID
  5
168
330
9
100
AcDbSymbolTableRecord
100
AcDbRegAppTableRecord
  2
AMDT_DM_ADJ
 70
     0
  0
ENDTAB
  0
TABLE
  2
DIMSTYLE
  5
A
330
0
100
AcDbSymbolTable
 70
     7
100
AcDbDimStyleTable
 71
     1
340
29
  0
DIMSTYLE
105
29
330
A
100
AcDbSymbolTableRecord
100
AcDbDimStyleTableRecord
  2
STANDARD
 70
     0
279
     2
340
22
  0
DIMSTYLE
105
1DB
330
A
100
AcDbSymbolTableRecord
100
AcDbDimStyleTableRecord
  2
AM_ANSI
 70
     0
  4
mm
 41
0.1
 42
0.05
 43
0.5
 44
0.1
 47
0.1
 48
0.1
 78
     7
 79
     2
140
0.12
141
0.0
146
0.71
147
0.06
176
   256
177
   256
178
     2
274
     4
284
     7
340
11
371
    -1
372
    -1
  0
DIMSTYLE
105
1DC
330
A
100
AcDbSymbolTableRecord
100
AcDbDimStyleTableRecord
  2
AM_ANSI$3
 70
     0
  4
mm
 41
0.1
 42
0.05
 43
0.5
 44
0.1
 47
0.1
 48
0.1
 78
     7
 79
     2
140
0.12
141
0.0
146
0.71
147
0.06
176
   256
177
   256
178
     2
274
     4
284
     7
288
     1
289
     0
340
11
371
    -1
372
    -1
  0
DIMSTYLE
105
1DD
330
A
100
AcDbSymbolTableRecord
100
AcDbDimStyleTableRecord
  2
AM_ANSI$4
 70
     0
  4
mm
 41
0.1
 42
0.05
 43
0.5
 44
0.1
 47
0.1
 48
0.1
 78
     7
 79
     2
140
0.12
141
0.0
146
0.71
147
0.06
176
   256
177
   256
178
     2
274
     4
284
     7
288
     1
289
     0
340
11
371
    -1
372
    -1
  0
DIMSTYLE
105
1DE
330
A
100
AcDbSymbolTableRecord
100
AcDbDimStyleTableRecord
  2
AM_ANSI$7
 70
     0
  4
mm
 41
0.1
 42
0.05
 43
0.5
 44
0.1
 47
0.1
 48
0.1
 78
     7
 79
     2
140
0.24
141
0.0
146
0.71
147
0.06
176
   256
177
   256
178
     2
274
     4
284
     7
340
11
371
    -1
372
    -1
  0
DIMSTYLE
105
1DF
330
A
100
AcDbSymbolTableRecord
100
AcDbDimStyleTableRecord
  2
AM_ANSI$SF
 70
     0
  4
mm
 41
0.1
 42
0.05
 43
0.5
 44
0.1
 47
0.1
 48
0.1
 75
     1
 76
     1
 78
     7
 79
     2
140
0.12
141
0.0
146
0.71
147
0.06
176
   256
177
   256
178
     2
274
     4
284
     7
340
11
371
    -1
372
    -1
  0
DIMSTYLE
105
1E0
330
A
100
AcDbSymbolTableRecord
100
AcDbDimStyleTableRecord
  2
AM_ANSI$SH
 70
     0
  4
mm
 41
0.1
 42
0.05
 43
0.5
 44
0.1
 47
0.1
 48
0.1
 75
     1
 76
     1
 78
     7
 79
     2
140
0.12
141
0.0
146
0.71
147
0.06
173
     1
176
   256
177
   256
178
     2
274
     4
284
     7
340
11
341
186
343
186
371
    -1
372
    -1
  0
ENDTAB
  0
TABLE
  2
BLOCK_RECORD
  5
1
330
0
100
AcDbSymbolTable
 70
    16
  0
BLOCK_RECORD
  5
1E
102
{ACAD_XDICTIONARY
360
339
102
}
330
1
100
AcDbSymbolTableRecord
100
AcDbBlockTableRecord
  2
*Model_Space
340
21
  0
BLOCK_RECORD
  5
1A
330
1
100
AcDbSymbolTableRecord
100
AcDbBlockTableRecord
  2
*Paper_Space
340
1D
  0
BLOCK_RECORD
  5
156
330
1
100
AcDbSymbolTableRecord
100
AcDbBlockTableRecord
  2
*U0
340
0
  0
BLOCK_RECORD
  5
186
330
1
100
AcDbSymbolTableRecord
100
AcDbBlockTableRecord
  2
GENAXEH
340
0
  0
BLOCK_RECORD
  5
18A
330
1
100
AcDbSymbolTableRecord
100
AcDbBlockTableRecord
  2
*D2
340
0
  0
BLOCK_RECORD
  5
198
330
1
100
AcDbSymbolTableRecord
100
AcDbBlockTableRecord
  2
*D3
340
0
  0
BLOCK_RECORD
  5
1A4
330
1
100
AcDbSymbolTableRecord
100
AcDbBlockTableRecord
  2
*D4
340
0
  0
BLOCK_RECORD
  5
1B0
330
1
100
AcDbSymbolTableRecord
100
AcDbBlockTableRecord
  2
*D5
340
0
  0
BLOCK_RECORD
  5
1BC
330
1
100
AcDbSymbolTableRecord
100
AcDbBlockTableRecord
  2
*D6
340
0
  0
BLOCK_RECORD
  5
1C8
330
1
100
AcDbSymbolTableRecord
100
AcDbBlockTableRecord
  2
*D7
340
0
  0
BLOCK_RECORD
  5
262
330
1
100
AcDbSymbolTableRecord
100
AcDbBlockTableRecord
  2
*D9
340
0
  0
BLOCK_RECORD
  5
26F
330
1
100
AcDbSymbolTableRecord
100
AcDbBlockTableRecord
  2
*D10
340
0
  0
BLOCK_RECORD
  5
27C
330
1
100
AcDbSymbolTableRecord
100
AcDbBlockTableRecord
  2
*D11
340
0
  0
BLOCK_RECORD
  5
289
330
1
100
AcDbSymbolTableRecord
100
AcDbBlockTableRecord
  2
*D12
340
0
  0
BLOCK_RECORD
  5
296
330
1
100
AcDbSymbolTableRecord
100
AcDbBlockTableRecord
  2
*D13
340
0
  0
BLOCK_RECORD
  5
2A2
330
1
100
AcDbSymbolTableRecord
100
AcDbBlockTableRecord
  2
*D14
340
0
  0
BLOCK_RECORD
  5
32C
330
1
100
AcDbSymbolTableRecord
100
AcDbBlockTableRecord
  2
*D15
340
0
  0
ENDTAB
  0
ENDSEC
  0
SECTION
  2
BLOCKS
  0
BLOCK
  5
1F
330
1E
100
AcDbEntity
  8
0
100
AcDbBlockBegin
  2
*Model_Space
 70
     0
 10
0.0
 20
0.0
 30
0.0
  3
*Model_Space
  1

  0
ENDBLK
  5
20
330
1E
100
AcDbEntity
  8
0
100
AcDbBlockEnd
  0
BLOCK
  5
1B
330
1A
100
AcDbEntity
 67
     1
  8
0
100
AcDbBlockBegin
  2
*Paper_Space
 70
     0
 10
0.0
 20
0.0
 30
0.0
  3
*Paper_Space
  1

  0
ENDBLK
  5
1C
330
1A
100
AcDbEntity
 67
     1
  8
0
100
AcDbBlockEnd
  0
BLOCK
  5
157
330
156
100
AcDbEntity
  8
0
100
AcDbBlockBegin
  2
*U0
 70
     1
 10
0.0
 20
0.0
 30
0.0
  3
*U0
  1

  0
ENDBLK
  5
158
330
156
100
AcDbEntity
  8
0
100
AcDbBlockEnd
  0
BLOCK
  5
188
330
186
100
AcDbEntity
  8
0
100
AcDbBlockBegin
  2
GENAXEH
 70
     0
 10
0.0
 20
0.0
 30
0.0
  3
GENAXEH
  1

  0
LINE
  5
187
330
186
100
AcDbEntity
  8
0
100
AcDbLine
 10
-1.0
 20
0.0
 30
0.0
 11
1.0
 21
0.0
 31
0.0
  0
ENDBLK
  5
189
330
186
100
AcDbEntity
  8
0
100
AcDbBlockEnd
  0
BLOCK
  5
196
330
18A
100
AcDbEntity
  8
0
100
AcDbBlockBegin
  2
*D2
 70
     1
 10
0.0
 20
0.0
 30
0.0
  3
*D2
  1

  0
LINE
  5
18B
330
18A
100
AcDbEntity
  8
0
 62
     0
370
    -2
100
AcDbLine
 10
103.5525031768173
 20
100.3673539296437
 30
0.0
 11
91.77573477724449
 21
100.3673539296438
 31
0.0
  0
LINE
  5
18C
330
18A
100
AcDbEntity
  8
0
 62
     0
370
    -2
100
AcDbLine
 10
103.5525031768173
 20
98.3673539296438
 30
0.0
 11
91.77573477724449
 21
98.36735392964381
 31
0.0
  0
LINE
  5
18D
330
18A
100
AcDbEntity
  8
0
 62
     0
370
    -2
100
AcDbLine
 10
91.97573477724448
 20
96.36735392964382
 30
0.0
 11
91.97573477724446
 21
94.36735392964381
 31
0.0
  0
LINE
  5
18E
330
18A
100
AcDbEntity
  8
0
 62
     0
370
    -2
100
AcDbLine
 10
91.97573477724448
 20
102.3673539296438
 30
0.0
 11
91.97573477724448
 21
108.2368858881867
 31
0.0
  0
LINE
  5
18F
330
18A
100
AcDbEntity
  8
0
 62
     0
370
    -2
100
AcDbLine
 10
91.97573477724448
 20
108.2368858881867
 30
0.0
 11
93.47573477724449
 21
108.2368858881867
 31
0.0
  0
SOLID
  5
190
330
18A
100
AcDbEntity
  8
0
 62
     0
100
AcDbTrace
 10
91.64240144391115
 20
96.36735392964382
 30
0.0
 11
92.30906811057781
 21
96.36735392964382
 31
0.0
 12
91.97573477724448
 22
98.36735392964381
 32
0.0
 13
91.97573477724448
 23
98.36735392964381
 33
0.0
  0
SOLID
  5
191
330
18A
100
AcDbEntity
  8
0
 62
     0
100
AcDbTrace
 10
91.64240144391115
 20
102.3673539296438
 30
0.0
 11
92.30906811057781
 21
102.3673539296438
 31
0.0
 12
91.97573477724448
 22
100.3673539296438
 32
0.0
 13
91.97573477724448
 23
100.3673539296438
 33
0.0
  0
MTEXT
  5
192
330
18A
100
AcDbEntity
  8
0
 62
     0
100
AcDbMText
 10
92.77573477724445
 20
109.8368858881867
 30
0.0
 40
3.0
 41
0.0
 71
     5
 72
     1
  1
\A1;2
 73
     1
 44
1.0
  0
POINT
  5
193
330
18A
100
AcDbEntity
  8
DEFPOINTS
 62
     0
100
AcDbPoint
 10
103.6525031768174
 20
100.3673539296437
 30
0.0
  0
POINT
  5
194
330
18A
100
AcDbEntity
  8
DEFPOINTS
 62
     0
100
AcDbPoint
 10
103.6525031768174
 20
98.3673539296438
 30
0.0
  0
POINT
  5
195
330
18A
100
AcDbEntity
  8
DEFPOINTS
 62
     0
100
AcDbPoint
 10
91.97573477724448
 20
98.36735392964381
 30
0.0
  0
ENDBLK
  5
197
330
18A
100
AcDbEntity
  8
0
100
AcDbBlockEnd
  0
BLOCK
  5
1A2
330
198
100
AcDbEntity
  8
0
100
AcDbBlockBegin
  2
*D3
 70
     1
 10
0.0
 20
0.0
 30
0.0
  3
*D3
  1

  0
LINE
  5
199
330
198
100
AcDbEntity
  8
0
 62
     0
370
    -2
100
AcDbLine
 10
109.6525031768173
 20
100.4673539296437
 30
0.0
 11
109.6525031768173
 21
127.6892325151902
 31
0.0
  0
LINE
  5
19A
330
198
100
AcDbEntity
  8
0
 62
     0
370
    -2
100
AcDbLine
 10
103.6525031768174
 20
113.4673539296437
 30
0.0
 11
103.6525031768174
 21
127.6892325151902
 31
0.0
  0
LINE
  5
19B
330
198
100
AcDbEntity
  8
0
 62
     0
370
    -2
100
AcDbLine
 10
107.6525031768173
 20
127.4892325151902
 30
0.0
 11
105.6525031768174
 21
127.4892325151902
 31
0.0
  0
SOLID
  5
19C
330
198
100
AcDbEntity
  8
0
 62
     0
100
AcDbTrace
 10
107.6525031768173
 20
127.8225658485235
 30
0.0
 11
107.6525031768173
 21
127.1558991818569
 31
0.0
 12
109.6525031768173
 22
127.4892325151902
 32
0.0
 13
109.6525031768173
 23
127.4892325151902
 33
0.0
  0
SOLID
  5
19D
330
198
100
AcDbEntity
  8
0
 62
     0
100
AcDbTrace
 10
105.6525031768174
 20
127.8225658485235
 30
0.0
 11
105.6525031768174
 21
127.1558991818569
 31
0.0
 12
103.6525031768174
 22
127.4892325151902
 32
0.0
 13
103.6525031768174
 23
127.4892325151902
 33
0.0
  0
MTEXT
  5
19E
330
198
100
AcDbEntity
  8
0
 62
     0
100
AcDbMText
 10
106.850773876369
 20
129.0892325151902
 30
0.0
 40
3.0
 41
0.0
 71
     5
 72
     1
  1
\A1;6
 73
     1
 44
1.0
  0
POINT
  5
19F
330
198
100
AcDbEntity
  8
DEFPOINTS
 62
     0
100
AcDbPoint
 10
109.6525031768173
 20
100.3673539296437
 30
0.0
  0
POINT
  5
1A0
330
198
100
AcDbEntity
  8
DEFPOINTS
 62
     0
100
AcDbPoint
 10
103.6525031768174
 20
113.3673539296438
 30
0.0
  0
POINT
  5
1A1
330
198
100
AcDbEntity
  8
DEFPOINTS
 62
     0
100
AcDbPoint
 10
103.6525031768174
 20
127.4892325151902
 30
0.0
  0
ENDBLK
  5
1A3
330
198
100
AcDbEntity
  8
0
100
AcDbBlockEnd
  0
BLOCK
  5
1AE
330
1A4
100
AcDbEntity
  8
0
100
AcDbBlockBegin
  2
*D4
 70
     1
 10
0.0
 20
0.0
 30
0.0
  3
*D4
  1

  0
LINE
  5
1A5
330
1A4
100
AcDbEntity
  8
0
 62
     0
370
    -2
100
AcDbLine
 10
57.8809681360648
 20
114.3673539296438
 30
0.0
 11
24.65711741785259
 21
114.3673539296438
 31
0.0
  0
LINE
  5
1A6
330
1A4
100
AcDbEntity
  8
0
 62
     0
370
    -2
100
AcDbLine
 10
57.8809681360648
 20
84.36735392964379
 30
0.0
 11
24.65711741785258
 21
84.36735392964381
 31
0.0
  0
LINE
  5
1A7
330
1A4
100
AcDbEntity
  8
0
 62
     0
370
    -2
100
AcDbLine
 10
24.85711741785259
 20
112.3673539296438
 30
0.0
 11
24.85711741785259
 21
86.3673539296438
 31
0.0
  0
SOLID
  5
1A8
330
1A4
100
AcDbEntity
  8
0
 62
     0
100
AcDbTrace
 10
24.52378408451926
 20
112.3673539296438
 30
0.0
 11
25.19045075118592
 21
112.3673539296438
 31
0.0
 12
24.85711741785259
 22
114.3673539296438
 32
0.0
 13
24.85711741785259
 23
114.3673539296438
 33
0.0
  0
SOLID
  5
1A9
330
1A4
100
AcDbEntity
  8
0
 62
     0
100
AcDbTrace
 10
24.52378408451926
 20
86.3673539296438
 30
0.0
 11
25.19045075118592
 21
86.3673539296438
 31
0.0
 12
24.85711741785259
 22
84.36735392964381
 32
0.0
 13
24.85711741785259
 23
84.36735392964381
 33
0.0
  0
MTEXT
  5
1AA
330
1A4
100
AcDbEntity
  8
0
 62
     0
100
AcDbMText
 10
23.25711741785257
 20
99.36735392964379
 30
0.0
 40
3.0
 41
0.0
 71
     5
 72
     1
  1
\A1;30
 11
0.0000000000000001
 21
1.0
 31
0.0
 73
     1
 44
1.0
  0
POINT
  5
1AB
330
1A4
100
AcDbEntity
  8
DEFPOINTS
 62
     0
100
AcDbPoint
 10
57.9809681360648
 20
114.3673539296438
 30
0.0
  0
POINT
  5
1AC
330
1A4
100
AcDbEntity
  8
DEFPOINTS
 62
     0
100
AcDbPoint
 10
57.9809681360648
 20
84.36735392964379
 30
0.0
  0
POINT
  5
1AD
330
1A4
100
AcDbEntity
  8
DEFPOINTS
 62
     0
100
AcDbPoint
 10
24.85711741785259
 20
84.36735392964381
 30
0.0
  0
ENDBLK
  5
1AF
330
1A4
100
AcDbEntity
  8
0
100
AcDbBlockEnd
  0
BLOCK
  5
1BA
330
1B0
100
AcDbEntity
  8
0
100
AcDbBlockBegin
  2
*D5
 70
     1
 10
0.0
 20
0.0
 30
0.0
  3
*D5
  1

  0
LINE
  5
1B1
330
1B0
100
AcDbEntity
  8
0
 62
     0
370
    -2
100
AcDbLine
 10
117.6525031768173
 20
114.4673539296438
 30
0.0
 11
117.6525031768173
 21
149.1654072615789
 31
0.0
  0
LINE
  5
1B2
330
1B0
100
AcDbEntity
  8
0
 62
     0
370
    -2
100
AcDbLine
 10
247.6525031768173
 20
105.9673539296438
 30
0.0
 11
247.6525031768173
 21
149.1654072615789
 31
0.0
  0
LINE
  5
1B3
330
1B0
100
AcDbEntity
  8
0
 62
     0
370
    -2
100
AcDbLine
 10
119.6525031768173
 20
148.965407261579
 30
0.0
 11
245.6525031768173
 21
148.965407261579
 31
0.0
  0
SOLID
  5
1B4
330
1B0
100
AcDbEntity
  8
0
 62
     0
100
AcDbTrace
 10
119.6525031768173
 20
149.2987405949123
 30
0.0
 11
119.6525031768173
 21
148.6320739282456
 31
0.0
 12
117.6525031768173
 22
148.965407261579
 32
0.0
 13
117.6525031768173
 23
148.965407261579
 33
0.0
  0
SOLID
  5
1B5
330
1B0
100
AcDbEntity
  8
0
 62
     0
100
AcDbTrace
 10
245.6525031768173
 20
149.2987405949123
 30
0.0
 11
245.6525031768173
 21
148.6320739282456
 31
0.0
 12
247.6525031768173
 22
148.965407261579
 32
0.0
 13
247.6525031768173
 23
148.965407261579
 33
0.0
  0
MTEXT
  5
1B6
330
1B0
100
AcDbEntity
  8
0
 62
     0
100
AcDbMText
 10
190.0057637021451
 20
150.565407261579
 30
0.0
 40
3.0
 41
0.0
 71
     5
 72
     1
  1
\A1;130
 73
     1
 44
1.0
  0
POINT
  5
1B7
330
1B0
100
AcDbEntity
  8
DEFPOINTS
 62
     0
100
AcDbPoint
 10
117.6525031768173
 20
114.3673539296438
 30
0.0
  0
POINT
  5
1B8
330
1B0
100
AcDbEntity
  8
DEFPOINTS
 62
     0
100
AcDbPoint
 10
247.6525031768173
 20
105.8673539296437
 30
0.0
  0
POINT
  5
1B9
330
1B0
100
AcDbEntity
  8
DEFPOINTS
 62
     0
100
AcDbPoint
 10
247.6525031768173
 20
148.965407261579
 30
0.0
  0
ENDBLK
  5
1BB
330
1B0
100
AcDbEntity
  8
0
100
AcDbBlockEnd
  0
BLOCK
  5
1C6
330
1BC
100
AcDbEntity
  8
0
100
AcDbBlockBegin
  2
*D6
 70
     1
 10
0.0
 20
0.0
 30
0.0
  3
*D6
  1

  0
LINE
  5
1BD
330
1BC
100
AcDbEntity
  8
0
 62
     0
370
    -2
100
AcDbLine
 10
117.6525031768173
 20
113.4673539296437
 30
0.0
 11
117.6525031768173
 21
135.2683229075395
 31
0.0
  0
LINE
  5
1BE
330
1BC
100
AcDbEntity
  8
0
 62
     0
370
    -2
100
AcDbLine
 10
103.6525031768174
 20
112.4673539296437
 30
0.0
 11
103.6525031768174
 21
135.2683229075395
 31
0.0
  0
LINE
  5
1BF
330
1BC
100
AcDbEntity
  8
0
 62
     0
370
    -2
100
AcDbLine
 10
115.6525031768173
 20
135.0683229075396
 30
0.0
 11
105.6525031768174
 21
135.0683229075396
 31
0.0
  0
SOLID
  5
1C0
330
1BC
100
AcDbEntity
  8
0
 62
     0
100
AcDbTrace
 10
115.6525031768173
 20
135.4016562408729
 30
0.0
 11
115.6525031768173
 21
134.7349895742062
 31
0.0
 12
117.6525031768173
 22
135.0683229075396
 32
0.0
 13
117.6525031768173
 23
135.0683229075396
 33
0.0
  0
SOLID
  5
1C1
330
1BC
100
AcDbEntity
  8
0
 62
     0
100
AcDbTrace
 10
105.6525031768174
 20
135.4016562408729
 30
0.0
 11
105.6525031768174
 21
134.7349895742062
 31
0.0
 12
103.6525031768174
 22
135.0683229075396
 32
0.0
 13
103.6525031768174
 23
135.0683229075396
 33
0.0
  0
MTEXT
  5
1C2
330
1BC
100
AcDbEntity
  8
0
 62
     0
100
AcDbMText
 10
109.5666476800208
 20
136.6683229075395
 30
0.0
 40
3.0
 41
0.0
 71
     5
 72
     1
  1
\A1;14
 73
     1
 44
1.0
  0
POINT
  5
1C3
330
1BC
100
AcDbEntity
  8
DEFPOINTS
 62
     0
100
AcDbPoint
 10
117.6525031768173
 20
113.3673539296438
 30
0.0
  0
POINT
  5
1C4
330
1BC
100
AcDbEntity
  8
DEFPOINTS
 62
     0
100
AcDbPoint
 10
103.6525031768174
 20
112.3673539296438
 30
0.0
  0
POINT
  5
1C5
330
1BC
100
AcDbEntity
  8
DEFPOINTS
 62
     0
100
AcDbPoint
 10
103.6525031768174
 20
135.0683229075396
 30
0.0
  0
ENDBLK
  5
1C7
330
1BC
100
AcDbEntity
  8
0
100
AcDbBlockEnd
  0
BLOCK
  5
1D2
330
1C8
100
AcDbEntity
  8
0
100
AcDbBlockBegin
  2
*D7
 70
     1
 10
0.0
 20
0.0
 30
0.0
  3
*D7
  1

  0
LINE
  5
1C9
330
1C8
100
AcDbEntity
  8
0
 62
     0
370
    -2
100
AcDbLine
 10
103.6525031768174
 20
112.4673539296437
 30
0.0
 11
103.6525031768174
 21
162.309452202986
 31
0.0
  0
LINE
  5
1CA
330
1C8
100
AcDbEntity
  8
0
 62
     0
370
    -2
100
AcDbLine
 10
247.6525031768173
 20
105.9673539296438
 30
0.0
 11
247.6525031768173
 21
162.309452202986
 31
0.0
  0
LINE
  5
1CB
330
1C8
100
AcDbEntity
  8
0
 62
     0
370
    -2
100
AcDbLine
 10
105.6525031768174
 20
162.109452202986
 30
0.0
 11
245.6525031768173
 21
162.109452202986
 31
0.0
  0
SOLID
  5
1CC
330
1C8
100
AcDbEntity
  8
0
 62
     0
100
AcDbTrace
 10
105.6525031768174
 20
162.4427855363194
 30
0.0
 11
105.6525031768174
 21
161.7761188696527
 31
0.0
 12
103.6525031768174
 22
162.109452202986
 32
0.0
 13
103.6525031768174
 23
162.109452202986
 33
0.0
  0
SOLID
  5
1CD
330
1C8
100
AcDbEntity
  8
0
 62
     0
100
AcDbTrace
 10
245.6525031768173
 20
162.4427855363194
 30
0.0
 11
245.6525031768173
 21
161.7761188696527
 31
0.0
 12
247.6525031768173
 22
162.109452202986
 32
0.0
 13
247.6525031768173
 23
162.109452202986
 33
0.0
  0
MTEXT
  5
1CE
330
1C8
100
AcDbEntity
  8
0
 62
     0
100
AcDbMText
 10
168.7426118883635
 20
163.709452202986
 30
0.0
 40
3.0
 41
0.0
 71
     5
 72
     1
  1
\A1;144
 73
     1
 44
1.0
  0
POINT
  5
1CF
330
1C8
100
AcDbEntity
  8
DEFPOINTS
 62
     0
100
AcDbPoint
 10
103.6525031768174
 20
112.3673539296438
 30
0.0
  0
POINT
  5
1D0
330
1C8
100
AcDbEntity
  8
DEFPOINTS
 62
     0
100
AcDbPoint
 10
247.6525031768173
 20
105.8673539296437
 30
0.0
  0
POINT
  5
1D1
330
1C8
100
AcDbEntity
  8
DEFPOINTS
 62
     0
100
AcDbPoint
 10
247.6525031768173
 20
162.109452202986
 30
0.0
  0
ENDBLK
  5
1D3
330
1C8
100
AcDbEntity
  8
0
100
AcDbBlockEnd
  0
BLOCK
  5
26D
330
262
100
AcDbEntity
  8
0
100
AcDbBlockBegin
  2
*D9
 70
     1
 10
0.0
 20
0.0
 30
0.0
  3
*D9
  1

  0
LINE
  5
2B8
330
262
100
AcDbEntity
  8
0
 62
     0
370
    -2
100
AcDbLine
 10
181.7790542638094
 20
263.3195504249308
 30
0.0
 11
181.7790542638094
 21
313.161648698273
 31
0.0
  0
LINE
  5
2B9
330
262
100
AcDbEntity
  8
0
 62
     0
370
    -2
100
AcDbLine
 10
325.7790542638093
 20
256.8195504249308
 30
0.0
 11
325.7790542638093
 21
313.161648698273
 31
0.0
  0
LINE
  5
2BA
330
262
100
AcDbEntity
  8
0
 62
     0
370
    -2
100
AcDbLine
 10
183.7790542638094
 20
312.961648698273
 30
0.0
 11
226.9358296420222
 21
312.961648698273
 31
0.0
  0
LINE
  5
2BB
330
262
100
AcDbEntity
  8
0
 62
     0
370
    -2
100
AcDbLine
 10
323.7790542638093
 20
312.961648698273
 30
0.0
 11
266.8024963086888
 21
312.961648698273
 31
0.0
  0
MTEXT
  5
2BC
330
262
100
AcDbEntity
  8
0
 62
     0
100
AcDbMText
 10
246.8691629753555
 20
312.961648698273
 30
0.0
 40
17.0
 41
0.0
 71
     5
 72
     1
  1
\A1;144
  7
BIGFONT
 73
     1
 44
1.0
  0
SOLID
  5
2BD
330
262
100
AcDbEntity
  8
0
 62
     0
100
AcDbTrace
 10
183.7790542638094
 20
313.2949820316063
 30
0.0
 11
183.7790542638094
 21
312.6283153649397
 31
0.0
 12
181.7790542638094
 22
312.961648698273
 32
0.0
 13
181.7790542638094
 23
312.961648698273
 33
0.0
  0
SOLID
  5
2BE
330
262
100
AcDbEntity
  8
0
 62
     0
100
AcDbTrace
 10
323.7790542638093
 20
313.2949820316063
 30
0.0
 11
323.7790542638093
 21
312.6283153649397
 31
0.0
 12
325.7790542638093
 22
312.961648698273
 32
0.0
 13
325.7790542638093
 23
312.961648698273
 33
0.0
  0
POINT
  5
2BF
330
262
100
AcDbEntity
  8
DEFPOINTS
 62
     0
100
AcDbPoint
 10
181.7790542638094
 20
263.2195504249308
 30
0.0
  0
POINT
  5
2C0
330
262
100
AcDbEntity
  8
DEFPOINTS
 62
     0
100
AcDbPoint
 10
325.7790542638093
 20
256.7195504249307
 30
0.0
  0
POINT
  5
2C1
330
262
100
AcDbEntity
  8
DEFPOINTS
 62
     0
100
AcDbPoint
 10
325.7790542638093
 20
312.961648698273
 30
0.0
  0
ENDBLK
  5
26E
330
262
100
AcDbEntity
  8
0
100
AcDbBlockEnd
  0
BLOCK
  5
27A
330
26F
100
AcDbEntity
  8
0
100
AcDbBlockBegin
  2
*D10
 70
     1
 10
0.0
 20
0.0
 30
0.0
  3
*D10
  1

  0
LINE
  5
2CC
330
26F
100
AcDbEntity
  8
0
 62
     0
370
    -2
100
AcDbLine
 10
195.7790542638093
 20
265.3195504249308
 30
0.0
 11
195.7790542638093
 21
300.0176037568659
 31
0.0
  0
LINE
  5
2CD
330
26F
100
AcDbEntity
  8
0
 62
     0
370
    -2
100
AcDbLine
 10
325.7790542638093
 20
256.8195504249308
 30
0.0
 11
325.7790542638093
 21
300.0176037568659
 31
0.0
  0
LINE
  5
2CE
330
26F
100
AcDbEntity
  8
0
 62
     0
370
    -2
100
AcDbLine
 10
197.7790542638093
 20
299.817603756866
 30
0.0
 11
249.6156481224705
 21
299.817603756866
 31
0.0
  0
LINE
  5
2CF
330
26F
100
AcDbEntity
  8
0
 62
     0
370
    -2
100
AcDbLine
 10
323.7790542638093
 20
299.817603756866
 30
0.0
 11
286.6489814558038
 21
299.817603756866
 31
0.0
  0
MTEXT
  5
2D0
330
26F
100
AcDbEntity
  8
0
 62
     0
100
AcDbMText
 10
268.1323147891371
 20
299.817603756866
 30
0.0
 40
17.0
 41
0.0
 71
     5
 72
     1
  1
\A1;130
  7
BIGFONT
 73
     1
 44
1.0
  0
SOLID
  5
2D1
330
26F
100
AcDbEntity
  8
0
 62
     0
100
AcDbTrace
 10
197.7790542638093
 20
300.1509370901993
 30
0.0
 11
197.7790542638093
 21
299.4842704235326
 31
0.0
 12
195.7790542638093
 22
299.817603756866
 32
0.0
 13
195.7790542638093
 23
299.817603756866
 33
0.0
  0
SOLID
  5
2D2
330
26F
100
AcDbEntity
  8
0
 62
     0
100
AcDbTrace
 10
323.7790542638093
 20
300.1509370901993
 30
0.0
 11
323.7790542638093
 21
299.4842704235326
 31
0.0
 12
325.7790542638093
 22
299.817603756866
 32
0.0
 13
325.7790542638093
 23
299.817603756866
 33
0.0
  0
POINT
  5
2D3
330
26F
100
AcDbEntity
  8
DEFPOINTS
 62
     0
100
AcDbPoint
 10
195.7790542638093
 20
265.2195504249307
 30
0.0
  0
POINT
  5
2D4
330
26F
100
AcDbEntity
  8
DEFPOINTS
 62
     0
100
AcDbPoint
 10
325.7790542638093
 20
256.7195504249307
 30
0.0
  0
POINT
  5
2D5
330
26F
100
AcDbEntity
  8
DEFPOINTS
 62
     0
100
AcDbPoint
 10
325.7790542638093
 20
299.817603756866
 30
0.0
  0
ENDBLK
  5
27B
330
26F
100
AcDbEntity
  8
0
100
AcDbBlockEnd
  0
BLOCK
  5
287
330
27C
100
AcDbEntity
  8
0
100
AcDbBlockBegin
  2
*D11
 70
     1
 10
0.0
 20
0.0
 30
0.0
  3
*D11
  1

  0
LINE
  5
2E0
330
27C
100
AcDbEntity
  8
0
 62
     0
370
    -2
100
AcDbLine
 10
181.6790542638094
 20
251.2195504249307
 30
0.0
 11
169.9022858642365
 21
251.2195504249307
 31
0.0
  0
LINE
  5
2E1
330
27C
100
AcDbEntity
  8
0
 62
     0
370
    -2
100
AcDbLine
 10
181.6790542638094
 20
249.2195504249307
 30
0.0
 11
169.9022858642365
 21
249.2195504249307
 31
0.0
  0
LINE
  5
2E2
330
27C
100
AcDbEntity
  8
0
 62
     0
370
    -2
100
AcDbLine
 10
170.1022858642364
 20
253.2195504249307
 30
0.0
 11
170.1022858642364
 21
255.2195504249307
 31
0.0
  0
LINE
  5
2E3
330
27C
100
AcDbEntity
  8
0
 62
     0
370
    -2
100
AcDbLine
 10
170.1022858642364
 20
247.2195504249307
 30
0.0
 11
170.1022858642364
 21
245.2195504249307
 31
0.0
  0
MTEXT
  5
2E4
330
27C
100
AcDbEntity
  8
0
 62
     0
100
AcDbMText
 10
170.9022858642364
 20
259.0890823834737
 30
0.0
 40
17.0
 41
0.0
 71
     5
 72
     1
  1
\A1;2
  7
BIGFONT
 73
     1
 44
1.0
  0
SOLID
  5
2E5
330
27C
100
AcDbEntity
  8
0
 62
     0
100
AcDbTrace
 10
169.7689525309031
 20
253.2195504249307
 30
0.0
 11
170.4356191975698
 21
253.2195504249307
 31
0.0
 12
170.1022858642364
 22
251.2195504249307
 32
0.0
 13
170.1022858642364
 23
251.2195504249307
 33
0.0
  0
SOLID
  5
2E6
330
27C
100
AcDbEntity
  8
0
 62
     0
100
AcDbTrace
 10
169.7689525309031
 20
247.2195504249307
 30
0.0
 11
170.4356191975698
 21
247.2195504249307
 31
0.0
 12
170.1022858642364
 22
249.2195504249307
 32
0.0
 13
170.1022858642364
 23
249.2195504249307
 33
0.0
  0
POINT
  5
2E7
330
27C
100
AcDbEntity
  8
DEFPOINTS
 62
     0
100
AcDbPoint
 10
181.7790542638094
 20
251.2195504249307
 30
0.0
  0
POINT
  5
2E8
330
27C
100
AcDbEntity
  8
DEFPOINTS
 62
     0
100
AcDbPoint
 10
181.7790542638094
 20
249.2195504249307
 30
0.0
  0
POINT
  5
2E9
330
27C
100
AcDbEntity
  8
DEFPOINTS
 62
     0
100
AcDbPoint
 10
170.1022858642364
 20
249.2195504249307
 30
0.0
  0
ENDBLK
  5
288
330
27C
100
AcDbEntity
  8
0
100
AcDbBlockEnd
  0
BLOCK
  5
294
330
289
100
AcDbEntity
  8
0
100
AcDbBlockBegin
  2
*D12
 70
     1
 10
0.0
 20
0.0
 30
0.0
  3
*D12
  1

  0
LINE
  5
2F4
330
289
100
AcDbEntity
  8
0
 62
     0
370
    -2
100
AcDbLine
 10
136.0075192230568
 20
265.2195504249307
 30
0.0
 11
102.7836685048445
 21
265.2195504249308
 31
0.0
  0
LINE
  5
2F5
330
289
100
AcDbEntity
  8
0
 62
     0
370
    -2
100
AcDbLine
 10
136.0075192230568
 20
235.2195504249308
 30
0.0
 11
102.7836685048445
 21
235.2195504249308
 31
0.0
  0
LINE
  5
2F6
330
289
100
AcDbEntity
  8
0
 62
     0
370
    -2
100
AcDbLine
 10
102.9836685048445
 20
263.2195504249308
 30
0.0
 11
102.9836685048445
 21
263.0695504249308
 31
0.0
  0
LINE
  5
2F7
330
289
100
AcDbEntity
  8
0
 62
     0
370
    -2
100
AcDbLine
 10
102.9836685048445
 20
237.2195504249308
 30
0.0
 11
102.9836685048445
 21
237.3695504249307
 31
0.0
  0
MTEXT
  5
2F8
330
289
100
AcDbEntity
  8
0
 62
     0
100
AcDbMText
 10
102.9836685048445
 20
250.2195504249308
 30
0.0
 40
17.0
 41
0.0
 71
     5
 72
     1
  1
\A1;30
  7
BIGFONT
 11
0.0000000000000001
 21
1.0
 31
0.0
 73
     1
 44
1.0
  0
SOLID
  5
2F9
330
289
100
AcDbEntity
  8
0
 62
     0
100
AcDbTrace
 10
102.6503351715112
 20
263.2195504249308
 30
0.0
 11
103.3170018381779
 21
263.2195504249308
 31
0.0
 12
102.9836685048445
 22
265.2195504249308
 32
0.0
 13
102.9836685048445
 23
265.2195504249308
 33
0.0
  0
SOLID
  5
2FA
330
289
100
AcDbEntity
  8
0
 62
     0
100
AcDbTrace
 10
102.6503351715112
 20
237.2195504249308
 30
0.0
 11
103.3170018381779
 21
237.2195504249308
 31
0.0
 12
102.9836685048445
 22
235.2195504249308
 32
0.0
 13
102.9836685048445
 23
235.2195504249308
 33
0.0
  0
POINT
  5
2FB
330
289
100
AcDbEntity
  8
DEFPOINTS
 62
     0
100
AcDbPoint
 10
136.1075192230568
 20
265.2195504249307
 30
0.0
  0
POINT
  5
2FC
330
289
100
AcDbEntity
  8
DEFPOINTS
 62
     0
100
AcDbPoint
 10
136.1075192230568
 20
235.2195504249308
 30
0.0
  0
POINT
  5
2FD
330
289
100
AcDbEntity
  8
DEFPOINTS
 62
     0
100
AcDbPoint
 10
102.9836685048445
 20
235.2195504249308
 30
0.0
  0
ENDBLK
  5
295
330
289
100
AcDbEntity
  8
0
100
AcDbBlockEnd
  0
BLOCK
  5
2A0
330
296
100
AcDbEntity
  8
0
100
AcDbBlockBegin
  2
*D13
 70
     1
 10
0.0
 20
0.0
 30
0.0
  3
*D13
  1

  0
LINE
  5
307
330
296
100
AcDbEntity
  8
0
 62
     0
370
    -2
100
AcDbLine
 10
195.7790542638093
 20
264.3195504249308
 30
0.0
 11
195.7790542638093
 21
286.1205194028265
 31
0.0
  0
LINE
  5
308
330
296
100
AcDbEntity
  8
0
 62
     0
370
    -2
100
AcDbLine
 10
181.7790542638094
 20
263.3195504249308
 30
0.0
 11
181.7790542638094
 21
286.1205194028265
 31
0.0
  0
LINE
  5
309
330
296
100
AcDbEntity
  8
0
 62
     0
370
    -2
100
AcDbLine
 10
193.7790542638094
 20
285.9205194028266
 30
0.0
 11
183.7790542638094
 21
285.9205194028266
 31
0.0
  0
MTEXT
  5
30A
330
296
100
AcDbEntity
  8
0
 62
     0
100
AcDbMText
 10
187.6931987670128
 20
285.9205194028266
 30
0.0
 40
17.0
 41
0.0
 71
     5
 72
     1
  1
\A1;14
  7
BIGFONT
 73
     1
 44
1.0
  0
SOLID
  5
30B
330
296
100
AcDbEntity
  8
0
 62
     0
100
AcDbTrace
 10
193.7790542638094
 20
286.2538527361598
 30
0.0
 11
193.7790542638094
 21
285.5871860694932
 31
0.0
 12
195.7790542638093
 22
285.9205194028266
 32
0.0
 13
195.7790542638093
 23
285.9205194028266
 33
0.0
  0
SOLID
  5
30C
330
296
100
AcDbEntity
  8
0
 62
     0
100
AcDbTrace
 10
183.7790542638094
 20
286.2538527361598
 30
0.0
 11
183.7790542638094
 21
285.5871860694932
 31
0.0
 12
181.7790542638094
 22
285.9205194028266
 32
0.0
 13
181.7790542638094
 23
285.9205194028266
 33
0.0
  0
POINT
  5
30D
330
296
100
AcDbEntity
  8
DEFPOINTS
 62
     0
100
AcDbPoint
 10
195.7790542638093
 20
264.2195504249307
 30
0.0
  0
POINT
  5
30E
330
296
100
AcDbEntity
  8
DEFPOINTS
 62
     0
100
AcDbPoint
 10
181.7790542638094
 20
263.2195504249308
 30
0.0
  0
POINT
  5
30F
330
296
100
AcDbEntity
  8
DEFPOINTS
 62
     0
100
AcDbPoint
 10
181.7790542638094
 20
285.9205194028266
 30
0.0
  0
ENDBLK
  5
2A1
330
296
100
AcDbEntity
  8
0
100
AcDbBlockEnd
  0
BLOCK
  5
2AC
330
2A2
100
AcDbEntity
  8
0
100
AcDbBlockBegin
  2
*D14
 70
     1
 10
0.0
 20
0.0
 30
0.0
  3
*D14
  1

  0
LINE
  5
319
330
2A2
100
AcDbEntity
  8
0
 62
     0
370
    -2
100
AcDbLine
 10
187.7790542638093
 20
251.3195504249307
 30
0.0
 11
187.7790542638093
 21
278.5414290104772
 31
0.0
  0
LINE
  5
31A
330
2A2
100
AcDbEntity
  8
0
 62
     0
370
    -2
100
AcDbLine
 10
181.7790542638094
 20
264.3195504249308
 30
0.0
 11
181.7790542638094
 21
278.5414290104772
 31
0.0
  0
LINE
  5
31B
330
2A2
100
AcDbEntity
  8
0
 62
     0
370
    -2
100
AcDbLine
 10
185.7790542638094
 20
278.3414290104772
 30
0.0
 11
183.7790542638094
 21
278.3414290104772
 31
0.0
  0
MTEXT
  5
31C
330
2A2
100
AcDbEntity
  8
0
 62
     0
100
AcDbMText
 10
184.977324963361
 20
278.3414290104772
 30
0.0
 40
17.0
 41
0.0
 71
     5
 72
     1
  1
\A1;6
  7
BIGFONT
 73
     1
 44
1.0
  0
SOLID
  5
31D
330
2A2
100
AcDbEntity
  8
0
 62
     0
100
AcDbTrace
 10
185.7790542638094
 20
278.6747623438105
 30
0.0
 11
185.7790542638094
 21
278.0080956771438
 31
0.0
 12
187.7790542638093
 22
278.3414290104772
 32
0.0
 13
187.7790542638093
 23
278.3414290104772
 33
0.0
  0
SOLID
  5
31E
330
2A2
100
AcDbEntity
  8
0
 62
     0
100
AcDbTrace
 10
183.7790542638094
 20
278.6747623438105
 30
0.0
 11
183.7790542638094
 21
278.0080956771438
 31
0.0
 12
181.7790542638094
 22
278.3414290104772
 32
0.0
 13
181.7790542638094
 23
278.3414290104772
 33
0.0
  0
POINT
  5
31F
330
2A2
100
AcDbEntity
  8
DEFPOINTS
 62
     0
100
AcDbPoint
 10
187.7790542638093
 20
251.2195504249307
 30
0.0
  0
POINT
  5
320
330
2A2
100
AcDbEntity
  8
DEFPOINTS
 62
     0
100
AcDbPoint
 10
181.7790542638094
 20
264.2195504249307
 30
0.0
  0
POINT
  5
321
330
2A2
100
AcDbEntity
  8
DEFPOINTS
 62
     0
100
AcDbPoint
 10
181.7790542638094
 20
278.3414290104772
 30
0.0
  0
ENDBLK
  5
2AD
330
2A2
100
AcDbEntity
  8
0
100
AcDbBlockEnd
  0
BLOCK
  5
337
330
32C
100
AcDbEntity
  8
0
100
AcDbBlockBegin
  2
*D15
 70
     1
 10
0.0
 20
0.0
 30
0.0
  3
*D15
  1

  0
LINE
  5
32D
330
32C
100
AcDbEntity
  8
0
 62
     0
370
    -2
100
AcDbLine
 10
195.7790542638093
 20
144.2156737032147
 30
0.0
 11
195.7790542638093
 21
180.7905305797412
 31
0.0
  0
LINE
  5
32E
330
32C
100
AcDbEntity
  8
0
 62
     0
370
    -2
100
AcDbLine
 10
181.7790542638094
 20
142.2156737032148
 30
0.0
 11
181.7790542638094
 21
180.7905305797412
 31
0.0
  0
LINE
  5
32F
330
32C
100
AcDbEntity
  8
0
 62
     0
370
    -2
100
AcDbLine
 10
195.5990542638093
 20
180.6105305797412
 30
0.0
 11
189.3190542638093
 21
180.6105305797412
 31
0.0
  0
LINE
  5
330
330
32C
100
AcDbEntity
  8
0
 62
     0
370
    -2
100
AcDbLine
 10
181.9590542638094
 20
180.6105305797412
 30
0.0
 11
188.2390542638093
 21
180.6105305797412
 31
0.0
  0
SOLID
  5
331
330
32C
100
AcDbEntity
  8
0
 62
     0
100
AcDbTrace
 10
195.5990542638093
 20
180.6405305797412
 30
0.0
 11
195.5990542638093
 21
180.5805305797412
 31
0.0
 12
195.7790542638093
 22
180.6105305797412
 32
0.0
 13
195.7790542638093
 23
180.6105305797412
 33
0.0
  0
SOLID
  5
332
330
32C
100
AcDbEntity
  8
0
 62
     0
100
AcDbTrace
 10
181.9590542638094
 20
180.6405305797412
 30
0.0
 11
181.9590542638094
 21
180.5805305797412
 31
0.0
 12
181.7790542638094
 22
180.6105305797412
 32
0.0
 13
181.7790542638094
 23
180.6105305797412
 33
0.0
  0
MTEXT
  5
333
330
32C
100
AcDbEntity
  8
0
 62
     0
100
AcDbMText
 10
188.7790542638094
 20
180.6105305797412
 30
0.0
 40
0.18
 41
0.0
 71
     5
 72
     1
  1
\A1;14.0000
 73
     1
 44
1.0
  0
POINT
  5
334
330
32C
100
AcDbEntity
  8
DEFPOINTS
 62
     0
100
AcDbPoint
 10
195.7790542638093
 20
144.1531737032148
 30
0.0
  0
POINT
  5
335
330
32C
100
AcDbEntity
  8
DEFPOINTS
 62
     0
100
AcDbPoint
 10
181.7790542638094
 20
142.1531737032148
 30
0.0
  0
POINT
  5
336
330
32C
100
AcDbEntity
  8
DEFPOINTS
 62
     0
100
AcDbPoint
 10
181.7790542638094
 20
180.6105305797412
 30
0.0
  0
ENDBLK
  5
338
330
32C
100
AcDbEntity
  8
0
100
AcDbBlockEnd
  0
ENDSEC
  0
SECTION
  2
ENTITIES
  0
TEXT
  5
39
330
1E
100
AcDbEntity
  8
0
100
AcDbText
 10
357.2946794432564
 20
76.41129237044504
 30
0.0
 40
4.25
  1
アイドラーボルト
  7
BIGFONT
100
AcDbText
  0
POLYLINE
  5
52
330
1E
100
AcDbEntity
  8
0
100
AcDb2dPolyline
 66
     1
 10
0.0
 20
0.0
 30
0.0
 70
     1
  0
VERTEX
  5
53
330
52
100
AcDbEntity
  8
0
100
AcDbVertex
100
AcDb2dVertex
 10
359.0015695659018
 20
146.158773447142
 30
0.0
  0
VERTEX
  5
54
330
52
100
AcDbEntity
  8
0
100
AcDbVertex
100
AcDb2dVertex
 10
344.2791377015663
 20
137.658773447142
 30
0.0
  0
VERTEX
  5
55
330
52
100
AcDbEntity
  8
0
100
AcDbVertex
100
AcDb2dVertex
 10
344.2791377015663
 20
120.658773447142
 30
0.0
  0
VERTEX
  5
56
330
52
100
AcDbEntity
  8
0
100
AcDbVertex
100
AcDb2dVertex
 10
359.0015695659018
 20
112.158773447142
 30
0.0
  0
VERTEX
  5
57
330
52
100
AcDbEntity
  8
0
100
AcDbVertex
100
AcDb2dVertex
 10
373.7240014302372
 20
120.658773447142
 30
0.0
  0
VERTEX
  5
58
330
52
100
AcDbEntity
  8
0
100
AcDbVertex
100
AcDb2dVertex
 10
373.7240014302372
 20
137.658773447142
 30
0.0
  0
SEQEND
  5
59
330
52
100
AcDbEntity
  8
0
  0
LINE
  5
5A
330
1E
100
AcDbEntity
  8
0
100
AcDbLine
 10
219.7790542638093
 20
129.1531737032147
 30
0.0
 11
219.7790542638093
 21
142.1531737032148
 31
0.0
  0
LINE
  5
5B
330
1E
100
AcDbEntity
  8
0
100
AcDbLine
 10
220.7790542638093
 20
146.1531737032148
 30
0.0
 11
225.7790542638093
 21
146.1531737032148
 31
0.0
  0
LINE
  5
5C
330
1E
100
AcDbEntity
  8
0
100
AcDbLine
 10
225.7790542638093
 20
137.6531737032148
 30
0.0
 11
220.7790542638093
 21
137.6531737032148
 31
0.0
  0
LINE
  5
5D
330
1E
100
AcDbEntity
  8
0
100
AcDbLine
 10
231.7790542638093
 20
139.1531737032148
 30
0.0
 11
257.2103953917491
 21
139.1531737032148
 31
0.0
  0
LINE
  5
60
330
1E
100
AcDbEntity
  8
0
100
AcDbLine
 10
231.7790542638093
 20
119.1531737032148
 30
0.0
 11
257.2103953917491
 21
119.1531737032148
 31
0.0
  0
LINE
  5
6A
330
1E
100
AcDbEntity
  8
0
100
AcDbLine
 10
225.7790542638093
 20
120.6531737032147
 30
0.0
 11
220.7790542638093
 21
120.6531737032147
 31
0.0
  0
LINE
  5
6B
330
1E
100
AcDbEntity
  8
0
100
AcDbLine
 10
220.7790542638093
 20
112.1531737032148
 30
0.0
 11
225.7790542638093
 21
112.1531737032148
 31
0.0
  0
ARC
  5
6F
330
1E
100
AcDbEntity
  8
0
100
AcDbCircle
 10
256.4040542638093
 20
129.1531737032147
 30
0.0
 40
36.625
100
AcDbArc
 50
166.5803263844861
 51
193.4196736155137
  0
ARC
  5
70
330
1E
100
AcDbEntity
  8
0
100
AcDbCircle
 10
229.2790542638093
 20
141.9031737032148
 30
0.0
 40
9.503288904374105
100
AcDbArc
 50
153.4349488229219
 51
206.565051177078
  0
ARC
  5
71
330
1E
100
AcDbEntity
  8
0
100
AcDbCircle
 10
229.2790542638093
 20
116.4031737032148
 30
0.0
 40
9.503288904374105
100
AcDbArc
 50
153.4349488229219
 51
206.565051177078
  0
LINE
  5
72
330
1E
100
AcDbEntity
  8
0
100
AcDbLine
 10
219.7790542638093
 20
129.1531737032147
 30
0.0
 11
219.7790542638093
 21
116.1531737032148
 31
0.0
  0
ARC
  5
73
330
1E
100
AcDbEntity
  8
0
100
AcDbCircle
 10
222.2790542638093
 20
141.9031737032148
 30
0.0
 40
9.503288904374105
100
AcDbArc
 50
333.4349488229219
 51
26.565051177078
  0
LINE
  5
74
330
1E
100
AcDbEntity
  8
0
100
AcDbLine
 10
231.7790542638093
 20
129.1531737032147
 30
0.0
 11
231.7790542638093
 21
116.1531737032148
 31
0.0
  0
ARC
  5
75
330
1E
100
AcDbEntity
  8
0
100
AcDbCircle
 10
195.1540542638093
 20
129.1531737032147
 30
0.0
 40
36.625
100
AcDbArc
 50
346.580326384486
 51
13.41967361551387
  0
LINE
  5
76
330
1E
100
AcDbEntity
  8
0
100
AcDbLine
 10
230.7790542638093
 20
112.1531737032148
 30
0.0
 11
225.7790542638093
 21
112.1531737032148
 31
0.0
  0
ARC
  5
77
330
1E
100
AcDbEntity
  8
0
100
AcDbCircle
 10
222.2790542638093
 20
116.4031737032148
 30
0.0
 40
9.503288904374105
100
AcDbArc
 50
333.4349488229219
 51
26.565051177078
  0
LINE
  5
78
330
1E
100
AcDbEntity
  8
0
100
AcDbLine
 10
225.7790542638093
 20
120.6531737032147
 30
0.0
 11
230.7790542638093
 21
120.6531737032147
 31
0.0
  0
LINE
  5
79
330
1E
100
AcDbEntity
  8
0
100
AcDbLine
 10
231.7790542638093
 20
129.1531737032147
 30
0.0
 11
231.7790542638093
 21
142.1531737032148
 31
0.0
  0
LINE
  5
7A
330
1E
100
AcDbEntity
  8
0
100
AcDbLine
 10
225.7790542638093
 20
137.6531737032148
 30
0.0
 11
230.7790542638093
 21
137.6531737032148
 31
0.0
  0
LINE
  5
7B
330
1E
100
AcDbEntity
  8
0
100
AcDbLine
 10
230.7790542638093
 20
146.1531737032148
 30
0.0
 11
225.7790542638093
 21
146.1531737032148
 31
0.0
  0
LINE
  5
80
330
1E
100
AcDbEntity
  8
1
100
AcDbLine
 10
329.6782212620837
 20
129.1531737032147
 30
0.0
 11
386.6414376912829
 21
129.1531737032147
 31
0.0
  0
LINE
  5
81
330
1E
100
AcDbEntity
  8
1
100
AcDbLine
 10
359.0936527856271
 20
155.0506477555039
 30
0.0
 11
359.0936527856271
 21
98.82279813955372
 31
0.0
  0
CIRCLE
  5
82
330
1E
100
AcDbEntity
  8
0
100
AcDbCircle
 10
359.0936527856271
 20
129.1531737032147
 30
0.0
 40
9.799044122732423
  0
CIRCLE
  5
83
330
1E
100
AcDbEntity
  8
0
100
AcDbCircle
 10
359.0936527856271
 20
129.1531737032147
 30
0.0
 40
7.932559128787942
  0
CIRCLE
  5
84
330
1E
100
AcDbEntity
  8
0
100
AcDbCircle
 10
359.0936527856271
 20
129.1531737032147
 30
0.0
 40
14.46525521060948
  0
TEXT
  5
8D
330
1E
100
AcDbEntity
  8
0
100
AcDbText
 10
355.4400232171229
 20
66.83032727841572
 30
0.0
 40
5.099999999999998
  1
ＩＤ－１３０
  7
BIGFONT
100
AcDbText
  0
ARC
  5
8F
330
1E
100
AcDbEntity
  8
0
100
AcDbCircle
 10
259.7103953917491
 20
116.4031737032148
 30
0.0
 40
9.503288904374105
100
AcDbArc
 50
333.4349488229219
 51
26.565051177078
  0
LINE
  5
90
330
1E
100
AcDbEntity
  8
0
100
AcDbLine
 10
269.2103953917491
 20
129.1531737032147
 30
0.0
 11
269.2103953917491
 21
116.1531737032148
 31
0.0
  0
LINE
  5
91
330
1E
100
AcDbEntity
  8
0
100
AcDbLine
 10
257.210395391749
 20
129.1531737032147
 30
0.0
 11
257.210395391749
 21
116.1531737032148
 31
0.0
  0
ARC
  5
92
330
1E
100
AcDbEntity
  8
0
100
AcDbCircle
 10
266.7103953917491
 20
116.4031737032148
 30
0.0
 40
9.503288904374105
100
AcDbArc
 50
153.4349488229219
 51
206.565051177078
  0
LINE
  5
93
330
1E
100
AcDbEntity
  8
0
100
AcDbLine
 10
268.2103953917491
 20
112.1531737032148
 30
0.0
 11
263.210395391749
 21
112.1531737032148
 31
0.0
  0
LINE
  5
94
330
1E
100
AcDbEntity
  8
0
100
AcDbLine
 10
258.2103953917491
 20
112.1531737032148
 30
0.0
 11
263.210395391749
 21
112.1531737032148
 31
0.0
  0
ARC
  5
95
330
1E
100
AcDbEntity
  8
0
100
AcDbCircle
 10
293.835395391749
 20
129.1531737032147
 30
0.0
 40
36.625
100
AcDbArc
 50
166.5803263844861
 51
193.4196736155137
  0
ARC
  5
96
330
1E
100
AcDbEntity
  8
0
100
AcDbCircle
 10
266.7103953917491
 20
141.9031737032148
 30
0.0
 40
9.503288904374105
100
AcDbArc
 50
153.4349488229219
 51
206.565051177078
  0
LINE
  5
97
330
1E
100
AcDbEntity
  8
0
100
AcDbLine
 10
257.210395391749
 20
129.1531737032147
 30
0.0
 11
257.210395391749
 21
142.1531737032148
 31
0.0
  0
ARC
  5
98
330
1E
100
AcDbEntity
  8
0
100
AcDbCircle
 10
259.7103953917491
 20
141.9031737032148
 30
0.0
 40
9.503288904374105
100
AcDbArc
 50
333.4349488229219
 51
26.565051177078
  0
LINE
  5
99
330
1E
100
AcDbEntity
  8
0
100
AcDbLine
 10
269.2103953917491
 20
129.1531737032147
 30
0.0
 11
269.2103953917491
 21
142.1531737032148
 31
0.0
  0
ARC
  5
9A
330
1E
100
AcDbEntity
  8
0
100
AcDbCircle
 10
232.5853953917491
 20
129.1531737032147
 30
0.0
 40
36.625
100
AcDbArc
 50
346.580326384486
 51
13.41967361551387
  0
LINE
  5
9B
330
1E
100
AcDbEntity
  8
0
100
AcDbLine
 10
263.210395391749
 20
120.6531737032147
 30
0.0
 11
268.2103953917491
 21
120.6531737032147
 31
0.0
  0
LINE
  5
9C
330
1E
100
AcDbEntity
  8
0
100
AcDbLine
 10
263.210395391749
 20
120.6531737032147
 30
0.0
 11
258.2103953917491
 21
120.6531737032147
 31
0.0
  0
LINE
  5
9D
330
1E
100
AcDbEntity
  8
0
100
AcDbLine
 10
263.210395391749
 20
137.6531737032148
 30
0.0
 11
268.2103953917491
 21
137.6531737032148
 31
0.0
  0
LINE
  5
9E
330
1E
100
AcDbEntity
  8
0
100
AcDbLine
 10
263.210395391749
 20
137.6531737032148
 30
0.0
 11
258.2103953917491
 21
137.6531737032148
 31
0.0
  0
LINE
  5
9F
330
1E
100
AcDbEntity
  8
0
100
AcDbLine
 10
268.2103953917491
 20
146.1531737032148
 30
0.0
 11
263.210395391749
 21
146.1531737032148
 31
0.0
  0
LINE
  5
A0
330
1E
100
AcDbEntity
  8
0
100
AcDbLine
 10
258.2103953917491
 20
146.1531737032148
 30
0.0
 11
263.210395391749
 21
146.1531737032148
 31
0.0
  0
LINE
  5
A1
330
1E
100
AcDbEntity
  8
0
100
AcDbLine
 10
257.210395391749
 20
121.1531737032148
 30
0.0
 11
231.7790542638093
 21
121.1531737032148
 31
0.0
  0
LINE
  5
A3
330
1E
100
AcDbEntity
  8
0
100
AcDbLine
 10
257.210395391749
 20
137.1531737032148
 30
0.0
 11
231.7790542638093
 21
137.1531737032148
 31
0.0
  0
LINE
  5
230
330
1E
100
AcDbEntity
  8
1
100
AcDbLine
 10
177.8611624078968
 20
129.1531737032147
 30
0.0
 11
329.6782212620837
 21
129.1531737032147
 31
0.0
  0
LINE
  5
231
330
1E
100
AcDbEntity
  8
3
100
AcDbLine
 10
195.7790542638093
 20
139.1531737032148
 30
0.0
 11
219.7790542638093
 21
139.1531737032148
 31
0.0
  0
LINE
  5
232
330
1E
100
AcDbEntity
  8
3
100
AcDbLine
 10
197.7790542638093
 20
137.1531737032148
 30
0.0
 11
219.7790542638093
 21
137.1531737032148
 31
0.0
  0
LINE
  5
233
330
1E
100
AcDbEntity
  8
3
100
AcDbLine
 10
197.7790542638093
 20
121.1531737032148
 30
0.0
 11
219.7790542638093
 21
121.1531737032148
 31
0.0
  0
LINE
  5
234
330
1E
100
AcDbEntity
  8
3
100
AcDbLine
 10
195.7790542638093
 20
119.1531737032148
 30
0.0
 11
219.7790542638093
 21
119.1531737032148
 31
0.0
  0
LINE
  5
236
330
1E
100
AcDbEntity
  8
3
100
AcDbLine
 10
181.7790542638094
 20
128.1531737032148
 30
0.0
 11
181.7790542638094
 21
116.1531737032148
 31
0.0
  0
ARC
  5
237
330
1E
100
AcDbEntity
  8
3
100
AcDbCircle
 10
136.1075192230568
 20
129.1531737032147
 30
0.0
 40
13.0
100
AcDbArc
 50
184.4117257857695
 51
355.5882742142304
  0
LINE
  5
239
330
1E
100
AcDbEntity
  8
1
100
AcDbLine
 10
136.1075192230568
 20
145.1531737032148
 30
0.0
 11
136.1075192230568
 21
108.2851514266972
 31
0.0
  0
LINE
  5
23A
330
1E
100
AcDbEntity
  8
3
100
AcDbLine
 10
197.7790542638093
 20
121.1531737032148
 30
0.0
 11
197.7790542638093
 21
129.1531737032147
 31
0.0
  0
LINE
  5
23B
330
1E
100
AcDbEntity
  8
3
100
AcDbLine
 10
195.7790542638093
 20
114.1531737032148
 30
0.0
 11
195.7790542638093
 21
129.1531737032147
 31
0.0
  0
CIRCLE
  5
23C
330
1E
100
AcDbEntity
  8
3
100
AcDbCircle
 10
136.1075192230568
 20
129.1531737032147
 30
0.0
 40
15.0
  0
LINE
  5
240
330
1E
100
AcDbEntity
  8
3
100
AcDbLine
 10
183.7790542638094
 20
114.1531737032148
 30
0.0
 11
195.7790542638093
 21
114.1531737032148
 31
0.0
  0
LINE
  5
241
330
1E
100
AcDbEntity
  8
3
100
AcDbLine
 10
181.7790542638094
 20
116.1531737032148
 30
0.0
 11
183.7790542638094
 21
114.1531737032148
 31
0.0
  0
LINE
  5
242
330
1E
100
AcDbEntity
  8
2
  6
Continuous
100
AcDbLine
 10
195.7790542638093
 20
115.1531737032148
 30
0.0
 11
195.7790542638093
 21
114.1531737032148
 31
0.0
  0
LINE
  5
244
330
1E
100
AcDbEntity
  8
3
100
AcDbLine
 10
197.7790542638093
 20
121.1531737032148
 30
0.0
 11
197.7790542638093
 21
119.1531737032148
 31
0.0
  0
ARC
  5
246
330
1E
100
AcDbEntity
  8
3
100
AcDbCircle
 10
136.1075192230568
 20
129.1531737032147
 30
0.0
 40
13.0
100
AcDbArc
 50
4.411725785769569
 51
175.5882742142288
  0
LINE
  5
247
330
1E
100
AcDbEntity
  8
3
100
AcDbLine
 10
121.140889675961
 20
128.1531737032148
 30
0.0
 11
151.0741487701525
 21
128.1531737032148
 31
0.0
  0
LINE
  5
248
330
1E
100
AcDbEntity
  8
3
100
AcDbLine
 10
151.0741487701525
 20
130.1531737032147
 30
0.0
 11
121.140889675961
 21
130.1531737032147
 31
0.0
  0
LINE
  5
249
330
1E
100
AcDbEntity
  8
1
100
AcDbLine
 10
155.8651871635478
 20
129.1531737032147
 30
0.0
 11
117.1796646715108
 21
129.1531737032147
 31
0.0
  0
LINE
  5
24E
330
1E
100
AcDbEntity
  8
3
100
AcDbLine
 10
183.7790542638094
 20
144.1531737032148
 30
0.0
 11
181.7790542638094
 21
142.1531737032148
 31
0.0
  0
LINE
  5
24F
330
1E
100
AcDbEntity
  8
3
100
AcDbLine
 10
195.7790542638093
 20
144.1531737032148
 30
0.0
 11
195.7790542638093
 21
129.1531737032147
 31
0.0
  0
LINE
  5
250
330
1E
100
AcDbEntity
  8
3
100
AcDbLine
 10
181.7790542638094
 20
128.1531737032148
 30
0.0
 11
187.7790542638093
 21
128.1531737032148
 31
0.0
  0
LINE
  5
251
330
1E
100
AcDbEntity
  8
3
100
AcDbLine
 10
187.7790542638093
 20
130.1531737032147
 30
0.0
 11
181.7790542638094
 21
130.1531737032147
 31
0.0
  0
LINE
  5
252
330
1E
100
AcDbEntity
  8
3
100
AcDbLine
 10
181.7790542638094
 20
130.1531737032147
 30
0.0
 11
181.7790542638094
 21
142.1531737032148
 31
0.0
  0
LINE
  5
253
330
1E
100
AcDbEntity
  8
3
100
AcDbLine
 10
187.7790542638093
 20
128.1531737032148
 30
0.0
 11
187.7790542638093
 21
130.1531737032147
 31
0.0
  0
LINE
  5
254
330
1E
100
AcDbEntity
  8
3
100
AcDbLine
 10
183.7790542638094
 20
144.1531737032148
 30
0.0
 11
195.7790542638093
 21
144.1531737032148
 31
0.0
  0
LINE
  5
255
330
1E
100
AcDbEntity
  8
2
  6
Continuous
100
AcDbLine
 10
195.7790542638093
 20
143.1531737032148
 30
0.0
 11
195.7790542638093
 21
144.1531737032148
 31
0.0
  0
LINE
  5
256
330
1E
100
AcDbEntity
  8
3
100
AcDbLine
 10
197.7790542638093
 20
137.1531737032148
 30
0.0
 11
197.7790542638093
 21
129.1531737032147
 31
0.0
  0
LINE
  5
257
330
1E
100
AcDbEntity
  8
3
100
AcDbLine
 10
197.7790542638093
 20
137.1531737032148
 30
0.0
 11
197.7790542638093
 21
139.1531737032148
 31
0.0
  0
LINE
  5
25A
330
1E
100
AcDbEntity
  8
3
100
AcDbLine
 10
325.7790542638093
 20
122.6531737032148
 30
0.0
 11
325.7790542638093
 21
129.1531737032147
 31
0.0
  0
LINE
  5
25B
330
1E
100
AcDbEntity
  8
3
100
AcDbLine
 10
322.7790542638093
 20
119.1531737032148
 30
0.0
 11
322.7790542638093
 21
129.1531737032147
 31
0.0
  0
LINE
  5
25C
330
1E
100
AcDbEntity
  8
3
100
AcDbLine
 10
322.7790542638093
 20
119.1531737032148
 30
0.0
 11
325.7790542638093
 21
122.6531737032148
 31
0.0
  0
LINE
  5
25F
330
1E
100
AcDbEntity
  8
3
100
AcDbLine
 10
325.7790542638093
 20
135.6531737032148
 30
0.0
 11
325.7790542638093
 21
129.1531737032147
 31
0.0
  0
LINE
  5
260
330
1E
100
AcDbEntity
  8
3
100
AcDbLine
 10
322.7790542638093
 20
139.1531737032148
 30
0.0
 11
322.7790542638093
 21
129.1531737032147
 31
0.0
  0
LINE
  5
261
330
1E
100
AcDbEntity
  8
3
100
AcDbLine
 10
322.7790542638093
 20
139.1531737032148
 30
0.0
 11
325.7790542638093
 21
135.6531737032148
 31
0.0
  0
LINE
  5
323
330
1E
100
AcDbEntity
  8
3
100
AcDbLine
 10
231.7790542638093
 20
139.1531737032148
 30
0.0
 11
257.210395391749
 21
139.1531737032147
 31
0.0
  0
LINE
  5
324
330
1E
100
AcDbEntity
  8
3
100
AcDbLine
 10
231.7790542638093
 20
137.1531737032148
 30
0.0
 11
257.210395391749
 21
137.1531737032148
 31
0.0
  0
LINE
  5
325
330
1E
100
AcDbEntity
  8
3
100
AcDbLine
 10
231.7790542638093
 20
121.1531737032148
 30
0.0
 11
257.210395391749
 21
121.1531737032148
 31
0.0
  0
LINE
  5
326
330
1E
100
AcDbEntity
  8
3
100
AcDbLine
 10
231.7790542638093
 20
119.1531737032148
 30
0.0
 11
257.210395391749
 21
119.1531737032148
 31
0.0
  0
LINE
  5
327
330
1E
100
AcDbEntity
  8
3
100
AcDbLine
 10
269.2103953917491
 20
119.1531737032148
 30
0.0
 11
322.7790542638093
 21
119.1531737032148
 31
0.0
  0
LINE
  5
328
330
1E
100
AcDbEntity
  8
3
100
AcDbLine
 10
269.2103953917491
 20
121.1531737032148
 30
0.0
 11
324.4933399780951
 21
121.1531737032148
 31
0.0
  0
LINE
  5
329
330
1E
100
AcDbEntity
  8
3
100
AcDbLine
 10
269.2103953917491
 20
139.1531737032147
 30
0.0
 11
322.7790542638093
 21
139.1531737032148
 31
0.0
  0
LINE
  5
32A
330
1E
100
AcDbEntity
  8
3
100
AcDbLine
 10
269.2103953917491
 20
137.1531737032148
 30
0.0
 11
324.4933399780951
 21
137.1531737032148
 31
0.0
  0
ENDSEC
  0
SECTION
  2
OBJECTS
  0
DICTIONARY
  5
C
330
0
100
AcDbDictionary
281
     1
  3
ACAD_GROUP
350
D
  3
ACAD_LAYOUT
350
19
  3
ACAD_MLINESTYLE
350
16
  3
ACAD_PLOTSETTINGS
350
18
  3
ACAD_PLOTSTYLENAME
350
E
  3
AcDbVariableDictionary
350
341
  3
AcmDictionary
350
160
  3
AMG
350
A6
  3
AMGSNAPSETTINGS
350
17D
  3
DWGPROPS
350
185
  3
MAPISURF_MODULE
350
133
  0
DICTIONARY
  5
339
330
1E
100
AcDbDictionary
280
     1
281
     1
  3
ACAD_INDEX
360
33A
  0
DICTIONARY
  5
D
102
{ACAD_REACTORS
330
C
102
}
330
C
100
AcDbDictionary
281
     1
  0
DICTIONARY
  5
19
102
{ACAD_REACTORS
330
C
102
}
330
C
100
AcDbDictionary
281
     1
  3
Model
350
21
  3
ﾚｲｱｳﾄ1
350
1D
  0
DICTIONARY
  5
16
102
{ACAD_REACTORS
330
C
102
}
330
C
100
AcDbDictionary
281
     1
  3
Standard
350
17
  0
DICTIONARY
  5
18
102
{ACAD_REACTORS
330
C
102
}
330
C
100
AcDbDictionary
281
     1
  0
ACDBDICTIONARYWDFLT
  5
E
102
{ACAD_REACTORS
330
C
102
}
330
C
100
AcDbDictionary
281
     1
  3
Normal
350
F
100
AcDbDictionaryWithDefault
340
F
  0
DICTIONARY
  5
341
102
{ACAD_REACTORS
330
C
102
}
330
C
100
AcDbDictionary
281
     1
  3
DIMASSOC
350
343
  3
INDEXCTL
350
342
  0
DICTIONARY
  5
160
102
{ACAD_REACTORS
330
C
102
}
330
C
100
AcDbDictionary
281
     1
  3
AcmBOMDATA
350
161
  3
AcmStdDictionary
350
218
  0
DICTIONARY
  5
A6
102
{ACAD_REACTORS
330
C
102
}
330
C
100
AcDbDictionary
281
     1
  3
AcMgSettings
350
A7
  3
AMGLAYCFG
350
16D
  0
DICTIONARY
  5
17D
102
{ACAD_REACTORS
330
C
102
}
330
C
100
AcDbDictionary
281
     1
  3
DIMENSION
350
182
  3
FEA
350
181
  3
HATCH (1)
350
17E
  3
HATCH (2)
350
17F
  3
SIMPLE WELD
350
183
  3
SYMBOLS
350
180
  0
XRECORD
  5
185
102
{ACAD_REACTORS
330
C
102
}
330
C
100
AcDbXrecord
280
     1
  1
DWGPROPS COOKIE
  2

  3

  4

  6

  7

  8

  9

300
AmdtFileType=84
301
=
302
=
303
=
304
=
305
=
306
=
307
=
308
=
309
=
 40
0.00288375
 41
2450686.775624999
 42
2450686.775624999
  1

 90
        1
  0
DICTIONARY
  5
33A
102
{ACAD_REACTORS
330
339
102
}
330
339
100
AcDbDictionary
281
     1
  3
*A1
350
33B
  0
LAYOUT
  5
21
102
{ACAD_REACTORS
330
19
102
}
330
19
100
AcDbPlotSettings
  1

  2
\\KONISHIDENXP\SHARP MX-2700FG
  4

  6

 40
0.0
 41
0.0
 42
0.0
 43
0.0
 44
0.0
 45
0.0
 46
0.0
 47
0.0
 48
0.0
 49
0.0
140
0.0
141
0.0
142
1.0
143
1.0
 70
  1712
 72
     0
 73
     0
 74
     0
  7

 75
     0
147
1.0
148
0.0
149
0.0
100
AcDbLayout
  1
Model
 70
     1
 71
     0
 10
0.0
 20
0.0
 11
12.0
 21
9.0
 12
0.0
 22
0.0
 32
0.0
 14
0.0
 24
0.0
 34
0.0
 15
0.0
 25
0.0
 35
0.0
146
0.0
 13
0.0
 23
0.0
 33
0.0
 16
1.0
 26
0.0
 36
0.0
 17
0.0
 27
1.0
 37
0.0
 76
     0
330
1E
  0
LAYOUT
  5
1D
102
{ACAD_REACTORS
330
19
102
}
330
19
100
AcDbPlotSettings
  1

  2
\\KONISHIDENXP\SHARP MX-2700FG
  4

  6

 40
0.0
 41
0.0
 42
0.0
 43
0.0
 44
0.0
 45
0.0
 46
0.0
 47
0.0
 48
0.0
 49
0.0
140
0.0
141
0.0
142
1.0
143
1.0
 70
   688
 72
     0
 73
     0
 74
     5
  7

 75
    16
147
1.0
148
0.0
149
0.0
100
AcDbLayout
  1
ﾚｲｱｳﾄ1
 70
     1
 71
     1
 10
0.0
 20
0.0
 11
12.0
 21
9.0
 12
0.0
 22
0.0
 32
0.0
 14
1.000000000000000E+20
 24
1.000000000000000E+20
 34
1.000000000000000E+20
 15
-1.000000000000000E+20
 25
-1.000000000000000E+20
 35
-1.000000000000000E+20
146
0.0
 13
0.0
 23
0.0
 33
0.0
 16
1.0
 26
0.0
 36
0.0
 17
0.0
 27
1.0
 37
0.0
 76
     0
330
1A
  0
MLINESTYLE
  5
17
102
{ACAD_REACTORS
330
16
102
}
330
16
100
AcDbMlineStyle
  2
STANDARD
 70
     0
  3

 62
   256
 51
90.0
 52
90.0
 71
     2
 49
0.5
 62
   256
  6
BYLAYER
 49
-0.5
 62
   256
  6
BYLAYER
  0
ACDBPLACEHOLDER
  5
F
102
{ACAD_REACTORS
330
E
102
}
330
E
  0
DICTIONARYVAR
  5
343
102
{ACAD_REACTORS
330
341
102
}
330
341
100
DictionaryVariables
280
     0
  1
1
  0
DICTIONARYVAR
  5
342
102
{ACAD_REACTORS
330
341
102
}
330
341
100
DictionaryVariables
280
     0
  1
1
  0
ACMDATADICTIONARY
  5
161
102
{ACAD_REACTORS
330
160
102
}
330
160
100
AcDbDictionary
281
     1
  3
*A1
350
162
100
AcmDataDictionary
  0
DICTIONARY
  5
218
102
{ACAD_REACTORS
330
160
102
}
330
160
100
AcDbDictionary
281
     1
  3
ANSI
350
219
  0
DICTIONARY
  5
A7
102
{ACAD_REACTORS
330
A6
102
}
330
A6
100
AcDbDictionary
281
     1
  3
DWGSETTINGS
350
A8
  0
ACAMGFILTERDAT
  5
182
102
{ACAD_REACTORS
330
17D
102
}
330
17D
100
AcAmgFilterDat
 70
    15
  1
DIMENSION,AMDT_*_DIM
  2
*
  3
*
  4
*
  5
*
290
     1
  0
ACAMGFILTERDAT
  5
181
102
{ACAD_REACTORS
330
17D
102
}
330
17D
100
AcAmgFilterDat
 70
    15
  1
*
  2
AM_FEA-AM_*
  3
*
  4
*
  5
*
290
     1
  0
ACAMGFILTERDAT
  5
17E
102
{ACAD_REACTORS
330
17D
102
}
330
17D
100
AcAmgFilterDat
 70
    15
  1
HATCH
  2
*
  3
*
  4
*
  5
*
290
     1
  0
ACAMGFILTERDAT
  5
17F
102
{ACAD_REACTORS
330
17D
102
}
330
17D
100
AcAmgFilterDat
 70
    15
  1
LINE
  2
8,8N,*-8,*-8N,AM_8,AM_8N,*-AM_8,*-AM_8N
  3
*
  4
*
  5
INSERT,STDPART2D
290
     1
  0
ACAMGFILTERDAT
  5
183
102
{ACAD_REACTORS
330
17D
102
}
330
17D
100
AcAmgFilterDat
 70
    15
  1
ARC
  2
AM_5
  3
*
  4
2
  5
INSERT
290
     0
  0
ACAMGFILTERDAT
  5
180
102
{ACAD_REACTORS
330
17D
102
}
330
17D
100
AcAmgFilterDat
 70
    15
  1
ACMFCFRAME,ACMDATUMTARGET,ACMDATUMID,ACMWELDSYM,ACMSURFSYM,ACMFEATID,ACMPARTREF,ACMBALLOON,AMDTEDGESYM,AMGSCREWCALCTABLE
  2
*
  3
*
  4
*
  5
*
290
     1
  0
LAYER_INDEX
  5
33B
102
{ACAD_REACTORS
330
33A
102
}
330
33A
100
AcDbIndex
 40
2456525.375013194
100
AcDbLayerIndex
  8
0
360
33C
 90
       46
  8
1
360
33D
 90
        5
  8
2
360
33E
 90
        2
  8
3
360
33F
 90
       38
  8
DEFPOINTS
360
340
 90
        0
  0
ACMDATAENTRYBLOCK
  5
162
102
{ACAD_REACTORS
330
161
102
}
330
161
100
AcmDataEntry
100
AcmDataEntryBlock
  0
IDBUFFER
  5
33C
330
0
100
AcDbIdBuffer
330
76
330
77
330
78
330
79
330
7A
330
7B
330
82
330
83
330
84
330
8D
330
8F
330
90
330
91
330
92
330
93
330
94
330
95
330
96
330
97
330
98
330
99
330
9A
330
9B
330
9C
330
9D
330
9E
330
9F
330
A0
330
A1
330
A3
330
39
330
52
330
5A
330
5B
330
5C
330
5D
330
60
330
6A
330
6B
330
6F
330
70
330
71
330
72
330
73
330
74
330
75
  0
IDBUFFER
  5
33D
330
0
100
AcDbIdBuffer
330
80
330
81
330
230
330
239
330
249
  0
IDBUFFER
  5
33E
330
0
100
AcDbIdBuffer
330
242
330
255
  0
IDBUFFER
  5
33F
330
0
100
AcDbIdBuffer
330
24F
330
250
330
251
330
252
330
253
330
254
330
256
330
257
330
25A
330
25B
330
25C
330
25F
330
260
330
261
330
323
330
324
330
325
330
326
330
327
330
328
330
329
330
32A
330
231
330
232
330
233
330
234
330
236
330
237
330
23A
330
23B
330
23C
330
240
330
241
330
244
330
246
330
247
330
248
330
24E
  0
IDBUFFER
  5
340
330
0
100
AcDbIdBuffer
  0
ENDSEC
  0
EOF
