  0
SECTION
  2
HEADER
  9
$ACADVER
  1
AC1015
  9
$ACADMAINTVER
 70
    13
  9
$DWGCODEPAGE
  3
ANSI_932
  9
$INSBASE
 10
0.0
 20
0.0
 30
0.0
  9
$EXTMIN
 10
0.0
 20
0.0
 30
0.0
  9
$EXTMAX
 10
600.0
 20
450.0
 30
0.0
  9
$LIMMIN
 10
0.0
 20
0.0
  9
$LIMMAX
 10
600.0
 20
450.0
  9
$ORTHOMODE
 70
     1
  9
$REGENMODE
 70
     1
  9
$FILLMODE
 70
     1
  9
$QTEXTMODE
 70
     0
  9
$MIRRTEXT
 70
     1
  9
$LTSCALE
 40
1.0
  9
$ATTMODE
 70
     1
  9
$TEXTSIZE
 40
7.0
  9
$TRACEWID
 40
0.05
  9
$TEXTSTYLE
  7
BIGFONT
  9
$CLAYER
  8
0
  9
$CELTYPE
  6
ByLayer
  9
$CECOLOR
 62
   256
  9
$CELTSCALE
 40
1.0
  9
$DISPSILH
 70
     0
  9
$DIMSCALE
 40
1.0
  9
$DIMASZ
 40
0.18
  9
$DIMEXO
 40
0.0625
  9
$DIMDLI
 40
0.38
  9
$DIMRND
 40
0.0
  9
$DIMDLE
 40
0.0
  9
$DIMEXE
 40
0.18
  9
$DIMTP
 40
0.0
  9
$DIMTM
 40
0.0
  9
$DIMTXT
 40
10.0
  9
$DIMCEN
 40
0.09
  9
$DIMTSZ
 40
0.0
  9
$DIMTOL
 70
     0
  9
$DIMLIM
 70
     0
  9
$DIMTIH
 70
     1
  9
$DIMTOH
 70
     1
  9
$DIMSE1
 70
     0
  9
$DIMSE2
 70
     0
  9
$DIMTAD
 70
     0
  9
$DIMZIN
 70
     0
  9
$DIMBLK
  1

  9
$DIMASO
 70
     1
  9
$DIMSHO
 70
     1
  9
$DIMPOST
  1

  9
$DIMAPOST
  1

  9
$DIMALT
 70
     0
  9
$DIMALTD
 70
     2
  9
$DIMALTF
 40
25.4
  9
$DIMLFAC
 40
1.0
  9
$DIMTOFL
 70
     0
  9
$DIMTVP
 40
0.0
  9
$DIMTIX
 70
     0
  9
$DIMSOXD
 70
     0
  9
$DIMSAH
 70
     0
  9
$DIMBLK1
  1

  9
$DIMBLK2
  1

  9
$DIMSTYLE
  2
STANDARD
  9
$DIMCLRD
 70
     0
  9
$DIMCLRE
 70
     0
  9
$DIMCLRT
 70
     0
  9
$DIMTFAC
 40
1.0
  9
$DIMGAP
 40
0.09
  9
$DIMJUST
 70
     0
  9
$DIMSD1
 70
     0
  9
$DIMSD2
 70
     0
  9
$DIMTOLJ
 70
     1
  9
$DIMTZIN
 70
     0
  9
$DIMALTZ
 70
     0
  9
$DIMALTTZ
 70
     0
  9
$DIMUPT
 70
     0
  9
$DIMDEC
 70
     4
  9
$DIMTDEC
 70
     4
  9
$DIMALTU
 70
     2
  9
$DIMALTTD
 70
     2
  9
$DIMTXSTY
  7
STANDARD
  9
$DIMAUNIT
 70
     0
  9
$DIMADEC
 70
     0
  9
$DIMALTRND
 40
0.0
  9
$DIMAZIN
 70
     0
  9
$DIMDSEP
 70
    46
  9
$DIMATFIT
 70
     3
  9
$DIMFRAC
 70
     0
  9
$DIMLDRBLK
  1

  9
$DIMLUNIT
 70
     2
  9
$DIMLWD
 70
    -2
  9
$DIMLWE
 70
    -2
  9
$DIMTMOVE
 70
     0
  9
$LUNITS
 70
     2
  9
$LUPREC
 70
     4
  9
$SKETCHINC
 40
0.1
  9
$FILLETRAD
 40
0.0
  9
$AUNITS
 70
     0
  9
$AUPREC
 70
     0
  9
$MENU
  1
acad
  9
$ELEVATION
 40
0.0
  9
$PELEVATION
 40
0.0
  9
$THICKNESS
 40
0.0
  9
$LIMCHECK
 70
     0
  9
$CHAMFERA
 40
0.0
  9
$CHAMFERB
 40
0.0
  9
$CHAMFERC
 40
0.0
  9
$CHAMFERD
 40
0.0
  9
$SKPOLY
 70
     0
  9
$TDCREATE
 40
2450686.788182870
  9
$TDUCREATE
 40
2450686.413182870
  9
$TDUPDATE
 40
2457158.581680220
  9
$TDUUPDATE
 40
2457158.206680220
  9
$TDINDWG
 40
0.0053604282
  9
$TDUSRTIMER
 40
0.0053604282
  9
$USRTIMER
 70
     1
  9
$ANGBASE
 50
0.0
  9
$ANGDIR
 70
     0
  9
$PDMODE
 70
     0
  9
$PDSIZE
 40
0.0
  9
$PLINEWID
 40
0.0
  9
$SPLFRAME
 70
     0
  9
$SPLINETYPE
 70
     6
  9
$SPLINESEGS
 70
     8
  9
$HANDSEED
  5
560
  9
$SURFTAB1
 70
     6
  9
$SURFTAB2
 70
     6
  9
$SURFTYPE
 70
     6
  9
$SURFU
 70
     6
  9
$SURFV
 70
     6
  9
$UCSBASE
  2

  9
$UCSNAME
  2

  9
$UCSORG
 10
0.0
 20
0.0
 30
0.0
  9
$UCSXDIR
 10
1.0
 20
0.0
 30
0.0
  9
$UCSYDIR
 10
0.0
 20
1.0
 30
0.0
  9
$UCSORTHOREF
  2

  9
$UCSORTHOVIEW
 70
     0
  9
$UCSORGTOP
 10
0.0
 20
0.0
 30
0.0
  9
$UCSORGBOTTOM
 10
0.0
 20
0.0
 30
0.0
  9
$UCSORGLEFT
 10
0.0
 20
0.0
 30
0.0
  9
$UCSORGRIGHT
 10
0.0
 20
0.0
 30
0.0
  9
$UCSORGFRONT
 10
0.0
 20
0.0
 30
0.0
  9
$UCSORGBACK
 10
0.0
 20
0.0
 30
0.0
  9
$PUCSBASE
  2

  9
$PUCSNAME
  2

  9
$PUCSORG
 10
0.0
 20
0.0
 30
0.0
  9
$PUCSXDIR
 10
1.0
 20
0.0
 30
0.0
  9
$PUCSYDIR
 10
0.0
 20
1.0
 30
0.0
  9
$PUCSORTHOREF
  2

  9
$PUCSORTHOVIEW
 70
     0
  9
$PUCSORGTOP
 10
0.0
 20
0.0
 30
0.0
  9
$PUCSORGBOTTOM
 10
0.0
 20
0.0
 30
0.0
  9
$PUCSORGLEFT
 10
0.0
 20
0.0
 30
0.0
  9
$PUCSORGRIGHT
 10
0.0
 20
0.0
 30
0.0
  9
$PUCSORGFRONT
 10
0.0
 20
0.0
 30
0.0
  9
$PUCSORGBACK
 10
0.0
 20
0.0
 30
0.0
  9
$USERI1
 70
     0
  9
$USERI2
 70
     0
  9
$USERI3
 70
     0
  9
$USERI4
 70
     0
  9
$USERI5
 70
     0
  9
$USERR1
 40
0.0
  9
$USERR2
 40
0.0
  9
$USERR3
 40
0.0
  9
$USERR4
 40
0.0
  9
$USERR5
 40
0.0
  9
$WORLDVIEW
 70
     1
  9
$SHADEDGE
 70
     3
  9
$SHADEDIF
 70
    70
  9
$TILEMODE
 70
     1
  9
$MAXACTVP
 70
    16
  9
$PINSBASE
 10
0.0
 20
0.0
 30
0.0
  9
$PLIMCHECK
 70
     0
  9
$PEXTMIN
 10
1.000000000000000E+20
 20
1.000000000000000E+20
 30
1.000000000000000E+20
  9
$PEXTMAX
 10
-1.000000000000000E+20
 20
-1.000000000000000E+20
 30
-1.000000000000000E+20
  9
$PLIMMIN
 10
0.0
 20
0.0
  9
$PLIMMAX
 10
12.0
 20
9.0
  9
$UNITMODE
 70
     0
  9
$VISRETAIN
 70
     0
  9
$PLINEGEN
 70
     0
  9
$PSLTSCALE
 70
     1
  9
$TREEDEPTH
 70
  3020
  9
$CMLSTYLE
  2
Standard
  9
$CMLJUST
 70
     0
  9
$CMLSCALE
 40
1.0
  9
$PROXYGRAPHICS
 70
     1
  9
$MEASUREMENT
 70
     0
  9
$CELWEIGHT
370
    -1
  9
$ENDCAPS
280
     0
  9
$JOINSTYLE
280
     0
  9
$LWDISPLAY
290
     0
  9
$INSUNITS
 70
     0
  9
$HYPERLINKBASE
  1

  9
$STYLESHEET
  1

  9
$XEDIT
290
     1
  9
$CEPSNTYPE
380
     0
  9
$PSTYLEMODE
290
     1
  9
$FINGERPRINTGUID
  2
{6D4A115E-CFFC-4CE5-BFBC-209D6F75B3D6}
  9
$VERSIONGUID
  2
{5CB82FBD-8B3E-4629-8F38-3DDE3870F8C4}
  9
$EXTNAMES
290
     1
  9
$PSVPSCALE
 40
0.0
  9
$OLESTARTUP
290
     0
  0
ENDSEC
  0
SECTION
  2
CLASSES
  0
CLASS
  1
ACDBDICTIONARYWDFLT
  2
AcDbDictionaryWithDefault
  3
AutoCAD 2000
 90
        0
280
     0
281
     0
  0
CLASS
  1
ACDBPLACEHOLDER
  2
AcDbPlaceHolder
  3
AutoCAD 2000
 90
        0
280
     0
281
     0
  0
CLASS
  1
LAYOUT
  2
AcDbLayout
  3
AutoCAD 2000
 90
        0
280
     0
281
     0
  0
CLASS
  1
AMGSETTINGSOBJ
  2
AmgSettingsObj
  3
"AcadM|Product Description: AutoCAD Mechanical 2000|Company: Autodesk"
 90
        0
280
     0
281
     0
  0
CLASS
  1
ACME_DOCUMENT
  2
AcMeDbDoc
  3
AcMeServices
 90
        0
280
     0
281
     0
  0
CLASS
  1
ACMESCOPE
  2
AcMeScope
  3
AcMeServices
 90
        0
280
     0
281
     0
  0
CLASS
  1
ACMECOMMANDHISTORY
  2
AcMeCommandHistory
  3
AcMeServices
 90
        0
280
     0
281
     0
  0
CLASS
  1
ACIMSYSVARMAN
  2
AcImSysVarManager
  3
AcMeServices
 90
        0
280
     0
281
     0
  0
CLASS
  1
ACIMREALSYSVAR
  2
AcImRealSysVar
  3
AcMeServices
 90
        0
280
     0
281
     0
  0
CLASS
  1
ACIMINTSYSVAR
  2
AcImIntSysVar
  3
AcMeServices
 90
        0
280
     0
281
     0
  0
CLASS
  1
ACMEDRAWINGMAN
  2
AcMeDrawingMan
  3
AcMeServices
 90
        0
280
     0
281
     0
  0
CLASS
  1
ACMEVIEW
  2
AcMeView
  3
AcMeServices
 90
        0
280
     0
281
     0
  0
CLASS
  1
ACDBENTITYCACHE
  2
AcMeEntityCache
  3
AcMeServices
 90
        0
280
     0
281
     0
  0
CLASS
  1
GSMANAGER
  2
AcMeGSManager
  3
AcMeServices
 90
        0
280
     0
281
     0
  0
CLASS
  1
AMDTINTERNALREACTOR
  2
AmdtInternalReactor
  3
AcMeServices
 90
        0
280
     0
281
     0
  0
CLASS
  1
ACMESTATEMGR
  2
AcMeStateMgr
  3
AcMeServices
 90
        0
280
     0
281
     0
  0
CLASS
  1
ACGREFMASTER
  2
AcGrefMaster
  3
AcAttribServices
 90
        0
280
     0
281
     0
  0
CLASS
  1
AM_DRAWING_MGR
  2
AcDmDwgMgr
  3
AcMechDwgViewMgmt
 90
        0
280
     0
281
     0
  0
CLASS
  1
AM_DWG_DOCUMENT
  2
AcDmDwgDocument
  3
AcMechDwgViewMgmt
 90
        0
280
     0
281
     0
  0
CLASS
  1
AM_DWG_SHEET
  2
AcDmSheet
  3
AcMechDwgViewMgmt
 90
        0
280
     0
281
     0
  0
CLASS
  1
AM_VIEWDIMPARMAP
  2
AcDmViewDimParMap
  3
AcMechDwgViewMgmt
 90
        0
280
     0
281
     0
  0
CLASS
  1
AM_DWGMGR_NAME
  2
AcDmDwgMgrName
  3
AcMechDwgViewMgmt
 90
        0
280
     0
281
     0
  0
CLASS
  1
ACME_DATABASE
  2
AcMeDbDatabase
  3
AcMeServices
 90
        0
280
     0
281
     0
  0
CLASS
  1
ACRFINSADJUSTERMGR
  2
AcRfInsAdjusterMgr
  3
AcMeServices
 90
        0
280
     0
281
     0
  0
CLASS
  1
ACGREFACADMASTER
  2
AcGrefacadMaster
  3
AcGrefServices
 90
        0
280
     0
281
     0
  0
CLASS
  1
AMDTMENUSTATEMGR
  2
AmdtMenuStateMgr
  3
McadcomServices
 90
        0
280
     0
281
     0
  0
CLASS
  1
AMDTMCOMMENUSTATE
  2
AmdtMcomMenuState
  3
McadcomServices
 90
        0
280
     0
281
     0
  0
CLASS
  1
AMIMASTER
  2
AmiMaster
  3
AmiServices
 90
        0
280
     0
281
     0
  0
CLASS
  1
ASAPP
  2
AcAsAppObject
  3
AutoSurfServices
 90
        0
280
     0
281
     0
  0
CLASS
  1
IM_STATIC_MAN
  2
AcImStaticVarManager
  3
AcMeServices
 90
        0
280
     0
281
     0
  0
CLASS
  1
ACIMSTRSYSVAR
  2
AcImStrSysVar
  3
AcMeServices
 90
        0
280
     0
281
     0
  0
CLASS
  1
ACIMDBLSTATICVAR
  2
AcImDblStaticVar
  3
AcMeServices
 90
        0
280
     0
281
     0
  0
CLASS
  1
ACIMSTRSTATICVAR
  2
AcImStrStaticVar
  3
AcMeServices
 90
        0
280
     0
281
     0
  0
CLASS
  1
ACIMINTSTATICVAR
  2
AcImIntStaticVar
  3
AcMeServices
 90
        0
280
     0
281
     0
  0
CLASS
  1
ACASGREFMASTER
  2
AcAsGrefMaster
  3
AutoSurfResolverServices
 90
        0
280
     0
281
     0
  0
CLASS
  1
ACADGREFMODULE
  2
AcAdGrefModule
  3
AdGrefServices
 90
        0
280
     0
281
     0
  0
CLASS
  1
AMDTMAPISURFMOUDULE
  2
AmdtMApiSurfModule
  3
MApiSurfServices
 90
        0
280
     0
281
     0
  0
CLASS
  1
MAPIAMMOUDLE
  2
MApiAmModule
  3
MApiAmServices
 90
        0
280
     0
281
     0
  0
CLASS
  1
AMDTADMENUSTATE
  2
AmdtAdMenuState
  3
DesignerServices
 90
        0
280
     0
281
     0
  0
CLASS
  1
ADAPPL
  2
AcAdAppl
  3
DesignerServices
 90
        0
280
     0
281
     0
  0
CLASS
  1
DEPMGR
  2
AcAdDepMgr
  3
DesignerServices
 90
        0
280
     0
281
     0
  0
CLASS
  1
PARAMMGR
  2
AcAdParamMgr
  3
DesignerServices
 90
        0
280
     0
281
     0
  0
CLASS
  1
PARAMSCOPE
  2
AcAdParamScope
  3
DesignerServices
 90
        0
280
     0
281
     0
  0
CLASS
  1
NAMEDAPPL
  2
AcAdNamedAppl
  3
DesignerServices
 90
        0
280
     0
281
     0
  0
CLASS
  1
AMDTDMMENUSTATE
  2
AmdtDmMenuState
  3
AcMechDwgViewMgmt
 90
        0
280
     0
281
     0
  0
CLASS
  1
MAPIADMODULE
  2
MApiAdModule
  3
MApiAdServices
 90
        0
280
     0
281
     0
  0
CLASS
  1
AMDTAMMENUSTATE
  2
AmdtAmMenuState
  3
DesignerAssemblies
 90
        0
280
     0
281
     0
  0
CLASS
  1
ACAMPROJECT
  2
AcAmProject
  3
DesignerAssemblies
 90
        0
280
     0
281
     0
  0
CLASS
  1
ACAMGRCOMPDEF
  2
AcAmGrCompDef
  3
DesignerAssemblies
 90
        0
280
     0
281
     0
  0
CLASS
  1
ACCMCONTEXT
  2
AcCmContext
  3
DesignerAssemblies
 90
        0
280
     0
281
     0
  0
CLASS
  1
ACAMCOMPDEF
  2
AcAmCompDef
  3
DesignerAssemblies
 90
        0
280
     0
281
     0
  0
CLASS
  1
ACAMCOMPDEFMGR
  2
AcAmCompDefMgr
  3
DesignerAssemblies
 90
        0
280
     0
281
     0
  0
CLASS
  1
AMCONTEXTMGR
  2
AcAmContextMgr
  3
DesignerAssemblies
 90
        0
280
     0
281
     0
  0
CLASS
  1
ACAMCONTEXTMODELER
  2
AcAmContextModeler
  3
DesignerAssemblies
 90
        0
280
     0
281
     0
  0
CLASS
  1
ACMDATADICTIONARY
  2
AcmDataDictionary
  3
"AcmSymBB|Product Description: AutoCAD Mechanical 2000|Company: Autodesk"
 90
        0
280
     0
281
     0
  0
CLASS
  1
ACMDATAENTRYBLOCK
  2
AcmDataEntryBlock
  3
"AcmSymBB|Product Description: AutoCAD Mechanical 2000|Company: Autodesk"
 90
        0
280
     0
281
     0
  0
CLASS
  1
CATALOGSTATE
  2
AcAmCatalogState
  3
DesignerAssemblies
 90
        0
280
     0
281
     0
  0
CLASS
  1
ACAMGRCOMPDEFSET
  2
AcAmGrCompDefSet
  3
DesignerAssemblies
 90
        0
280
     0
281
     0
  0
CLASS
  1
AMDTBROWSERDBTAB
  2
AmdtBrowserDbTab
  3
McadcomServices
 90
        0
280
     0
281
     0
  0
CLASS
  1
CBROWSERAPPOBJECT
  2
CBrowserAppObject
  3
McadcomServices
 90
        0
280
     0
281
     0
  0
CLASS
  1
DM_PLACEHOLDER
  2
AcDmSelsetPlaceholder
  3
AcMechDwgViewMgmt
 90
        0
280
     0
281
     0
  0
CLASS
  1
AMGOBJPROPCFG
  2
AmgObjPropCfg
  3
"AmgLay|Product Description: AutoCAD Mechanical 2000|Company: Autodesk"
 90
        1
280
     0
281
     0
  0
CLASS
  1
ACAMGFILTERDAT
  2
AcAmgFilterDat
  3
"AcadM|Product Description: AutoCAD Mechanical 2000|Company: Autodesk"
 90
        0
280
     0
281
     0
  0
CLASS
  1
LAYER_INDEX
  2
AcDbLayerIndex
  3
AutoCAD 2000
 90
        0
280
     0
281
     0
  0
CLASS
  1
IDBUFFER
  2
AcDbIdBuffer
  3
AutoCAD 2000
 90
        0
280
     0
281
     0
  0
CLASS
  1
DICTIONARYVAR
  2
AcDbDictionaryVar
  3
AutoCAD 2000
 90
        0
280
     0
281
     0
  0
ENDSEC
  0
SECTION
  2
TABLES
  0
TABLE
  2
VPORT
  5
8
330
0
100
AcDbSymbolTable
 70
     4
  0
VPORT
  5
55F
330
8
100
AcDbSymbolTableRecord
100
AcDbViewportTableRecord
  2
*Active
 70
     0
 10
0.0
 20
0.0
 11
1.0
 21
1.0
 12
-81.85279048118848
 22
-31.31644312689212
 13
0.0
 23
0.0
 14
0.1
 24
0.1
 15
0.5
 25
0.5
 16
0.0
 26
0.0
 36
1.0
 17
381.8527918781724
 27
256.3248854571822
 37
0.0
 40
453.3068976148955
 41
1.489721886336154
 42
50.0
 43
0.0
 44
0.0
 50
0.0
 51
0.0
 71
     0
 72
   100
 73
     1
 74
     1
 75
     0
 76
     0
 77
     0
 78
     0
281
     0
 65
     0
110
0.0
120
0.0
130
0.0
111
1.0
121
0.0
131
0.0
112
0.0
122
1.0
132
0.0
 79
     0
146
0.0
  0
ENDTAB
  0
TABLE
  2
LTYPE
  5
5
330
0
100
AcDbSymbolTable
 70
    19
  0
LTYPE
  5
13
330
5
100
AcDbSymbolTableRecord
100
AcDbLinetypeTableRecord
  2
ByBlock
 70
     0
  3

 72
    65
 73
     0
 40
0.0
  0
LTYPE
  5
14
330
5
100
AcDbSymbolTableRecord
100
AcDbLinetypeTableRecord
  2
ByLayer
 70
     0
  3

 72
    65
 73
     0
 40
0.0
  0
LTYPE
  5
15
330
5
100
AcDbSymbolTableRecord
100
AcDbLinetypeTableRecord
  2
CONTINUOUS
 70
     0
  3
Solid line
 72
    65
 73
     0
 40
0.0
  0
LTYPE
  5
23
330
5
100
AcDbSymbolTableRecord
100
AcDbLinetypeTableRecord
  2
BYLAYER
 70
     0
  3

 72
    65
 73
     0
 40
0.0
  0
LTYPE
  5
24
330
5
100
AcDbSymbolTableRecord
100
AcDbLinetypeTableRecord
  2
ITTEN1
 70
     0
  3

 72
    65
 73
     4
 40
8.199999999999997
 49
5.0
 74
     0
 49
-1.0
 74
     0
 49
1.199999999999999
 74
     0
 49
-1.0
 74
     0
  0
LTYPE
  5
25
330
5
100
AcDbSymbolTableRecord
100
AcDbLinetypeTableRecord
  2
TENSEN2
 70
     0
  3

 72
    65
 73
     2
 40
2.1
 49
1.5
 74
     0
 49
-0.6
 74
     0
  0
LTYPE
  5
467
330
5
100
AcDbSymbolTableRecord
100
AcDbLinetypeTableRecord
  2
HIDDEN
 70
     0
  3
Hidden __ __ __ __ __ __ __ __ __ __ __ __ __ _
 72
    65
 73
     2
 40
0.375
 49
0.25
 74
     0
 49
-0.125
 74
     0
  0
LTYPE
  5
468
330
5
100
AcDbSymbolTableRecord
100
AcDbLinetypeTableRecord
  2
PHANTOM2
 70
     0
  3
Phantom (.5x) ___ _ _ ___ _ _ ___ _ _ ___ _ _
 72
    65
 73
     6
 40
1.25
 49
0.625
 74
     0
 49
-0.125
 74
     0
 49
0.125
 74
     0
 49
-0.125
 74
     0
 49
0.125
 74
     0
 49
-0.125
 74
     0
  0
LTYPE
  5
469
330
5
100
AcDbSymbolTableRecord
100
AcDbLinetypeTableRecord
  2
CENTER
 70
     0
  3
Center ____ _ ____ _ ____ _ ____ _ ____ _ ____
 72
    65
 73
     4
 40
2.0
 49
1.25
 74
     0
 49
-0.25
 74
     0
 49
0.25
 74
     0
 49
-0.25
 74
     0
  0
LTYPE
  5
4CB
330
5
100
AcDbSymbolTableRecord
100
AcDbLinetypeTableRecord
  2
ASULTYPE
 70
     0
  3
実線
 72
    65
 73
     2
 40
3.0
 49
2.5
 74
     0
 49
0.5
 74
     0
  0
LTYPE
  5
4CC
330
5
100
AcDbSymbolTableRecord
100
AcDbLinetypeTableRecord
  2
ASVLTYPE
 70
     0
  3
__ __ __ __ __ __ __ __ __ __ __ __ __ __ __ __ __ __ __ __ __
 72
    65
 73
     2
 40
0.75
 49
0.5
 74
     0
 49
-0.25
 74
     0
  0
LTYPE
  5
50D
330
5
100
AcDbSymbolTableRecord
100
AcDbLinetypeTableRecord
  2
AM_ISO02W050
 70
     0
  3
__ __ __ __ __ __ __ __ __ __ __ __ __ __ __
 72
    65
 73
     2
 40
7.5
 49
6.0
 74
     0
 49
-1.5
 74
     0
  0
LTYPE
  5
50E
330
5
100
AcDbSymbolTableRecord
100
AcDbLinetypeTableRecord
  2
AM_ISO08W050
 70
     0
  3
____ . ____ . ____ . ____ . ____ . ____ . ____
 72
    65
 73
     4
 40
18.0
 49
12.0
 74
     0
 49
-1.5
 74
     0
 49
3.0
 74
     0
 49
-1.5
 74
     0
  0
LTYPE
  5
50F
330
5
100
AcDbSymbolTableRecord
100
AcDbLinetypeTableRecord
  2
AM_ISO09W050
 70
     0
  3
_____ . . _____ . . _____ . . ____ .. ____
 72
    65
 73
     6
 40
22.5
 49
12.0
 74
     0
 49
-1.5
 74
     0
 49
3.0
 74
     0
 49
-1.5
 74
     0
 49
3.0
 74
     0
 49
-1.5
 74
     0
  0
LTYPE
  5
510
330
5
100
AcDbSymbolTableRecord
100
AcDbLinetypeTableRecord
  2
Amconstr
 70
     0
  3
_______________________
 72
    65
 73
     2
 40
9999.0
 49
9999.0
 74
     0
 49
0.0
 74
     0
  0
LTYPE
  5
511
330
5
100
AcDbSymbolTableRecord
100
AcDbLinetypeTableRecord
  2
AM_ISO08W050x2
 70
     0
  3
__ . __ . __ . __ . __ . __
 72
    65
 73
     4
 40
9.0
 49
6.0
 74
     0
 49
-0.75
 74
     0
 49
1.5
 74
     0
 49
-0.75
 74
     0
  0
LTYPE
  5
512
330
5
100
AcDbSymbolTableRecord
100
AcDbLinetypeTableRecord
  2
AM_ISO02W050x2
 70
     0
  3
 _ _ _ _ _ _ _ _ _ _ _ _
 72
    65
 73
     2
 40
3.75
 49
3.0
 74
     0
 49
-0.75
 74
     0
  0
LTYPE
  5
515
330
5
100
AcDbSymbolTableRecord
100
AcDbLinetypeTableRecord
  2
Amzigzag
 70
     0
  3
/\/-/\/-/\/-/\/-/\/-/\/
 72
    65
 73
     2
 40
11.00009999999999
 49
0.0001
 74
     4
 75
   135
340
514
 46
0.04
 50
0.0
 44
0.0
 45
0.0
 49
-11.0
 74
     0
  0
LTYPE
  5
516
330
5
100
AcDbSymbolTableRecord
100
AcDbLinetypeTableRecord
  2
CENTER2
 70
     0
  3
Center (.5x) ___ _ ___ _ ___ _ ___ _ ___ _ ___
 72
    65
 73
     4
 40
1.125
 49
0.75
 74
     0
 49
-0.125
 74
     0
 49
0.125
 74
     0
 49
-0.125
 74
     0
  0
LTYPE
  5
517
330
5
100
AcDbSymbolTableRecord
100
AcDbLinetypeTableRecord
  2
HIDDEN2
 70
     0
  3
Hidden (.5x) _ _ _ _ _ _ _ _ _ _ _ _ _ _ _ _ _
 72
    65
 73
     2
 40
0.1875
 49
0.125
 74
     0
 49
-0.0625
 74
     0
  0
LTYPE
  5
518
330
5
100
AcDbSymbolTableRecord
100
AcDbLinetypeTableRecord
  2
Amzigzag2
 70
     0
  3
/\/-/\/-/\/-/\/-/\/-/\/
 72
    65
 73
     2
 40
0.4401
 49
0.0001
 74
     4
 75
   135
340
514
 46
0.0016
 50
0.0
 44
0.0
 45
0.0
 49
-0.4400000000000001
 74
     0
  0
ENDTAB
  0
TABLE
  2
LAYER
  5
2
330
0
100
AcDbSymbolTable
 70
     5
  0
LAYER
  5
10
330
2
100
AcDbSymbolTableRecord
100
AcDbLayerTableRecord
  2
0
 70
     0
 62
     7
  6
CONTINUOUS
370
    -3
390
F
  0
LAYER
  5
26
330
2
100
AcDbSymbolTableRecord
100
AcDbLayerTableRecord
  2
1
 70
     0
 62
     1
  6
ITTEN1
370
    -3
390
F
  0
LAYER
  5
27
330
2
100
AcDbSymbolTableRecord
100
AcDbLayerTableRecord
  2
2
 70
     0
 62
     7
  6
TENSEN2
370
    -3
390
F
  0
LAYER
  5
28
330
2
100
AcDbSymbolTableRecord
100
AcDbLayerTableRecord
  2
3
 70
     0
 62
     3
  6
CONTINUOUS
370
    -3
390
F
  0
LAYER
  5
522
330
2
100
AcDbSymbolTableRecord
100
AcDbLayerTableRecord
  2
Defpoints
 70
     0
 62
     7
  6
CONTINUOUS
290
     0
370
    -3
390
F
  0
ENDTAB
  0
TABLE
  2
STYLE
  5
3
330
0
100
AcDbSymbolTable
 70
     3
  0
STYLE
  5
11
330
3
100
AcDbSymbolTableRecord
100
AcDbTextStyleTableRecord
  2
STANDARD
 70
     0
 40
0.0
 41
1.0
 50
0.0
 71
     0
 42
0.2
  3
txt
  4

  0
STYLE
  5
22
330
3
100
AcDbSymbolTableRecord
100
AcDbTextStyleTableRecord
  2
BIGFONT
 70
     0
 40
7.0
 41
0.8
 50
0.0
 71
     0
 42
7.0
  3

  4
bigfont
  0
STYLE
  5
514
330
3
100
AcDbSymbolTableRecord
100
AcDbTextStyleTableRecord
  2

 70
     1
 40
0.0
 41
1.0
 50
0.0
 71
     0
 42
7.0
  3
ltypeshp.shx
  4

  0
ENDTAB
  0
TABLE
  2
VIEW
  5
6
330
0
100
AcDbSymbolTable
 70
     0
  0
ENDTAB
  0
TABLE
  2
UCS
  5
7
330
0
100
AcDbSymbolTable
 70
     0
  0
ENDTAB
  0
TABLE
  2
APPID
  5
9
330
0
100
AcDbSymbolTable
 70
    12
  0
APPID
  5
12
330
9
100
AcDbSymbolTableRecord
100
AcDbRegAppTableRecord
  2
ACAD
 70
     0
  0
APPID
  5
446
330
9
100
AcDbSymbolTableRecord
100
AcDbRegAppTableRecord
  2
GENIUS_GENDIM_13
 70
     0
  0
APPID
  5
447
330
9
100
AcDbSymbolTableRecord
100
AcDbRegAppTableRecord
  2
GENIUS_GENDTOL_13
 70
     0
  0
APPID
  5
448
330
9
100
AcDbSymbolTableRecord
100
AcDbRegAppTableRecord
  2
GENIUS_GE3DTOL_13
 70
     0
  0
APPID
  5
44A
330
9
100
AcDbSymbolTableRecord
100
AcDbRegAppTableRecord
  2
MCAD_NO_VIS
 70
     0
  0
APPID
  5
44B
330
9
100
AcDbSymbolTableRecord
100
AcDbRegAppTableRecord
  2
ACAD_TEMP_GRAPHIC
 70
     0
  0
APPID
  5
47E
330
9
100
AcDbSymbolTableRecord
100
AcDbRegAppTableRecord
  2
AD_DRAW
 70
     0
  0
APPID
  5
481
330
9
100
AcDbSymbolTableRecord
100
AcDbRegAppTableRecord
  2
ACATTRIBSERVICES
 70
     0
  0
APPID
  5
4CD
330
9
100
AcDbSymbolTableRecord
100
AcDbRegAppTableRecord
  2
ASURF_PCURVE_APPNAME
 70
     0
  0
APPID
  5
4FC
330
9
100
AcDbSymbolTableRecord
100
AcDbRegAppTableRecord
  2
DESIGNERASSEMBLIES
 70
     0
  0
APPID
  5
504
330
9
100
AcDbSymbolTableRecord
100
AcDbRegAppTableRecord
  2
ACADM_DIM_EDIT
 70
     0
  0
APPID
  5
505
330
9
100
AcDbSymbolTableRecord
100
AcDbRegAppTableRecord
  2
AMDT_DM_ADJ
 70
     0
  0
ENDTAB
  0
TABLE
  2
DIMSTYLE
  5
A
330
0
100
AcDbSymbolTable
 70
     1
100
AcDbDimStyleTable
 71
     1
340
29
  0
DIMSTYLE
105
29
330
A
100
AcDbSymbolTableRecord
100
AcDbDimStyleTableRecord
  2
STANDARD
 70
     0
279
     2
340
22
  0
ENDTAB
  0
TABLE
  2
BLOCK_RECORD
  5
1
330
0
100
AcDbSymbolTable
 70
     4
  0
BLOCK_RECORD
  5
1E
102
{ACAD_XDICTIONARY
360
553
102
}
330
1
100
AcDbSymbolTableRecord
100
AcDbBlockTableRecord
  2
*Model_Space
340
21
  0
BLOCK_RECORD
  5
1A
330
1
100
AcDbSymbolTableRecord
100
AcDbBlockTableRecord
  2
*Paper_Space
340
1D
  0
BLOCK_RECORD
  5
4F3
330
1
100
AcDbSymbolTableRecord
100
AcDbBlockTableRecord
  2
*U0
340
0
  0
BLOCK_RECORD
  5
523
330
1
100
AcDbSymbolTableRecord
100
AcDbBlockTableRecord
  2
*D1
340
0
  0
BLOCK_RECORD
  5
531
330
1
100
AcDbSymbolTableRecord
100
AcDbBlockTableRecord
  2
*D2
340
0
  0
BLOCK_RECORD
  5
53F
330
1
100
AcDbSymbolTableRecord
100
AcDbBlockTableRecord
  2
*D3
340
0
  0
ENDTAB
  0
ENDSEC
  0
SECTION
  2
BLOCKS
  0
BLOCK
  5
1F
330
1E
100
AcDbEntity
  8
0
100
AcDbBlockBegin
  2
*Model_Space
 70
     0
 10
0.0
 20
0.0
 30
0.0
  3
*Model_Space
  1

  0
ENDBLK
  5
20
330
1E
100
AcDbEntity
  8
0
100
AcDbBlockEnd
  0
BLOCK
  5
1B
330
1A
100
AcDbEntity
 67
     1
  8
0
100
AcDbBlockBegin
  2
*Paper_Space
 70
     0
 10
0.0
 20
0.0
 30
0.0
  3
*Paper_Space
  1

  0
ENDBLK
  5
1C
330
1A
100
AcDbEntity
 67
     1
  8
0
100
AcDbBlockEnd
  0
BLOCK
  5
4F4
330
4F3
100
AcDbEntity
  8
0
100
AcDbBlockBegin
  2
*U0
 70
     1
 10
0.0
 20
0.0
 30
0.0
  3
*U0
  1

  0
ENDBLK
  5
4F5
330
4F3
100
AcDbEntity
  8
0
100
AcDbBlockEnd
  0
BLOCK
  5
52E
330
523
100
AcDbEntity
  8
0
100
AcDbBlockBegin
  2
*D1
 70
     1
 10
0.0
 20
0.0
 30
0.0
  3
*D1
  1

  0
LINE
  5
524
330
523
100
AcDbEntity
  8
0
 62
     0
370
    -2
100
AcDbLine
 10
338.9499999999999
 20
268.1125
 30
0.0
 11
338.9499999999999
 21
301.9882863913443
 31
0.0
  0
LINE
  5
525
330
523
100
AcDbEntity
  8
0
 62
     0
370
    -2
100
AcDbLine
 10
303.9942484448315
 20
272.3721774193545
 30
0.0
 11
303.9942484448315
 21
301.9882863913443
 31
0.0
  0
LINE
  5
526
330
523
100
AcDbEntity
  8
0
 62
     0
370
    -2
100
AcDbLine
 10
338.7699999999999
 20
301.8082863913443
 30
0.0
 11
304.1742484448315
 21
301.8082863913443
 31
0.0
  0
LINE
  5
527
330
523
100
AcDbEntity
  8
0
 62
     0
370
    -2
100
AcDbLine
 10
303.9942484448315
 20
301.8082863913443
 30
0.0
 11
303.8142484448315
 21
301.8082863913443
 31
0.0
  0
SOLID
  5
528
330
523
100
AcDbEntity
  8
0
 62
     0
100
AcDbTrace
 10
338.7699999999999
 20
301.8382863913442
 30
0.0
 11
338.7699999999999
 21
301.7782863913443
 31
0.0
 12
338.9499999999999
 22
301.8082863913443
 32
0.0
 13
338.9499999999999
 23
301.8082863913443
 33
0.0
  0
SOLID
  5
529
330
523
100
AcDbEntity
  8
0
 62
     0
100
AcDbTrace
 10
304.1742484448315
 20
301.8382863913442
 30
0.0
 11
304.1742484448315
 21
301.7782863913443
 31
0.0
 12
303.9942484448315
 22
301.8082863913443
 32
0.0
 13
303.9942484448315
 23
301.8082863913443
 33
0.0
  0
MTEXT
  5
52A
330
523
100
AcDbEntity
  8
0
 62
     0
100
AcDbMText
 10
273.7242484448315
 20
301.8082863913443
 30
0.0
 40
10.0
 41
0.0
 71
     5
 72
     1
  1
\A1;34.9558
 73
     1
 44
1.0
  0
POINT
  5
52B
330
523
100
AcDbEntity
  8
Defpoints
 62
     0
100
AcDbPoint
 10
338.9499999999999
 20
268.05
 30
0.0
  0
POINT
  5
52C
330
523
100
AcDbEntity
  8
Defpoints
 62
     0
100
AcDbPoint
 10
303.9942484448315
 20
272.3096774193546
 30
0.0
  0
POINT
  5
52D
330
523
100
AcDbEntity
  8
Defpoints
 62
     0
100
AcDbPoint
 10
303.9942484448315
 20
301.8082863913443
 30
0.0
  0
ENDBLK
  5
52F
330
523
100
AcDbEntity
  8
0
100
AcDbBlockEnd
  0
BLOCK
  5
53C
330
531
100
AcDbEntity
  8
0
100
AcDbBlockBegin
  2
*D2
 70
     1
 10
0.0
 20
0.0
 30
0.0
  3
*D2
  1

  0
LINE
  5
532
330
531
100
AcDbEntity
  8
0
 62
     0
370
    -2
100
AcDbLine
 10
312.7496887966673
 20
272.3870297214629
 30
0.0
 11
312.7496887966673
 21
289.8140650285346
 31
0.0
  0
LINE
  5
533
330
531
100
AcDbEntity
  8
0
 62
     0
370
    -2
100
AcDbLine
 10
303.9942484448315
 20
272.3721774193545
 30
0.0
 11
303.9942484448315
 21
289.8140650285346
 31
0.0
  0
LINE
  5
534
330
531
100
AcDbEntity
  8
0
 62
     0
370
    -2
100
AcDbLine
 10
312.5696887966673
 20
289.6340650285346
 30
0.0
 11
304.1742484448315
 21
289.6340650285346
 31
0.0
  0
LINE
  5
535
330
531
100
AcDbEntity
  8
0
 62
     0
370
    -2
100
AcDbLine
 10
303.9942484448315
 20
289.6340650285346
 30
0.0
 11
303.8142484448315
 21
289.6340650285346
 31
0.0
  0
SOLID
  5
536
330
531
100
AcDbEntity
  8
0
 62
     0
100
AcDbTrace
 10
312.5696887966673
 20
289.6640650285346
 30
0.0
 11
312.5696887966673
 21
289.6040650285346
 31
0.0
 12
312.7496887966673
 22
289.6340650285346
 32
0.0
 13
312.7496887966673
 23
289.6340650285346
 33
0.0
  0
SOLID
  5
537
330
531
100
AcDbEntity
  8
0
 62
     0
100
AcDbTrace
 10
304.1742484448315
 20
289.6640650285346
 30
0.0
 11
304.1742484448315
 21
289.6040650285346
 31
0.0
 12
303.9942484448315
 22
289.6340650285346
 32
0.0
 13
303.9942484448315
 23
289.6340650285346
 33
0.0
  0
MTEXT
  5
538
330
531
100
AcDbEntity
  8
0
 62
     0
100
AcDbMText
 10
278.7242484448315
 20
289.6340650285346
 30
0.0
 40
10.0
 41
0.0
 71
     5
 72
     1
  1
\A1;8.7554
 73
     1
 44
1.0
  0
POINT
  5
539
330
531
100
AcDbEntity
  8
Defpoints
 62
     0
100
AcDbPoint
 10
312.7496887966673
 20
272.3245297214629
 30
0.0
  0
POINT
  5
53A
330
531
100
AcDbEntity
  8
Defpoints
 62
     0
100
AcDbPoint
 10
303.9942484448315
 20
272.3096774193546
 30
0.0
  0
POINT
  5
53B
330
531
100
AcDbEntity
  8
Defpoints
 62
     0
100
AcDbPoint
 10
303.9942484448315
 20
289.6340650285346
 30
0.0
  0
ENDBLK
  5
53D
330
531
100
AcDbEntity
  8
0
100
AcDbBlockEnd
  0
BLOCK
  5
54A
330
53F
100
AcDbEntity
  8
0
100
AcDbBlockBegin
  2
*D3
 70
     1
 10
0.0
 20
0.0
 30
0.0
  3
*D3
  1

  0
LINE
  5
540
330
53F
100
AcDbEntity
  8
0
 62
     0
370
    -2
100
AcDbLine
 10
328.3942484448315
 20
210.8874999999999
 30
0.0
 11
328.3942484448315
 21
193.1505276614243
 31
0.0
  0
LINE
  5
541
330
53F
100
AcDbEntity
  8
0
 62
     0
370
    -2
100
AcDbLine
 10
304.1692184706984
 20
211.7401165670569
 30
0.0
 11
304.1692184706984
 21
193.1505276614243
 31
0.0
  0
LINE
  5
542
330
53F
100
AcDbEntity
  8
0
 62
     0
370
    -2
100
AcDbLine
 10
328.2142484448315
 20
193.3305276614243
 30
0.0
 11
304.3492184706984
 21
193.3305276614243
 31
0.0
  0
LINE
  5
543
330
53F
100
AcDbEntity
  8
0
 62
     0
370
    -2
100
AcDbLine
 10
304.1692184706984
 20
193.3305276614243
 30
0.0
 11
303.9892184706983
 21
193.3305276614243
 31
0.0
  0
SOLID
  5
544
330
53F
100
AcDbEntity
  8
0
 62
     0
100
AcDbTrace
 10
328.2142484448315
 20
193.3605276614243
 30
0.0
 11
328.2142484448315
 21
193.3005276614243
 31
0.0
 12
328.3942484448315
 22
193.3305276614243
 32
0.0
 13
328.3942484448315
 23
193.3305276614243
 33
0.0
  0
SOLID
  5
545
330
53F
100
AcDbEntity
  8
0
 62
     0
100
AcDbTrace
 10
304.3492184706984
 20
193.3605276614243
 30
0.0
 11
304.3492184706984
 21
193.3005276614243
 31
0.0
 12
304.1692184706984
 22
193.3305276614243
 32
0.0
 13
304.1692184706984
 23
193.3305276614243
 33
0.0
  0
MTEXT
  5
546
330
53F
100
AcDbEntity
  8
0
 62
     0
100
AcDbMText
 10
274.7325518040317
 20
193.3305276614243
 30
0.0
 40
10.0
 41
0.0
 71
     5
 72
     1
  1
\A1;24.2250
 73
     1
 44
1.0
  0
POINT
  5
547
330
53F
100
AcDbEntity
  8
Defpoints
 62
     0
100
AcDbPoint
 10
328.3942484448315
 20
210.9499999999999
 30
0.0
  0
POINT
  5
548
330
53F
100
AcDbEntity
  8
Defpoints
 62
     0
100
AcDbPoint
 10
304.1692184706984
 20
211.8026165670569
 30
0.0
  0
POINT
  5
549
330
53F
100
AcDbEntity
  8
Defpoints
 62
     0
100
AcDbPoint
 10
304.1692184706984
 20
193.3305276614243
 30
0.0
  0
ENDBLK
  5
54B
330
53F
100
AcDbEntity
  8
0
100
AcDbBlockEnd
  0
ENDSEC
  0
SECTION
  2
ENTITIES
  0
LINE
  5
2D
330
1E
100
AcDbEntity
  8
3
100
AcDbLine
 10
600.0
 20
18.0
 30
0.0
 11
456.0
 21
18.0
 31
0.0
  0
LINE
  5
2E
330
1E
100
AcDbEntity
  8
3
100
AcDbLine
 10
600.0
 20
36.0
 30
0.0
 11
456.0
 21
36.0
 31
0.0
  0
LINE
  5
2F
330
1E
100
AcDbEntity
  8
3
100
AcDbLine
 10
600.0
 20
54.0
 30
0.0
 11
456.0
 21
54.0
 31
0.0
  0
LINE
  5
30
330
1E
100
AcDbEntity
  8
3
100
AcDbLine
 10
456.0
 20
54.0
 30
0.0
 11
456.0
 21
0.0
 31
0.0
  0
LINE
  5
31
330
1E
100
AcDbEntity
  8
3
100
AcDbLine
 10
456.0
 20
0.0
 30
0.0
 11
456.0
 21
0.0
 31
0.0
  0
LINE
  5
32
330
1E
100
AcDbEntity
  8
3
100
AcDbLine
 10
491.9999999999999
 20
18.0
 30
0.0
 11
491.9999999999999
 21
0.0
 31
0.0
  0
TEXT
  5
33
330
1E
100
AcDbEntity
  8
3
100
AcDbText
 10
460.9731421803864
 20
47.77702741700149
 30
0.0
 40
4.5
  1
部品名称
  7
BIGFONT
100
AcDbText
  0
TEXT
  5
34
330
1E
100
AcDbEntity
  8
3
100
AcDbText
 10
460.2834747478278
 20
29.85810730175997
 30
0.0
 40
4.5
  1
品番
  7
BIGFONT
100
AcDbText
  0
TEXT
  5
35
330
1E
100
AcDbEntity
  8
3
100
AcDbText
 10
459.5938073152688
 20
11.93918718651846
 30
0.0
 40
4.5
  1
尺度
  7
BIGFONT
100
AcDbText
  0
TEXT
  5
36
330
1E
100
AcDbEntity
  8
3
100
AcDbText
 10
495.4565302133572
 20
11.93918879758065
 30
0.0
 40
4.5
  1
図番
  7
BIGFONT
100
AcDbText
  0
TEXT
  5
37
330
1E
100
AcDbEntity
  8
3
100
AcDbText
 10
465.1111495099111
 20
2.290538885118997
 30
0.0
 40
7.5
  1
１
  7
BIGFONT
100
AcDbText
  0
TEXT
  5
38
330
1E
100
AcDbEntity
  8
3
100
AcDbText
 10
474.0768288673472
 20
2.939187186518466
 30
0.0
 40
7.5
  1
／
  7
BIGFONT
100
AcDbText
  0
TEXT
  5
39
330
1E
100
AcDbEntity
  8
3
100
AcDbText
 10
483.0425109589551
 20
2.209457389298322
 30
0.0
 40
7.5
  1
１
  7
BIGFONT
100
AcDbText
  0
POLYLINE
  5
3A
330
1E
100
AcDbEntity
  8
0
100
AcDb2dPolyline
 66
     1
 10
0.0
 20
0.0
 30
0.0
 70
     1
  0
VERTEX
  5
3B
330
3A
100
AcDbEntity
  8
0
100
AcDbVertex
100
AcDb2dVertex
 10
0.0
 20
450.0
 30
0.0
  0
VERTEX
  5
3C
330
3A
100
AcDbEntity
  8
0
100
AcDbVertex
100
AcDb2dVertex
 10
0.0
 20
0.0
 30
0.0
  0
VERTEX
  5
3D
330
3A
100
AcDbEntity
  8
0
100
AcDbVertex
100
AcDb2dVertex
 10
600.0
 20
0.0
 30
0.0
  0
VERTEX
  5
3E
330
3A
100
AcDbEntity
  8
0
100
AcDbVertex
100
AcDb2dVertex
 10
600.0
 20
450.0
 30
0.0
  0
SEQEND
  5
3F
330
3A
100
AcDbEntity
  8
0
  0
TEXT
  5
40
330
1E
100
AcDbEntity
  8
3
100
AcDbText
 10
482.1842328852446
 20
38.69087789975351
 30
0.0
 40
8.4
  1
スプロケット・アイドラーＢ型
 41
0.8
  7
BIGFONT
100
AcDbText
  0
LINE
  5
41
330
1E
100
AcDbEntity
  8
1
100
AcDbLine
 10
117.1
 20
242.05
 30
0.0
 11
222.05
 21
242.05
 31
0.0
  0
CIRCLE
  5
42
330
1E
100
AcDbEntity
  8
0
100
AcDbCircle
 10
169.6999999999999
 20
242.05
 30
0.0
 40
21.0
  0
CIRCLE
  5
43
330
1E
100
AcDbEntity
  8
0
100
AcDbCircle
 10
169.6999999999999
 20
242.05
 30
0.0
 40
22.5
  0
CIRCLE
  5
44
330
1E
100
AcDbEntity
  8
0
100
AcDbCircle
 10
169.6999999999999
 20
242.05
 30
0.0
 40
18.7
  0
CIRCLE
  5
45
330
1E
100
AcDbEntity
  8
0
100
AcDbCircle
 10
169.6999999999999
 20
242.05
 30
0.0
 40
13.7
  0
CIRCLE
  5
46
330
1E
100
AcDbEntity
  8
0
100
AcDbCircle
 10
169.6999999999999
 20
242.05
 30
0.0
 40
11.0
  0
CIRCLE
  5
47
330
1E
100
AcDbEntity
  8
0
100
AcDbCircle
 10
169.6999999999999
 20
242.05
 30
0.0
 40
10.0
  0
ARC
  5
48
330
1E
100
AcDbEntity
  8
0
100
AcDbCircle
 10
169.6999999999999
 20
276.6250000000008
 30
0.0
 40
4.924999999999097
100
AcDbArc
 50
81.82876644004847
 51
98.17123355995104
  0
ARC
  5
49
330
1E
100
AcDbEntity
  8
0
100
AcDbCircle
 10
155.3880000000002
 20
274.3219999999999
 30
0.0
 40
16.63982656159591
100
AcDbArc
 50
10.48470555844904
 51
25.55483300510019
  0
ARC
  5
4A
330
1E
100
AcDbEntity
  8
0
100
AcDbCircle
 10
187.4160628019308
 20
272.9762077294692
 30
0.0
 40
20.29301366963074
100
AcDbArc
 50
155.1631521638747
 51
167.5532640487296
  0
LINE
  5
4B
330
1E
100
AcDbEntity
  8
0
100
AcDbLine
 10
171.75
 20
277.35
 30
0.0
 11
171.95
 21
275.85
 31
0.0
  0
LINE
  5
4C
330
1E
100
AcDbEntity
  8
0
100
AcDbLine
 10
167.4499999999999
 20
275.85
 30
0.0
 11
167.5999999999999
 21
277.35
 31
0.0
  0
ARC
  5
4D
330
1E
100
AcDbEntity
  8
0
100
AcDbCircle
 10
177.9067073170729
 20
278.5275049439682
 30
0.0
 40
6.530803532969398
100
AcDbArc
 50
204.2036372239471
 51
257.5612539562417
  0
ARC
  5
4E
330
1E
100
AcDbEntity
  8
0
100
AcDbCircle
 10
160.5128787878788
 20
279.6071457821455
 30
0.0
 40
7.845290499321375
100
AcDbArc
 50
288.0982664025233
 51
331.3861152595665
  0
ARC
  5
4F
330
1E
100
AcDbEntity
  8
0
100
AcDbCircle
 10
172.2432423999553
 20
277.600261937478
 30
0.0
 40
20.29301366963074
100
AcDbArc
 50
180.8774378781544
 51
193.2675497630095
  0
ARC
  5
50
330
1E
100
AcDbEntity
  8
0
100
AcDbCircle
 10
142.8030375337788
 20
264.9163232306964
 30
0.0
 40
16.63982656159591
100
AcDbArc
 50
36.19899127272883
 51
51.26911871937998
  0
ARC
  5
51
330
1E
100
AcDbEntity
  8
0
100
AcDbCircle
 10
145.1272549596924
 20
271.9016766137446
 30
0.0
 40
7.845290499321375
100
AcDbArc
 50
313.8125521168031
 51
357.1004009738462
  0
LINE
  5
52
330
1E
100
AcDbEntity
  8
0
100
AcDbLine
 10
153.0075496650461
 20
271.5265093220871
 30
0.0
 11
152.4918693865551
 21
272.9430451848084
 31
0.0
  0
ARC
  5
53
330
1E
100
AcDbEntity
  8
0
100
AcDbCircle
 10
161.2669915619015
 20
278.4758531898468
 30
0.0
 40
6.530803532969398
100
AcDbArc
 50
229.9179229382269
 51
283.2755396705215
  0
LINE
  5
54
330
1E
100
AcDbEntity
  8
0
100
AcDbLine
 10
156.2308901883501
 20
274.7436627021463
 30
0.0
 11
157.0619095706069
 21
273.4789861481161
 31
0.0
  0
ARC
  5
55
330
1E
100
AcDbEntity
  8
0
100
AcDbCircle
 10
154.69846972001
 20
273.2009986077268
 30
0.0
 40
4.924999999999097
100
AcDbArc
 50
107.5430521543282
 51
123.8855192742308
  0
ARC
  5
56
330
1E
100
AcDbEntity
  8
0
100
AcDbCircle
 10
156.5667016498476
 20
275.183150773419
 30
0.0
 40
20.29301366963074
100
AcDbArc
 50
206.5917235924461
 51
218.9818354773011
  0
ARC
  5
57
330
1E
100
AcDbEntity
  8
0
100
AcDbCircle
 10
135.5453483535896
 20
250.9816907085026
 30
0.0
 40
16.63982656159591
100
AcDbArc
 50
61.91327698702047
 51
76.98340443367162
  0
ARC
  5
58
330
1E
100
AcDbEntity
  8
0
100
AcDbCircle
 10
134.6085646516795
 20
258.2837167852034
 30
0.0
 40
7.845290499321375
100
AcDbArc
 50
339.5268378310948
 51
22.81468668813793
  0
LINE
  5
59
330
1E
100
AcDbEntity
  8
0
100
AcDbLine
 10
141.8712438383983
 20
261.3648344672721
 30
0.0
 11
140.792020084975
 21
262.4173438924304
 31
0.0
  0
ARC
  5
5A
330
1E
100
AcDbEntity
  8
0
100
AcDbCircle
 10
146.2975365519569
 20
271.209614477704
 30
0.0
 40
6.530803532969398
100
AcDbArc
 50
255.6322086525184
 51
308.9898253848131
  0
LINE
  5
5B
330
1E
100
AcDbEntity
  8
0
100
AcDbLine
 10
143.3795027626888
 20
265.6619445446726
 30
0.0
 11
144.6769479467627
 21
264.8830761383781
 31
0.0
  0
ARC
  5
5C
330
1E
100
AcDbEntity
  8
0
100
AcDbCircle
 10
142.6681764936671
 20
263.6071598992661
 30
0.0
 40
4.924999999999097
100
AcDbArc
 50
133.2573378686199
 51
149.5998049885224
  0
ARC
  5
5D
330
1E
100
AcDbEntity
  8
0
100
AcDbCircle
 10
143.4913717073215
 20
266.2036127472569
 30
0.0
 40
20.29301366963074
100
AcDbArc
 50
232.3060093067319
 51
244.6961211915867
  0
ARC
  5
5E
330
1E
100
AcDbEntity
  8
0
100
AcDbCircle
 10
135.0524068112854
 20
235.278027301492
 30
0.0
 40
16.63982656159591
100
AcDbArc
 50
87.62756270130619
 51
102.6976901479573
  0
ARC
  5
5F
330
1E
100
AcDbEntity
  8
0
100
AcDbCircle
 10
131.0401634826133
 20
241.4504702538819
 30
0.0
 40
7.845290499321375
100
AcDbArc
 50
5.241123545380608
 51
48.52897240242362
  0
LINE
  5
60
330
1E
100
AcDbEntity
  8
0
100
AcDbLine
 10
136.2467644668525
 20
247.3776197653143
 30
0.0
 11
134.8177507386733
 21
247.8576403530761
 31
0.0
  0
ARC
  5
61
330
1E
100
AcDbEntity
  8
0
100
AcDbCircle
 10
135.9632264402762
 20
258.1679564990492
 30
0.0
 40
6.530803532969398
100
AcDbArc
 50
281.3464943668042
 51
334.7041110990989
  0
LINE
  5
62
330
1E
100
AcDbEntity
  8
0
100
AcDbLine
 10
135.7412126145919
 20
251.9035911886306
 30
0.0
 11
137.2481086696559
 21
251.7647953701324
 31
0.0
  0
ARC
  5
63
330
1E
100
AcDbEntity
  8
0
100
AcDbCircle
 10
135.9918674363125
 20
249.7436612915397
 30
0.0
 40
4.924999999999097
100
AcDbArc
 50
158.9716235829056
 51
175.314090702808
  0
ARC
  5
64
330
1E
100
AcDbEntity
  8
0
100
AcDbCircle
 10
135.6069820258927
 20
252.4401554918799
 30
0.0
 40
20.29301366963074
100
AcDbArc
 50
258.0202950210176
 51
270.4104069058724
  0
ARC
  5
65
330
1E
100
AcDbEntity
  8
0
100
AcDbCircle
 10
141.4218460248507
 20
220.9156361402157
 30
0.0
 40
16.63982656159591
100
AcDbArc
 50
113.3418484155918
 51
128.411975862243
  0
ARC
  5
66
330
1E
100
AcDbEntity
  8
0
100
AcDbCircle
 10
135.1288170675952
 20
224.7359679415288
 30
0.0
 40
7.845290499321375
100
AcDbArc
 50
30.95540925966631
 51
74.24325811670939
  0
LINE
  5
67
330
1E
100
AcDbEntity
  8
0
100
AcDbLine
 10
137.2481086696559
 20
232.3352046298674
 30
0.0
 11
135.7523386612897
 21
232.1476624157601
 31
0.0
  0
ARC
  5
68
330
1E
100
AcDbEntity
  8
0
100
AcDbCircle
 10
132.3108980864737
 20
241.9339395619934
 30
0.0
 40
6.530803532969398
100
AcDbArc
 50
307.0607800810898
 51
0.4183968133846518
  0
LINE
  5
69
330
1E
100
AcDbEntity
  8
0
100
AcDbLine
 10
134.8288767853711
 20
236.1936132513148
 30
0.0
 11
136.2467644668525
 21
236.7223802346856
 31
0.0
  0
ARC
  5
6A
330
1E
100
AcDbEntity
  8
0
100
AcDbCircle
 10
135.9918674363125
 20
234.3563387084601
 30
0.0
 40
4.924999999999097
100
AcDbArc
 50
184.6859092971913
 51
201.0283764170938
  0
ARC
  5
6B
330
1E
100
AcDbEntity
  8
0
100
AcDbCircle
 10
134.4751326776622
 20
236.6188005144414
 30
0.0
 40
20.29301366963074
100
AcDbArc
 50
283.7345807353033
 51
296.1246926201582
  0
ARC
  5
6C
330
1E
100
AcDbEntity
  8
0
100
AcDbCircle
 10
153.3921204419938
 20
210.7391649373325
 30
0.0
 40
16.63982656159591
100
AcDbArc
 50
139.0561341298775
 51
154.1262615765286
  0
ARC
  5
6D
330
1E
100
AcDbEntity
  8
0
100
AcDbCircle
 10
146.0647174200746
 20
211.4507220210243
 30
0.0
 40
7.845290499321375
100
AcDbArc
 50
56.66969497395202
 51
99.95754383099512
  0
LINE
  5
6E
330
1E
100
AcDbEntity
  8
0
100
AcDbLine
 10
144.6769479467627
 20
219.2169238616216
 30
0.0
 11
143.4106772527819
 21
218.3989638812037
 31
0.0
  0
ARC
  5
6F
330
1E
100
AcDbEntity
  8
0
100
AcDbCircle
 10
136.0639399138879
 20
225.7229098180727
 30
0.0
 40
6.530803532969398
100
AcDbArc
 50
332.7750657953756
 51
26.13268252767035
  0
LINE
  5
70
330
1E
100
AcDbEntity
  8
0
100
AcDbLine
 10
140.8231945750681
 20
221.6435645334462
 30
0.0
 11
141.8712438383983
 21
222.7351655327277
 31
0.0
  0
ARC
  5
71
330
1E
100
AcDbEntity
  8
0
100
AcDbCircle
 10
142.6681764936671
 20
220.4928401007336
 30
0.0
 40
4.924999999999097
100
AcDbArc
 50
210.400195011477
 51
226.7426621313794
  0
ARC
  5
72
330
1E
100
AcDbEntity
  8
0
100
AcDbCircle
 10
140.3200003072678
 20
221.8731612044082
 30
0.0
 40
20.29301366963074
100
AcDbArc
 50
309.4488664495949
 51
321.8389783344499
  0
ARC
  5
73
330
1E
100
AcDbEntity
  8
0
100
AcDbCircle
 10
168.5923704086174
 20
206.7641886208027
 30
0.0
 40
16.63982656159591
100
AcDbArc
 50
164.7704198441691
 51
179.8405472908203
  0
ARC
  5
74
330
1E
100
AcDbEntity
  8
0
100
AcDbCircle
 10
161.6818753552264
 20
204.2260383797728
 30
0.0
 40
7.845290499321375
100
AcDbArc
 50
82.38398068824363
 51
125.6718295452867
  0
LINE
  5
75
330
1E
100
AcDbEntity
  8
0
100
AcDbLine
 10
157.0619095706069
 20
210.6210138518837
 30
0.0
 11
156.2759386317452
 21
209.3346431108976
 31
0.0
  0
ARC
  5
76
330
1E
100
AcDbEntity
  8
0
100
AcDbCircle
 10
146.479015960562
 20
212.7456605233031
 30
0.0
 40
6.530803532969398
100
AcDbArc
 50
358.4893515096672
 51
51.84696824196198
  0
LINE
  5
77
330
1E
100
AcDbEntity
  8
0
100
AcDbLine
 10
152.5369178299501
 20
211.1352606282355
 30
0.0
 11
153.007549665046
 21
212.5734906779126
 31
0.0
  0
ARC
  5
78
330
1E
100
AcDbEntity
  8
0
100
AcDbCircle
 10
154.69846972001
 20
210.899001392273
 30
0.0
 40
4.924999999999097
100
AcDbArc
 50
236.1144807257687
 51
252.4569478456712
  0
ARC
  5
79
330
1E
100
AcDbEntity
  8
0
100
AcDbCircle
 10
151.9839371980691
 20
211.1237922705308
 30
0.0
 40
20.29301366963074
100
AcDbArc
 50
335.1631521638747
 51
347.5532640487297
  0
ARC
  5
7A
330
1E
100
AcDbEntity
  8
0
100
AcDbCircle
 10
184.0119999999997
 20
209.7779999999999
 30
0.0
 40
16.63982656159591
100
AcDbArc
 50
190.4847055584489
 51
205.5548330051001
  0
ARC
  5
7B
330
1E
100
AcDbEntity
  8
0
100
AcDbCircle
 10
178.8871212121209
 20
204.4928542178543
 30
0.0
 40
7.845290499321375
100
AcDbArc
 50
108.0982664025235
 51
151.3861152595666
  0
LINE
  5
7C
330
1E
100
AcDbEntity
  8
0
100
AcDbLine
 10
171.95
 20
208.25
 30
0.0
 11
171.8
 21
206.7499999999999
 31
0.0
  0
ARC
  5
7D
330
1E
100
AcDbEntity
  8
0
100
AcDbCircle
 10
161.4932926829268
 20
205.5724950560318
 30
0.0
 40
6.530803532969398
100
AcDbArc
 50
24.20363722394709
 51
77.56125395624173
  0
LINE
  5
7E
330
1E
100
AcDbEntity
  8
0
100
AcDbLine
 10
167.65
 20
206.7499999999999
 30
0.0
 11
167.4499999999999
 21
208.25
 31
0.0
  0
ARC
  5
7F
330
1E
100
AcDbEntity
  8
0
100
AcDbCircle
 10
169.6999999999999
 20
207.474999999999
 30
0.0
 40
4.924999999999097
100
AcDbArc
 50
261.8287664400483
 51
278.171233559951
  0
ARC
  5
80
330
1E
100
AcDbEntity
  8
0
100
AcDbCircle
 10
167.1567576000445
 20
206.4997380625218
 30
0.0
 40
20.29301366963074
100
AcDbArc
 50
0.8774378781545205
 51
13.26754976300948
  0
ARC
  5
81
330
1E
100
AcDbEntity
  8
0
100
AcDbCircle
 10
196.596962466221
 20
219.1836767693035
 30
0.0
 40
16.63982656159591
100
AcDbArc
 50
216.1989912727288
 51
231.2691187193798
  0
ARC
  5
82
330
1E
100
AcDbEntity
  8
0
100
AcDbCircle
 10
194.2727450403075
 20
212.1983233862555
 30
0.0
 40
7.845290499321375
100
AcDbArc
 50
133.8125521168032
 51
177.1004009738462
  0
LINE
  5
83
330
1E
100
AcDbEntity
  8
0
100
AcDbLine
 10
186.3924503349539
 20
212.5734906779126
 30
0.0
 11
186.9081306134448
 21
211.1569548151915
 31
0.0
  0
ARC
  5
84
330
1E
100
AcDbEntity
  8
0
100
AcDbCircle
 10
178.1330084380982
 20
205.6241468101529
 30
0.0
 40
6.530803532969398
100
AcDbArc
 50
49.91792293822689
 51
103.2755396705215
  0
LINE
  5
85
330
1E
100
AcDbEntity
  8
0
100
AcDbLine
 10
183.1691098116498
 20
209.3563372978535
 30
0.0
 11
182.3380904293929
 21
210.6210138518837
 31
0.0
  0
ARC
  5
86
330
1E
100
AcDbEntity
  8
0
100
AcDbCircle
 10
184.70153027999
 20
210.8990013922731
 30
0.0
 40
4.924999999999097
100
AcDbArc
 50
287.5430521543282
 51
303.8855192742308
  0
ARC
  5
87
330
1E
100
AcDbEntity
  8
0
100
AcDbCircle
 10
182.8332983501524
 20
208.916849226581
 30
0.0
 40
20.29301366963074
100
AcDbArc
 50
26.59172359244616
 51
38.98183547730113
  0
ARC
  5
88
330
1E
100
AcDbEntity
  8
0
100
AcDbCircle
 10
203.8546516464104
 20
233.1183092914971
 30
0.0
 40
16.63982656159591
100
AcDbArc
 50
241.9132769870203
 51
256.9834044336715
  0
ARC
  5
89
330
1E
100
AcDbEntity
  8
0
100
AcDbCircle
 10
204.7914353483204
 20
225.8162832147965
 30
0.0
 40
7.845290499321375
100
AcDbArc
 50
159.5268378310947
 51
202.814686688138
  0
LINE
  5
8A
330
1E
100
AcDbEntity
  8
0
100
AcDbLine
 10
197.5287561616015
 20
222.7351655327277
 30
0.0
 11
198.6079799150248
 21
221.6826561075694
 31
0.0
  0
ARC
  5
8B
330
1E
100
AcDbEntity
  8
0
100
AcDbCircle
 10
193.1024634480429
 20
212.8903855222958
 30
0.0
 40
6.530803532969398
100
AcDbArc
 50
75.63220865251853
 51
128.989825384813
  0
LINE
  5
8C
330
1E
100
AcDbEntity
  8
0
100
AcDbLine
 10
196.0204972373109
 20
218.4380554553272
 30
0.0
 11
194.7230520532371
 21
219.2169238616216
 31
0.0
  0
ARC
  5
8D
330
1E
100
AcDbEntity
  8
0
100
AcDbCircle
 10
196.7318235063329
 20
220.4928401007337
 30
0.0
 40
4.924999999999097
100
AcDbArc
 50
313.2573378686199
 51
329.5998049885223
  0
ARC
  5
8E
330
1E
100
AcDbEntity
  8
0
100
AcDbCircle
 10
195.9086282926784
 20
217.8963872527431
 30
0.0
 40
20.29301366963074
100
AcDbArc
 50
52.30600930673188
 51
64.69612119158684
  0
ARC
  5
8F
330
1E
100
AcDbEntity
  8
0
100
AcDbCircle
 10
204.3475931887146
 20
248.8219726985078
 30
0.0
 40
16.63982656159591
100
AcDbArc
 50
267.627562701306
 51
282.6976901479572
  0
ARC
  5
90
330
1E
100
AcDbEntity
  8
0
100
AcDbCircle
 10
208.3598365173866
 20
242.649529746118
 30
0.0
 40
7.845290499321375
100
AcDbArc
 50
185.2411235453805
 51
228.5289724024235
  0
LINE
  5
91
330
1E
100
AcDbEntity
  8
0
100
AcDbLine
 10
203.1532355331473
 20
236.7223802346856
 30
0.0
 11
204.5822492613265
 21
236.2423596469238
 31
0.0
  0
ARC
  5
92
330
1E
100
AcDbEntity
  8
0
100
AcDbCircle
 10
203.4367735597238
 20
225.9320435009508
 30
0.0
 40
6.530803532969398
100
AcDbArc
 50
101.3464943668041
 51
154.7041110990988
  0
LINE
  5
93
330
1E
100
AcDbEntity
  8
0
100
AcDbLine
 10
203.6587873854078
 20
232.1964088113693
 30
0.0
 11
202.1518913303438
 21
232.3352046298674
 31
0.0
  0
ARC
  5
94
330
1E
100
AcDbEntity
  8
0
100
AcDbCircle
 10
203.4081325636873
 20
234.3563387084603
 30
0.0
 40
4.924999999999097
100
AcDbArc
 50
338.9716235829057
 51
355.314090702808
  0
ARC
  5
95
330
1E
100
AcDbEntity
  8
0
100
AcDbCircle
 10
203.7930179741071
 20
231.65984450812
 30
0.0
 40
20.29301366963074
100
AcDbArc
 50
78.02029502101759
 51
90.41040690587255
  0
ARC
  5
96
330
1E
100
AcDbEntity
  8
0
100
AcDbCircle
 10
197.978153975149
 20
263.1843638597842
 30
0.0
 40
16.63982656159591
100
AcDbArc
 50
293.3418484155918
 51
308.411975862243
  0
ARC
  5
97
330
1E
100
AcDbEntity
  8
0
100
AcDbCircle
 10
204.2711829324044
 20
259.364032058471
 30
0.0
 40
7.845290499321375
100
AcDbArc
 50
210.9554092596663
 51
254.2432581167092
  0
LINE
  5
98
330
1E
100
AcDbEntity
  8
0
100
AcDbLine
 10
202.1518913303438
 20
251.7647953701324
 30
0.0
 11
203.6476613387101
 21
251.9523375842397
 31
0.0
  0
ARC
  5
99
330
1E
100
AcDbEntity
  8
0
100
AcDbCircle
 10
207.0891019135261
 20
242.1660604380065
 30
0.0
 40
6.530803532969398
100
AcDbArc
 50
127.0607800810899
 51
180.4183968133845
  0
LINE
  5
9A
330
1E
100
AcDbEntity
  8
0
100
AcDbLine
 10
204.5711232146288
 20
247.9063867486851
 30
0.0
 11
203.1532355331473
 21
247.3776197653143
 31
0.0
  0
ARC
  5
9B
330
1E
100
AcDbEntity
  8
0
100
AcDbCircle
 10
203.4081325636873
 20
249.7436612915397
 30
0.0
 40
4.924999999999097
100
AcDbArc
 50
4.685909297191342
 51
21.02837641709387
  0
ARC
  5
9C
330
1E
100
AcDbEntity
  8
0
100
AcDbCircle
 10
204.9248673223377
 20
247.4811994855584
 30
0.0
 40
20.29301366963074
100
AcDbArc
 50
103.7345807353032
 51
116.1246926201582
  0
ARC
  5
9D
330
1E
100
AcDbEntity
  8
0
100
AcDbCircle
 10
186.0078795580061
 20
273.3608350626672
 30
0.0
 40
16.63982656159591
100
AcDbArc
 50
319.0561341298776
 51
334.1262615765288
  0
ARC
  5
9E
330
1E
100
AcDbEntity
  8
0
100
AcDbCircle
 10
193.3352825799252
 20
272.6492779789755
 30
0.0
 40
7.845290499321375
100
AcDbArc
 50
236.669694973952
 51
279.9575438309951
  0
LINE
  5
9F
330
1E
100
AcDbEntity
  8
0
100
AcDbLine
 10
194.7230520532371
 20
264.8830761383781
 30
0.0
 11
195.989322747218
 21
265.701036118796
 31
0.0
  0
ARC
  5
A0
330
1E
100
AcDbEntity
  8
0
100
AcDbCircle
 10
203.336060086112
 20
258.3770901819272
 30
0.0
 40
6.530803532969398
100
AcDbArc
 50
152.7750657953755
 51
206.1326825276703
  0
LINE
  5
A1
330
1E
100
AcDbEntity
  8
0
100
AcDbLine
 10
198.5768054249317
 20
262.4564354665537
 30
0.0
 11
197.5287561616015
 21
261.3648344672721
 31
0.0
  0
ARC
  5
A2
330
1E
100
AcDbEntity
  8
0
100
AcDbCircle
 10
196.7318235063328
 20
263.6071598992663
 30
0.0
 40
4.924999999999097
100
AcDbArc
 50
30.40019501147705
 51
46.7426621313796
  0
ARC
  5
A3
330
1E
100
AcDbEntity
  8
0
100
AcDbCircle
 10
199.0799996927322
 20
262.2268387955916
 30
0.0
 40
20.29301366963074
100
AcDbArc
 50
129.4488664495949
 51
141.8389783344499
  0
ARC
  5
A4
330
1E
100
AcDbEntity
  8
0
100
AcDbCircle
 10
170.8076295913826
 20
277.3358113791972
 30
0.0
 40
16.63982656159591
100
AcDbArc
 50
344.7704198441692
 51
359.8405472908204
  0
ARC
  5
A5
330
1E
100
AcDbEntity
  8
0
100
AcDbCircle
 10
177.7181246447736
 20
279.8739616202272
 30
0.0
 40
7.845290499321375
100
AcDbArc
 50
262.3839806882435
 51
305.6718295452867
  0
LINE
  5
A6
330
1E
100
AcDbEntity
  8
0
100
AcDbLine
 10
182.3380904293929
 20
273.4789861481161
 30
0.0
 11
183.1240613682546
 21
274.7653568891021
 31
0.0
  0
ARC
  5
A7
330
1E
100
AcDbEntity
  8
0
100
AcDbCircle
 10
192.9209840394379
 20
271.3543394766968
 30
0.0
 40
6.530803532969398
100
AcDbArc
 50
178.4893515096673
 51
231.8469682419618
  0
LINE
  5
A8
330
1E
100
AcDbEntity
  8
0
100
AcDbLine
 10
186.8630821700498
 20
272.9647393717644
 30
0.0
 11
186.3924503349539
 21
271.5265093220871
 31
0.0
  0
ARC
  5
A9
330
1E
100
AcDbEntity
  8
0
100
AcDbCircle
 10
184.7015302799898
 20
273.200998607727
 30
0.0
 40
4.924999999999097
100
AcDbArc
 50
56.1144807257687
 51
72.45694784567124
  0
LINE
  5
AA
330
1E
100
AcDbEntity
  8
1
100
AcDbLine
 10
169.6999999999999
 20
193.65
 30
0.0
 11
169.6999999999999
 21
291.6999999999998
 31
0.0
  0
LINE
  5
AB
330
1E
100
AcDbEntity
  8
3
100
AcDbLine
 10
187.5
 20
248.55
 30
0.0
 11
189.4
 21
249.15
 31
0.0
  0
LINE
  5
AC
330
1E
100
AcDbEntity
  8
3
100
AcDbLine
 10
187.5
 20
235.55
 30
0.0
 11
189.4
 21
234.9499999999999
 31
0.0
  0
ARC
  5
AD
330
1E
100
AcDbEntity
  8
3
100
AcDbCircle
 10
169.6999999999999
 20
242.05
 30
0.0
 40
19.0
100
AcDbArc
 50
20.15044936973827
 51
339.9911251958197
  0
ARC
  5
AE
330
1E
100
AcDbEntity
  8
0
100
AcDbCircle
 10
169.6999999999999
 20
242.05
 30
0.0
 40
20.0
100
AcDbArc
 50
340.1634609166906
 51
19.88516511385542
  0
LINE
  5
AF
330
1E
100
AcDbEntity
  8
1
100
AcDbLine
 10
473.9499999999999
 20
193.65
 30
0.0
 11
473.9499999999999
 21
291.6999999999998
 31
0.0
  0
ARC
  5
B0
330
1E
100
AcDbEntity
  8
0
100
AcDbCircle
 10
509.0414353483203
 20
225.8162832147965
 30
0.0
 40
7.845290499321375
100
AcDbArc
 50
159.5268378310947
 51
202.814686688138
  0
ARC
  5
B1
330
1E
100
AcDbEntity
  8
0
100
AcDbCircle
 10
440.313939913888
 20
225.7229098180727
 30
0.0
 40
6.530803532969398
100
AcDbArc
 50
332.7750657953756
 51
26.13268252767035
  0
ARC
  5
B2
330
1E
100
AcDbEntity
  8
0
100
AcDbCircle
 10
465.9318753552263
 20
204.2260383797728
 30
0.0
 40
7.845290499321375
100
AcDbArc
 50
82.38398068824363
 51
125.6718295452867
  0
ARC
  5
B3
330
1E
100
AcDbEntity
  8
0
100
AcDbCircle
 10
472.8423704086174
 20
206.7641886208027
 30
0.0
 40
16.63982656159591
100
AcDbArc
 50
164.7704198441691
 51
179.8405472908203
  0
ARC
  5
B4
330
1E
100
AcDbEntity
  8
0
100
AcDbCircle
 10
444.5700003072679
 20
221.8731612044082
 30
0.0
 40
20.29301366963074
100
AcDbArc
 50
309.4488664495949
 51
321.8389783344499
  0
ARC
  5
B5
330
1E
100
AcDbEntity
  8
0
100
AcDbCircle
 10
458.9484697200099
 20
210.899001392273
 30
0.0
 40
4.924999999999097
100
AcDbArc
 50
236.1144807257687
 51
252.4569478456712
  0
ARC
  5
B6
330
1E
100
AcDbEntity
  8
0
100
AcDbCircle
 10
450.3147174200747
 20
211.4507220210243
 30
0.0
 40
7.845290499321375
100
AcDbArc
 50
56.66969497395202
 51
99.95754383099512
  0
LINE
  5
B7
330
1E
100
AcDbEntity
  8
0
100
AcDbLine
 10
445.0731945750682
 20
221.6435645334462
 30
0.0
 11
446.1212438383985
 21
222.7351655327277
 31
0.0
  0
ARC
  5
B8
330
1E
100
AcDbEntity
  8
0
100
AcDbCircle
 10
438.7251326776621
 20
236.6188005144414
 30
0.0
 40
20.29301366963074
100
AcDbArc
 50
283.7345807353033
 51
296.1246926201582
  0
ARC
  5
B9
330
1E
100
AcDbEntity
  8
0
100
AcDbCircle
 10
446.9181764936672
 20
220.4928401007336
 30
0.0
 40
4.924999999999097
100
AcDbArc
 50
210.400195011477
 51
226.7426621313794
  0
ARC
  5
BA
330
1E
100
AcDbEntity
  8
0
100
AcDbCircle
 10
457.6421204419937
 20
210.7391649373325
 30
0.0
 40
16.63982656159591
100
AcDbArc
 50
139.0561341298775
 51
154.1262615765286
  0
LINE
  5
BB
330
1E
100
AcDbEntity
  8
0
100
AcDbLine
 10
448.9269479467628
 20
219.2169238616216
 30
0.0
 11
447.6606772527818
 21
218.3989638812037
 31
0.0
  0
ARC
  5
BC
330
1E
100
AcDbEntity
  8
0
100
AcDbCircle
 10
450.729015960562
 20
212.7456605233031
 30
0.0
 40
6.530803532969398
100
AcDbArc
 50
358.4893515096672
 51
51.84696824196198
  0
LINE
  5
BD
330
1E
100
AcDbEntity
  8
0
100
AcDbLine
 10
456.7869178299502
 20
211.1352606282355
 30
0.0
 11
457.2575496650459
 21
212.5734906779126
 31
0.0
  0
LINE
  5
BE
330
1E
100
AcDbEntity
  8
0
100
AcDbLine
 10
461.3119095706068
 20
210.6210138518837
 30
0.0
 11
460.5259386317452
 21
209.3346431108976
 31
0.0
  0
LINE
  5
BF
330
1E
100
AcDbEntity
  8
0
100
AcDbLine
 10
487.4191098116497
 20
209.3563372978535
 30
0.0
 11
486.5880904293931
 21
210.6210138518837
 31
0.0
  0
LINE
  5
C0
330
1E
100
AcDbEntity
  8
0
100
AcDbLine
 10
471.9000000000001
 20
206.7499999999999
 30
0.0
 11
471.6999999999999
 21
208.25
 31
0.0
  0
LINE
  5
C1
330
1E
100
AcDbEntity
  8
0
100
AcDbLine
 10
476.1999999999999
 20
208.25
 30
0.0
 11
476.05
 21
206.7499999999999
 31
0.0
  0
ARC
  5
C2
330
1E
100
AcDbEntity
  8
0
100
AcDbCircle
 10
456.2339371980692
 20
211.1237922705308
 30
0.0
 40
20.29301366963074
100
AcDbArc
 50
335.1631521638747
 51
347.5532640487297
  0
ARC
  5
C3
330
1E
100
AcDbEntity
  8
0
100
AcDbCircle
 10
473.9500000000001
 20
207.474999999999
 30
0.0
 40
4.924999999999097
100
AcDbArc
 50
261.8287664400483
 51
278.171233559951
  0
ARC
  5
C4
330
1E
100
AcDbEntity
  8
0
100
AcDbCircle
 10
488.2619999999999
 20
209.7779999999999
 30
0.0
 40
16.63982656159591
100
AcDbArc
 50
190.4847055584489
 51
205.5548330051001
  0
ARC
  5
C5
330
1E
100
AcDbEntity
  8
0
100
AcDbCircle
 10
465.7432926829271
 20
205.5724950560318
 30
0.0
 40
6.530803532969398
100
AcDbArc
 50
24.20363722394709
 51
77.56125395624173
  0
ARC
  5
C6
330
1E
100
AcDbEntity
  8
0
100
AcDbCircle
 10
482.3830084380984
 20
205.6241468101529
 30
0.0
 40
6.530803532969398
100
AcDbArc
 50
49.91792293822689
 51
103.2755396705215
  0
ARC
  5
C7
330
1E
100
AcDbEntity
  8
0
100
AcDbCircle
 10
483.137121212121
 20
204.4928542178543
 30
0.0
 40
7.845290499321375
100
AcDbArc
 50
108.0982664025235
 51
151.3861152595666
  0
ARC
  5
C8
330
1E
100
AcDbEntity
  8
0
100
AcDbCircle
 10
500.8469624662211
 20
219.1836767693035
 30
0.0
 40
16.63982656159591
100
AcDbArc
 50
216.1989912727288
 51
231.2691187193798
  0
ARC
  5
C9
330
1E
100
AcDbEntity
  8
0
100
AcDbCircle
 10
471.4067576000448
 20
206.4997380625218
 30
0.0
 40
20.29301366963074
100
AcDbArc
 50
0.8774378781545205
 51
13.26754976300948
  0
ARC
  5
CA
330
1E
100
AcDbEntity
  8
0
100
AcDbCircle
 10
488.95153027999
 20
210.8990013922731
 30
0.0
 40
4.924999999999097
100
AcDbArc
 50
287.5430521543282
 51
303.8855192742308
  0
ARC
  5
CB
330
1E
100
AcDbEntity
  8
0
100
AcDbCircle
 10
497.3524634480432
 20
212.8903855222958
 30
0.0
 40
6.530803532969398
100
AcDbArc
 50
75.63220865251853
 51
128.989825384813
  0
ARC
  5
CC
330
1E
100
AcDbEntity
  8
0
100
AcDbCircle
 10
498.5227450403075
 20
212.1983233862555
 30
0.0
 40
7.845290499321375
100
AcDbArc
 50
133.8125521168032
 51
177.1004009738462
  0
LINE
  5
CD
330
1E
100
AcDbEntity
  8
0
100
AcDbLine
 10
490.642450334954
 20
212.5734906779126
 30
0.0
 11
491.1581306134449
 21
211.1569548151915
 31
0.0
  0
ARC
  5
CE
330
1E
100
AcDbEntity
  8
0
100
AcDbCircle
 10
500.9818235063328
 20
220.4928401007337
 30
0.0
 40
4.924999999999097
100
AcDbArc
 50
313.2573378686199
 51
329.5998049885223
  0
ARC
  5
CF
330
1E
100
AcDbEntity
  8
0
100
AcDbCircle
 10
487.0832983501525
 20
208.916849226581
 30
0.0
 40
20.29301366963074
100
AcDbArc
 50
26.59172359244616
 51
38.98183547730113
  0
LINE
  5
D0
330
1E
100
AcDbEntity
  8
0
100
AcDbLine
 10
500.270497237311
 20
218.4380554553272
 30
0.0
 11
498.9730520532372
 21
219.2169238616216
 31
0.0
  0
LINE
  5
D1
330
1E
100
AcDbEntity
  8
0
100
AcDbLine
 10
501.7787561616017
 20
222.7351655327277
 30
0.0
 11
502.8579799150247
 21
221.6826561075694
 31
0.0
  0
ARC
  5
D2
330
1E
100
AcDbEntity
  8
0
100
AcDbCircle
 10
508.1046516464104
 20
233.1183092914971
 30
0.0
 40
16.63982656159591
100
AcDbArc
 50
241.9132769870203
 51
256.9834044336715
  0
ARC
  5
D3
330
1E
100
AcDbEntity
  8
0
100
AcDbCircle
 10
502.2281539751491
 20
263.1843638597842
 30
0.0
 40
16.63982656159591
100
AcDbArc
 50
293.3418484155918
 51
308.411975862243
  0
ARC
  5
D4
330
1E
100
AcDbEntity
  8
0
100
AcDbCircle
 10
508.0430179741072
 20
231.65984450812
 30
0.0
 40
20.29301366963074
100
AcDbArc
 50
78.02029502101759
 51
90.41040690587255
  0
ARC
  5
D5
330
1E
100
AcDbEntity
  8
0
100
AcDbCircle
 10
508.5975931887146
 20
248.8219726985078
 30
0.0
 40
16.63982656159591
100
AcDbArc
 50
267.627562701306
 51
282.6976901479572
  0
ARC
  5
D6
330
1E
100
AcDbEntity
  8
0
100
AcDbCircle
 10
500.1586282926783
 20
217.8963872527431
 30
0.0
 40
20.29301366963074
100
AcDbArc
 50
52.30600930673188
 51
64.69612119158684
  0
LINE
  5
D7
330
1E
100
AcDbEntity
  8
1
100
AcDbLine
 10
421.35
 20
242.05
 30
0.0
 11
526.2999999999999
 21
242.05
 31
0.0
  0
ARC
  5
D8
330
1E
100
AcDbEntity
  8
0
100
AcDbCircle
 10
465.5169915619016
 20
278.4758531898468
 30
0.0
 40
6.530803532969398
100
AcDbArc
 50
229.9179229382269
 51
283.2755396705215
  0
CIRCLE
  5
D9
330
1E
100
AcDbEntity
  8
0
100
AcDbCircle
 10
473.9499999999999
 20
242.05
 30
0.0
 40
11.0
  0
CIRCLE
  5
DA
330
1E
100
AcDbEntity
  8
0
100
AcDbCircle
 10
473.9499999999999
 20
242.05
 30
0.0
 40
13.7
  0
ARC
  5
DB
330
1E
100
AcDbEntity
  8
0
100
AcDbCircle
 10
438.8585646516796
 20
258.2837167852034
 30
0.0
 40
7.845290499321375
100
AcDbArc
 50
339.5268378310948
 51
22.81468668813793
  0
LINE
  5
DC
330
1E
100
AcDbEntity
  8
0
100
AcDbLine
 10
439.0788767853711
 20
236.1936132513148
 30
0.0
 11
440.4967644668527
 21
236.7223802346856
 31
0.0
  0
LINE
  5
DD
330
1E
100
AcDbEntity
  8
0
100
AcDbLine
 10
441.4981086696561
 20
232.3352046298674
 30
0.0
 11
440.0023386612899
 21
232.1476624157601
 31
0.0
  0
LINE
  5
DE
330
1E
100
AcDbEntity
  8
0
100
AcDbLine
 10
439.9912126145919
 20
251.9035911886306
 30
0.0
 11
441.4981086696561
 21
251.7647953701324
 31
0.0
  0
LINE
  5
DF
330
1E
100
AcDbEntity
  8
0
100
AcDbLine
 10
440.4967644668527
 20
247.3776197653143
 30
0.0
 11
439.0677507386733
 21
247.8576403530761
 31
0.0
  0
ARC
  5
E0
330
1E
100
AcDbEntity
  8
0
100
AcDbCircle
 10
440.2418674363126
 20
234.3563387084601
 30
0.0
 40
4.924999999999097
100
AcDbArc
 50
184.6859092971913
 51
201.0283764170938
  0
ARC
  5
E1
330
1E
100
AcDbEntity
  8
0
100
AcDbCircle
 10
439.8569820258928
 20
252.4401554918799
 30
0.0
 40
20.29301366963074
100
AcDbArc
 50
258.0202950210176
 51
270.4104069058724
  0
ARC
  5
E2
330
1E
100
AcDbEntity
  8
0
100
AcDbCircle
 10
445.6718460248508
 20
220.9156361402157
 30
0.0
 40
16.63982656159591
100
AcDbArc
 50
113.3418484155918
 51
128.411975862243
  0
ARC
  5
E3
330
1E
100
AcDbEntity
  8
0
100
AcDbCircle
 10
440.2418674363126
 20
249.7436612915397
 30
0.0
 40
4.924999999999097
100
AcDbArc
 50
158.9716235829056
 51
175.314090702808
  0
ARC
  5
E4
330
1E
100
AcDbEntity
  8
0
100
AcDbCircle
 10
447.7413717073217
 20
266.2036127472569
 30
0.0
 40
20.29301366963074
100
AcDbArc
 50
232.3060093067319
 51
244.6961211915867
  0
ARC
  5
E5
330
1E
100
AcDbEntity
  8
0
100
AcDbCircle
 10
439.3024068112855
 20
235.278027301492
 30
0.0
 40
16.63982656159591
100
AcDbArc
 50
87.62756270130619
 51
102.6976901479573
  0
ARC
  5
E6
330
1E
100
AcDbEntity
  8
0
100
AcDbCircle
 10
435.2901634826134
 20
241.4504702538819
 30
0.0
 40
7.845290499321375
100
AcDbArc
 50
5.241123545380608
 51
48.52897240242362
  0
ARC
  5
E7
330
1E
100
AcDbEntity
  8
0
100
AcDbCircle
 10
439.3788170675954
 20
224.7359679415288
 30
0.0
 40
7.845290499321375
100
AcDbArc
 50
30.95540925966631
 51
74.24325811670939
  0
ARC
  5
E8
330
1E
100
AcDbEntity
  8
0
100
AcDbCircle
 10
436.5608980864736
 20
241.9339395619934
 30
0.0
 40
6.530803532969398
100
AcDbArc
 50
307.0607800810898
 51
0.4183968133846518
  0
ARC
  5
E9
330
1E
100
AcDbEntity
  8
0
100
AcDbCircle
 10
440.2132264402761
 20
258.1679564990492
 30
0.0
 40
6.530803532969398
100
AcDbArc
 50
281.3464943668042
 51
334.7041110990989
  0
ARC
  5
EA
330
1E
100
AcDbEntity
  8
0
100
AcDbCircle
 10
458.9484697200099
 20
273.2009986077268
 30
0.0
 40
4.924999999999097
100
AcDbArc
 50
107.5430521543282
 51
123.8855192742308
  0
ARC
  5
EB
330
1E
100
AcDbEntity
  8
0
100
AcDbCircle
 10
447.0530375337788
 20
264.9163232306964
 30
0.0
 40
16.63982656159591
100
AcDbArc
 50
36.19899127272883
 51
51.26911871937998
  0
ARC
  5
EC
330
1E
100
AcDbEntity
  8
0
100
AcDbCircle
 10
450.5475365519569
 20
271.209614477704
 30
0.0
 40
6.530803532969398
100
AcDbArc
 50
255.6322086525184
 51
308.9898253848131
  0
LINE
  5
ED
330
1E
100
AcDbEntity
  8
0
100
AcDbLine
 10
446.1212438383985
 20
261.3648344672721
 30
0.0
 11
445.0420200849753
 21
262.4173438924304
 31
0.0
  0
ARC
  5
EE
330
1E
100
AcDbEntity
  8
0
100
AcDbCircle
 10
439.7953483535896
 20
250.9816907085026
 30
0.0
 40
16.63982656159591
100
AcDbArc
 50
61.91327698702047
 51
76.98340443367162
  0
ARC
  5
EF
330
1E
100
AcDbEntity
  8
0
100
AcDbCircle
 10
446.9181764936672
 20
263.6071598992661
 30
0.0
 40
4.924999999999097
100
AcDbArc
 50
133.2573378686199
 51
149.5998049885224
  0
ARC
  5
F0
330
1E
100
AcDbEntity
  8
0
100
AcDbCircle
 10
460.8167016498477
 20
275.183150773419
 30
0.0
 40
20.29301366963074
100
AcDbArc
 50
206.5917235924461
 51
218.9818354773011
  0
LINE
  5
F1
330
1E
100
AcDbEntity
  8
0
100
AcDbLine
 10
447.6295027626888
 20
265.6619445446726
 30
0.0
 11
448.9269479467627
 21
264.8830761383781
 31
0.0
  0
ARC
  5
F2
330
1E
100
AcDbEntity
  8
0
100
AcDbCircle
 10
449.3772549596925
 20
271.9016766137446
 30
0.0
 40
7.845290499321375
100
AcDbArc
 50
313.8125521168031
 51
357.1004009738462
  0
LINE
  5
F3
330
1E
100
AcDbEntity
  8
0
100
AcDbLine
 10
457.2575496650461
 20
271.5265093220871
 30
0.0
 11
456.7418693865551
 21
272.9430451848084
 31
0.0
  0
ARC
  5
F4
330
1E
100
AcDbEntity
  8
0
100
AcDbCircle
 10
476.4932423999553
 20
277.600261937478
 30
0.0
 40
20.29301366963074
100
AcDbArc
 50
180.8774378781544
 51
193.2675497630095
  0
LINE
  5
F5
330
1E
100
AcDbEntity
  8
0
100
AcDbLine
 10
460.4808901883502
 20
274.7436627021463
 30
0.0
 11
461.3119095706069
 21
273.4789861481161
 31
0.0
  0
ARC
  5
F6
330
1E
100
AcDbEntity
  8
0
100
AcDbCircle
 10
507.5860600861119
 20
258.3770901819272
 30
0.0
 40
6.530803532969398
100
AcDbArc
 50
152.7750657953755
 51
206.1326825276703
  0
CIRCLE
  5
F7
330
1E
100
AcDbEntity
  8
0
100
AcDbCircle
 10
473.9499999999999
 20
242.05
 30
0.0
 40
10.0
  0
ARC
  5
F8
330
1E
100
AcDbEntity
  8
0
100
AcDbCircle
 10
511.3391019135263
 20
242.1660604380065
 30
0.0
 40
6.530803532969398
100
AcDbArc
 50
127.0607800810899
 51
180.4183968133845
  0
ARC
  5
F9
330
1E
100
AcDbEntity
  8
0
100
AcDbCircle
 10
507.686773559724
 20
225.9320435009508
 30
0.0
 40
6.530803532969398
100
AcDbArc
 50
101.3464943668041
 51
154.7041110990988
  0
LINE
  5
FA
330
1E
100
AcDbEntity
  8
0
100
AcDbLine
 10
507.908787385408
 20
232.1964088113693
 30
0.0
 11
506.401891330344
 21
232.3352046298674
 31
0.0
  0
ARC
  5
FB
330
1E
100
AcDbEntity
  8
0
100
AcDbCircle
 10
512.6098365173868
 20
242.649529746118
 30
0.0
 40
7.845290499321375
100
AcDbArc
 50
185.2411235453805
 51
228.5289724024235
  0
LINE
  5
FC
330
1E
100
AcDbEntity
  8
0
100
AcDbLine
 10
507.4032355331474
 20
236.7223802346856
 30
0.0
 11
508.8322492613265
 21
236.2423596469238
 31
0.0
  0
LINE
  5
FD
330
1E
100
AcDbEntity
  8
0
100
AcDbLine
 10
508.8211232146289
 20
247.9063867486851
 30
0.0
 11
507.4032355331474
 21
247.3776197653143
 31
0.0
  0
ARC
  5
FE
330
1E
100
AcDbEntity
  8
0
100
AcDbCircle
 10
508.5211829324046
 20
259.364032058471
 30
0.0
 40
7.845290499321375
100
AcDbArc
 50
210.9554092596663
 51
254.2432581167092
  0
LINE
  5
FF
330
1E
100
AcDbEntity
  8
0
100
AcDbLine
 10
506.401891330344
 20
251.7647953701324
 30
0.0
 11
507.8976613387101
 21
251.9523375842397
 31
0.0
  0
LINE
  5
100
330
1E
100
AcDbEntity
  8
0
100
AcDbLine
 10
486.5880904293931
 20
273.4789861481161
 30
0.0
 11
487.3740613682548
 21
274.7653568891021
 31
0.0
  0
ARC
  5
101
330
1E
100
AcDbEntity
  8
0
100
AcDbCircle
 10
491.6660628019307
 20
272.9762077294692
 30
0.0
 40
20.29301366963074
100
AcDbArc
 50
155.1631521638747
 51
167.5532640487296
  0
ARC
  5
102
330
1E
100
AcDbEntity
  8
0
100
AcDbCircle
 10
459.6380000000001
 20
274.3219999999999
 30
0.0
 40
16.63982656159591
100
AcDbArc
 50
10.48470555844904
 51
25.55483300510019
  0
ARC
  5
103
330
1E
100
AcDbEntity
  8
0
100
AcDbCircle
 10
464.7628787878788
 20
279.6071457821455
 30
0.0
 40
7.845290499321375
100
AcDbArc
 50
288.0982664025233
 51
331.3861152595665
  0
LINE
  5
104
330
1E
100
AcDbEntity
  8
0
100
AcDbLine
 10
471.6999999999999
 20
275.85
 30
0.0
 11
471.85
 21
277.35
 31
0.0
  0
ARC
  5
105
330
1E
100
AcDbEntity
  8
0
100
AcDbCircle
 10
481.9681246447736
 20
279.8739616202272
 30
0.0
 40
7.845290499321375
100
AcDbArc
 50
262.3839806882435
 51
305.6718295452867
  0
ARC
  5
106
330
1E
100
AcDbEntity
  8
0
100
AcDbCircle
 10
482.156707317073
 20
278.5275049439682
 30
0.0
 40
6.530803532969398
100
AcDbArc
 50
204.2036372239471
 51
257.5612539562417
  0
LINE
  5
107
330
1E
100
AcDbEntity
  8
0
100
AcDbLine
 10
476.0
 20
277.35
 30
0.0
 11
476.1999999999999
 21
275.85
 31
0.0
  0
ARC
  5
108
330
1E
100
AcDbEntity
  8
0
100
AcDbCircle
 10
473.9499999999999
 20
276.6250000000008
 30
0.0
 40
4.924999999999097
100
AcDbArc
 50
81.82876644004847
 51
98.17123355995104
  0
ARC
  5
109
330
1E
100
AcDbEntity
  8
0
100
AcDbCircle
 10
488.95153027999
 20
273.200998607727
 30
0.0
 40
4.924999999999097
100
AcDbArc
 50
56.1144807257687
 51
72.45694784567124
  0
ARC
  5
10A
330
1E
100
AcDbEntity
  8
0
100
AcDbCircle
 10
503.3299996927321
 20
262.2268387955916
 30
0.0
 40
20.29301366963074
100
AcDbArc
 50
129.4488664495949
 51
141.8389783344499
  0
ARC
  5
10B
330
1E
100
AcDbEntity
  8
0
100
AcDbCircle
 10
497.5852825799253
 20
272.6492779789755
 30
0.0
 40
7.845290499321375
100
AcDbArc
 50
236.669694973952
 51
279.9575438309951
  0
ARC
  5
10C
330
1E
100
AcDbEntity
  8
0
100
AcDbCircle
 10
497.170984039438
 20
271.3543394766968
 30
0.0
 40
6.530803532969398
100
AcDbArc
 50
178.4893515096673
 51
231.8469682419618
  0
LINE
  5
10D
330
1E
100
AcDbEntity
  8
0
100
AcDbLine
 10
491.1130821700496
 20
272.9647393717644
 30
0.0
 11
490.642450334954
 21
271.5265093220871
 31
0.0
  0
ARC
  5
10E
330
1E
100
AcDbEntity
  8
0
100
AcDbCircle
 10
475.0576295913825
 20
277.3358113791972
 30
0.0
 40
16.63982656159591
100
AcDbArc
 50
344.7704198441692
 51
359.8405472908204
  0
ARC
  5
10F
330
1E
100
AcDbEntity
  8
0
100
AcDbCircle
 10
500.9818235063328
 20
263.6071598992663
 30
0.0
 40
4.924999999999097
100
AcDbArc
 50
30.40019501147705
 51
46.7426621313796
  0
ARC
  5
110
330
1E
100
AcDbEntity
  8
0
100
AcDbCircle
 10
490.2578795580062
 20
273.3608350626672
 30
0.0
 40
16.63982656159591
100
AcDbArc
 50
319.0561341298776
 51
334.1262615765288
  0
LINE
  5
111
330
1E
100
AcDbEntity
  8
0
100
AcDbLine
 10
502.8268054249318
 20
262.4564354665537
 30
0.0
 11
501.7787561616017
 21
261.3648344672721
 31
0.0
  0
LINE
  5
112
330
1E
100
AcDbEntity
  8
0
100
AcDbLine
 10
498.9730520532372
 20
264.8830761383781
 30
0.0
 11
500.2393227472182
 21
265.701036118796
 31
0.0
  0
ARC
  5
113
330
1E
100
AcDbEntity
  8
0
100
AcDbCircle
 10
509.1748673223377
 20
247.4811994855584
 30
0.0
 40
20.29301366963074
100
AcDbArc
 50
103.7345807353032
 51
116.1246926201582
  0
ARC
  5
114
330
1E
100
AcDbEntity
  8
0
100
AcDbCircle
 10
507.6581325636873
 20
234.3563387084603
 30
0.0
 40
4.924999999999097
100
AcDbArc
 50
338.9716235829057
 51
355.314090702808
  0
ARC
  5
115
330
1E
100
AcDbEntity
  8
0
100
AcDbCircle
 10
507.6581325636873
 20
249.7436612915397
 30
0.0
 40
4.924999999999097
100
AcDbArc
 50
4.685909297191342
 51
21.02837641709387
  0
LINE
  5
116
330
1E
100
AcDbEntity
  8
1
100
AcDbLine
 10
326.0942484448316
 20
373.6
 30
0.0
 11
326.0942484448316
 21
328.25
 31
0.0
  0
ARC
  5
117
330
1E
100
AcDbEntity
  8
0
100
AcDbCircle
 10
399.644248444831
 20
404.1722222222223
 30
0.0
 40
71.13091955014567
100
AcDbArc
 50
187.3276113827051
 51
192.4807550432429
  0
ARC
  5
118
330
1E
100
AcDbEntity
  8
0
100
AcDbCircle
 10
252.5942484448322
 20
404.1722222222223
 30
0.0
 40
71.13091955014567
100
AcDbArc
 50
347.5192449567569
 51
352.6723886172947
  0
LINE
  5
119
330
1E
100
AcDbEntity
  8
0
100
AcDbLine
 10
330.4942484448315
 20
373.4999999999999
 30
0.0
 11
330.4942484448315
 21
404.55
 31
0.0
  0
LINE
  5
11A
330
1E
100
AcDbEntity
  8
0
100
AcDbLine
 10
321.7442484448315
 20
373.4999999999999
 30
0.0
 11
321.7442484448315
 21
404.55
 31
0.0
  0
LINE
  5
11B
330
1E
100
AcDbEntity
  8
1
100
AcDbLine
 10
326.0942484448316
 20
373.4999999999999
 30
0.0
 11
326.0942484448316
 21
418.85
 31
0.0
  0
LINE
  5
11C
330
1E
100
AcDbEntity
  8
0
100
AcDbLine
 10
326.0942484448316
 20
383.2499999999999
 30
0.0
 11
323.5942484448316
 21
383.2499999999999
 31
0.0
  0
LINE
  5
11D
330
1E
100
AcDbEntity
  8
0
100
AcDbLine
 10
323.5942484448316
 20
381.55
 30
0.0
 11
326.0942484448316
 21
381.55
 31
0.0
  0
ARC
  5
11E
330
1E
100
AcDbEntity
  8
0
100
AcDbCircle
 10
339.3901943907779
 20
372.9320463320463
 30
0.0
 40
17.70505787312752
100
AcDbArc
 50
159.6122033322223
 51
178.1617155958812
  0
LINE
  5
11F
330
1E
100
AcDbEntity
  8
0
100
AcDbLine
 10
323.5942484448316
 20
383.2499999999999
 30
0.0
 11
323.5942484448316
 21
381.55
 31
0.0
  0
ARC
  5
120
330
1E
100
AcDbEntity
  8
0
100
AcDbCircle
 10
316.1845262226105
 20
382.6138888888886
 30
0.0
 40
7.485709250189835
100
AcDbArc
 50
332.0038031702254
 51
351.8293060636762
  0
ARC
  5
121
330
1E
100
AcDbEntity
  8
0
100
AcDbCircle
 10
321.0034589711474
 20
382.5539473684211
 30
0.0
 40
2.682662737445884
100
AcDbArc
 50
15.03822097820146
 51
54.94581941891668
  0
ARC
  5
122
330
1E
100
AcDbEntity
  8
0
100
AcDbCircle
 10
325.5731319399772
 20
387.1798004314994
 30
0.0
 40
3.883048462752104
100
AcDbArc
 50
155.3389491773753
 51
218.7369323489968
  0
ARC
  5
123
330
1E
100
AcDbEntity
  8
0
100
AcDbCircle
 10
312.8483024988852
 20
372.9320463320463
 30
0.0
 40
17.70505787312752
100
AcDbArc
 50
1.838284404118651
 51
20.38779666777757
  0
LINE
  5
124
330
1E
100
AcDbEntity
  8
0
100
AcDbLine
 10
328.6442484448316
 20
383.2499999999999
 30
0.0
 11
328.6442484448316
 21
381.55
 31
0.0
  0
ARC
  5
125
330
1E
100
AcDbEntity
  8
0
100
AcDbCircle
 10
336.0539706670528
 20
382.6138888888886
 30
0.0
 40
7.485709250189835
100
AcDbArc
 50
188.1706939363236
 51
207.9961968297744
  0
LINE
  5
126
330
1E
100
AcDbEntity
  8
0
100
AcDbLine
 10
328.6442484448316
 20
381.55
 30
0.0
 11
326.1442484448316
 21
381.55
 31
0.0
  0
ARC
  5
127
330
1E
100
AcDbEntity
  8
0
100
AcDbCircle
 10
331.2350379185158
 20
382.5539473684211
 30
0.0
 40
2.682662737445884
100
AcDbArc
 50
125.0541805810832
 51
164.9617790217984
  0
ARC
  5
128
330
1E
100
AcDbEntity
  8
0
100
AcDbCircle
 10
326.6653649496857
 20
387.1798004314994
 30
0.0
 40
3.883048462752104
100
AcDbArc
 50
321.263067651003
 51
24.66105082262221
  0
LINE
  5
129
330
1E
100
AcDbEntity
  8
0
100
AcDbLine
 10
326.1442484448316
 20
383.2499999999999
 30
0.0
 11
328.6442484448316
 21
383.2499999999999
 31
0.0
  0
LINE
  5
12A
330
1E
100
AcDbEntity
  8
0
100
AcDbLine
 10
323.5942484448316
 20
408.65
 30
0.0
 11
326.0942484448316
 21
408.65
 31
0.0
  0
LINE
  5
12B
330
1E
100
AcDbEntity
  8
0
100
AcDbLine
 10
326.0942484448316
 20
409.2999999999999
 30
0.0
 11
323.5942484448316
 21
409.2999999999999
 31
0.0
  0
LINE
  5
12C
330
1E
100
AcDbEntity
  8
0
100
AcDbLine
 10
326.0942484448316
 20
412.9999999999999
 30
0.0
 11
323.5442484448316
 21
412.9999999999999
 31
0.0
  0
LINE
  5
12D
330
1E
100
AcDbEntity
  8
0
100
AcDbLine
 10
323.5942484448316
 20
397.5
 30
0.0
 11
326.0942484448316
 21
397.5
 31
0.0
  0
LINE
  5
12E
330
1E
100
AcDbEntity
  8
0
100
AcDbLine
 10
326.0942484448316
 20
398.7
 30
0.0
 11
323.5942484448316
 21
398.7
 31
0.0
  0
LINE
  5
12F
330
1E
100
AcDbEntity
  8
0
100
AcDbLine
 10
323.5942484448316
 20
409.2999999999999
 30
0.0
 11
323.5942484448316
 21
408.65
 31
0.0
  0
ARC
  5
130
330
1E
100
AcDbEntity
  8
0
100
AcDbCircle
 10
336.9237004996254
 20
402.6890410958904
 30
0.0
 40
14.87881277901134
100
AcDbArc
 50
153.6201385552709
 51
175.3316394512307
  0
ARC
  5
131
330
1E
100
AcDbEntity
  8
0
100
AcDbCircle
 10
349.2328725455501
 20
403.1111510791369
 30
0.0
 40
27.5262554875826
100
AcDbArc
 50
158.9457640275546
 51
177.0036767531748
  0
ARC
  5
132
330
1E
100
AcDbEntity
  8
0
100
AcDbCircle
 10
397.214630610442
 20
390.3601114649672
 30
0.0
 40
75.85829350067422
100
AcDbArc
 50
166.0481743541116
 51
173.4981102332056
  0
ARC
  5
133
330
1E
100
AcDbEntity
  8
0
100
AcDbCircle
 10
297.8303595559562
 20
402.563888888886
 30
0.0
 40
25.37469971845512
100
AcDbArc
 50
346.4064387419322
 51
350.326293260187
  0
ARC
  5
134
330
1E
100
AcDbEntity
  8
0
100
AcDbCircle
 10
323.3382357866037
 20
398.2768987341771
 30
0.0
 40
0.4945272108930645
100
AcDbArc
 50
58.8224542380436
 51
177.3225196336626
  0
ARC
  5
135
330
1E
100
AcDbEntity
  8
0
100
AcDbCircle
 10
325.5383660918906
 20
398.0808823529412
 30
0.0
 40
3.794979667236887
100
AcDbArc
 50
166.7607514032543
 51
202.9682774722652
  0
ARC
  5
136
330
1E
100
AcDbEntity
  8
0
100
AcDbCircle
 10
322.2692484448316
 20
396.625
 30
0.0
 40
0.2263846284534336
100
AcDbArc
 50
186.3401917459177
 51
353.6598082540813
  0
ARC
  5
137
330
1E
100
AcDbEntity
  8
0
100
AcDbCircle
 10
328.2136928892752
 20
395.3916666666668
 30
0.0
 40
5.077827923408231
100
AcDbArc
 50
155.4678500473245
 51
183.2928394003668
  0
LINE
  5
138
330
1E
100
AcDbEntity
  8
0
100
AcDbLine
 10
323.5942484448316
 20
398.7
 30
0.0
 11
323.5942484448316
 21
397.5
 31
0.0
  0
ARC
  5
139
330
1E
100
AcDbEntity
  8
0
100
AcDbCircle
 10
321.9127968319283
 20
403.8798387096774
 30
0.0
 40
0.1825682487527802
100
AcDbArc
 50
157.399603545779
 51
6.340191745921748
  0
LINE
  5
13A
330
1E
100
AcDbEntity
  8
0
100
AcDbLine
 10
328.6442484448316
 20
409.2999999999999
 30
0.0
 11
328.6442484448316
 21
408.65
 31
0.0
  0
ARC
  5
13B
330
1E
100
AcDbEntity
  8
0
100
AcDbCircle
 10
315.3147963900376
 20
402.6890410958904
 30
0.0
 40
14.87881277901134
100
AcDbArc
 50
4.668360548769234
 51
26.37986144471872
  0
ARC
  5
13C
330
1E
100
AcDbEntity
  8
0
100
AcDbCircle
 10
303.0056243441129
 20
403.1111510791369
 30
0.0
 40
27.5262554875826
100
AcDbArc
 50
2.996323246825019
 51
21.05423597244519
  0
ARC
  5
13D
330
1E
100
AcDbEntity
  8
0
100
AcDbCircle
 10
255.0238662792213
 20
390.3601114649672
 30
0.0
 40
75.85829350067422
100
AcDbArc
 50
6.501889766794272
 51
13.95182564588833
  0
ARC
  5
13E
330
1E
100
AcDbEntity
  8
0
100
AcDbCircle
 10
328.9002611030594
 20
398.2768987341771
 30
0.0
 40
0.4945272108930645
100
AcDbArc
 50
2.677480366337352
 51
121.1775457619564
  0
ARC
  5
13F
330
1E
100
AcDbEntity
  8
0
100
AcDbCircle
 10
324.024804000388
 20
395.3916666666668
 30
0.0
 40
5.077827923408231
100
AcDbArc
 50
356.707160599633
 51
24.5321499526733
  0
LINE
  5
140
330
1E
100
AcDbEntity
  8
0
100
AcDbLine
 10
328.6442484448316
 20
398.7
 30
0.0
 11
328.6442484448316
 21
397.5
 31
0.0
  0
ARC
  5
141
330
1E
100
AcDbEntity
  8
0
100
AcDbCircle
 10
354.4081373337069
 20
402.563888888886
 30
0.0
 40
25.37469971845512
100
AcDbArc
 50
189.6737067398128
 51
193.5935612580678
  0
ARC
  5
142
330
1E
100
AcDbEntity
  8
0
100
AcDbCircle
 10
326.7001307977727
 20
398.0808823529412
 30
0.0
 40
3.794979667236887
100
AcDbArc
 50
337.0317225277351
 51
13.23924859674572
  0
ARC
  5
143
330
1E
100
AcDbEntity
  8
0
100
AcDbCircle
 10
329.9692484448316
 20
396.625
 30
0.0
 40
0.2263846284534336
100
AcDbArc
 50
186.3401917459185
 51
353.659808254082
  0
LINE
  5
144
330
1E
100
AcDbEntity
  8
0
100
AcDbLine
 10
328.6442484448316
 20
397.5
 30
0.0
 11
326.1442484448316
 21
397.5
 31
0.0
  0
LINE
  5
145
330
1E
100
AcDbEntity
  8
0
100
AcDbLine
 10
326.1442484448316
 20
398.7
 30
0.0
 11
328.6442484448316
 21
398.7
 31
0.0
  0
ARC
  5
146
330
1E
100
AcDbEntity
  8
0
100
AcDbCircle
 10
330.3257000577348
 20
403.8798387096774
 30
0.0
 40
0.1825682487527802
100
AcDbArc
 50
173.6598082540781
 51
22.60039645422045
  0
LINE
  5
147
330
1E
100
AcDbEntity
  8
0
100
AcDbLine
 10
328.6442484448316
 20
408.65
 30
0.0
 11
326.1442484448316
 21
408.65
 31
0.0
  0
LINE
  5
148
330
1E
100
AcDbEntity
  8
0
100
AcDbLine
 10
326.1442484448316
 20
409.2999999999999
 30
0.0
 11
328.6442484448316
 21
409.2999999999999
 31
0.0
  0
LINE
  5
149
330
1E
100
AcDbEntity
  8
0
100
AcDbLine
 10
326.1442484448316
 20
412.9999999999999
 30
0.0
 11
328.6942484448316
 21
412.9999999999999
 31
0.0
  0
CIRCLE
  5
14A
330
1E
100
AcDbEntity
  8
0
100
AcDbCircle
 10
474.0
 20
241.9999999999999
 30
0.0
 40
26.0
  0
CIRCLE
  5
14B
330
1E
100
AcDbEntity
  8
0
100
AcDbCircle
 10
474.0
 20
241.9999999999999
 30
0.0
 40
25.0
  0
CIRCLE
  5
14C
330
1E
100
AcDbEntity
  8
0
100
AcDbCircle
 10
474.0
 20
241.9999999999999
 30
0.0
 40
19.0
  0
TEXT
  5
14D
330
1E
100
AcDbEntity
  8
3
100
AcDbText
 10
482.1081660211744
 20
20.90371455006523
 30
0.0
 40
9.099999999999999
  1
ＳＰＢＷ－５０
 41
0.8
  7
BIGFONT
100
AcDbText
  0
ARC
  5
14E
330
1E
100
AcDbEntity
  8
0
100
AcDbCircle
 10
237.2738662792212
 20
390.3601114649672
 30
0.0
 40
75.85829350067422
100
AcDbArc
 50
6.501889766794272
 51
13.95182564588833
  0
ARC
  5
14F
330
1E
100
AcDbEntity
  8
0
100
AcDbCircle
 10
379.4646306104417
 20
390.3601114649672
 30
0.0
 40
75.85829350067422
100
AcDbArc
 50
166.0481743541116
 51
173.4981102332056
  0
LINE
  5
150
330
1E
100
AcDbEntity
  8
1
100
AcDbLine
 10
308.3442484448315
 20
373.4999999999999
 30
0.0
 11
308.3442484448315
 21
418.85
 31
0.0
  0
LINE
  5
151
330
1E
100
AcDbEntity
  8
0
100
AcDbLine
 10
303.9942484448315
 20
373.4999999999999
 30
0.0
 11
303.9942484448315
 21
404.55
 31
0.0
  0
LINE
  5
152
330
1E
100
AcDbEntity
  8
0
100
AcDbLine
 10
312.7442484448315
 20
373.4999999999999
 30
0.0
 11
312.7442484448315
 21
404.55
 31
0.0
  0
LINE
  5
153
330
1E
100
AcDbEntity
  8
0
100
AcDbLine
 10
308.3442484448315
 20
398.7
 30
0.0
 11
305.8442484448316
 21
398.7
 31
0.0
  0
LINE
  5
154
330
1E
100
AcDbEntity
  8
0
100
AcDbLine
 10
305.8442484448316
 20
397.5
 30
0.0
 11
308.3442484448315
 21
397.5
 31
0.0
  0
LINE
  5
155
330
1E
100
AcDbEntity
  8
0
100
AcDbLine
 10
305.8442484448316
 20
381.55
 30
0.0
 11
308.3442484448315
 21
381.55
 31
0.0
  0
LINE
  5
156
330
1E
100
AcDbEntity
  8
0
100
AcDbLine
 10
308.3442484448315
 20
383.2499999999999
 30
0.0
 11
305.8442484448316
 21
383.2499999999999
 31
0.0
  0
LINE
  5
157
330
1E
100
AcDbEntity
  8
0
100
AcDbLine
 10
305.8442484448316
 20
383.2499999999999
 30
0.0
 11
305.8442484448316
 21
381.55
 31
0.0
  0
ARC
  5
158
330
1E
100
AcDbEntity
  8
0
100
AcDbCircle
 10
321.6401943907778
 20
372.9320463320463
 30
0.0
 40
17.70505787312752
100
AcDbArc
 50
159.6122033322223
 51
178.1617155958812
  0
ARC
  5
159
330
1E
100
AcDbEntity
  8
0
100
AcDbCircle
 10
298.4345262226105
 20
382.6138888888886
 30
0.0
 40
7.485709250189835
100
AcDbArc
 50
332.0038031702254
 51
351.8293060636762
  0
ARC
  5
15A
330
1E
100
AcDbEntity
  8
0
100
AcDbCircle
 10
234.8442484448322
 20
404.1722222222223
 30
0.0
 40
71.13091955014567
100
AcDbArc
 50
347.5192449567569
 51
352.6723886172947
  0
ARC
  5
15B
330
1E
100
AcDbEntity
  8
0
100
AcDbCircle
 10
307.8231319399772
 20
387.1798004314994
 30
0.0
 40
3.883048462752104
100
AcDbArc
 50
155.3389491773753
 51
218.7369323489968
  0
ARC
  5
15C
330
1E
100
AcDbEntity
  8
0
100
AcDbCircle
 10
303.2534589711473
 20
382.5539473684211
 30
0.0
 40
2.682662737445884
100
AcDbArc
 50
15.03822097820146
 51
54.94581941891668
  0
LINE
  5
15D
330
1E
100
AcDbEntity
  8
0
100
AcDbLine
 10
305.8442484448316
 20
398.7
 30
0.0
 11
305.8442484448316
 21
397.5
 31
0.0
  0
ARC
  5
15E
330
1E
100
AcDbEntity
  8
0
100
AcDbCircle
 10
310.4636928892752
 20
395.3916666666668
 30
0.0
 40
5.077827923408231
100
AcDbArc
 50
155.4678500473245
 51
183.2928394003668
  0
ARC
  5
15F
330
1E
100
AcDbEntity
  8
0
100
AcDbCircle
 10
304.5192484448315
 20
396.625
 30
0.0
 40
0.2263846284534336
100
AcDbArc
 50
186.3401917459177
 51
353.6598082540813
  0
ARC
  5
160
330
1E
100
AcDbEntity
  8
0
100
AcDbCircle
 10
307.7883660918905
 20
398.0808823529412
 30
0.0
 40
3.794979667236887
100
AcDbArc
 50
166.7607514032543
 51
202.9682774722652
  0
ARC
  5
161
330
1E
100
AcDbEntity
  8
0
100
AcDbCircle
 10
305.5882357866037
 20
398.2768987341771
 30
0.0
 40
0.4945272108930645
100
AcDbArc
 50
58.8224542380436
 51
177.3225196336626
  0
ARC
  5
162
330
1E
100
AcDbEntity
  8
0
100
AcDbCircle
 10
280.0803595559561
 20
402.563888888886
 30
0.0
 40
25.37469971845512
100
AcDbArc
 50
346.4064387419322
 51
350.326293260187
  0
LINE
  5
163
330
1E
100
AcDbEntity
  8
0
100
AcDbLine
 10
310.8942484448316
 20
383.2499999999999
 30
0.0
 11
310.8942484448316
 21
381.55
 31
0.0
  0
ARC
  5
164
330
1E
100
AcDbEntity
  8
0
100
AcDbCircle
 10
295.0983024988852
 20
372.9320463320463
 30
0.0
 40
17.70505787312752
100
AcDbArc
 50
1.838284404118651
 51
20.38779666777757
  0
LINE
  5
165
330
1E
100
AcDbEntity
  8
0
100
AcDbLine
 10
310.8942484448316
 20
381.55
 30
0.0
 11
308.3942484448316
 21
381.55
 31
0.0
  0
ARC
  5
166
330
1E
100
AcDbEntity
  8
0
100
AcDbCircle
 10
318.3039706670526
 20
382.6138888888886
 30
0.0
 40
7.485709250189835
100
AcDbArc
 50
188.1706939363236
 51
207.9961968297744
  0
ARC
  5
167
330
1E
100
AcDbEntity
  8
0
100
AcDbCircle
 10
381.8942484448308
 20
404.1722222222223
 30
0.0
 40
71.13091955014567
100
AcDbArc
 50
187.3276113827051
 51
192.4807550432429
  0
LINE
  5
168
330
1E
100
AcDbEntity
  8
0
100
AcDbLine
 10
308.3942484448316
 20
383.2499999999999
 30
0.0
 11
310.8942484448316
 21
383.2499999999999
 31
0.0
  0
ARC
  5
169
330
1E
100
AcDbEntity
  8
0
100
AcDbCircle
 10
308.9153649496858
 20
387.1798004314994
 30
0.0
 40
3.883048462752104
100
AcDbArc
 50
321.263067651003
 51
24.66105082262221
  0
ARC
  5
16A
330
1E
100
AcDbEntity
  8
0
100
AcDbCircle
 10
313.4850379185157
 20
382.5539473684211
 30
0.0
 40
2.682662737445884
100
AcDbArc
 50
125.0541805810832
 51
164.9617790217984
  0
LINE
  5
16B
330
1E
100
AcDbEntity
  8
0
100
AcDbLine
 10
308.3942484448316
 20
398.7
 30
0.0
 11
310.8942484448316
 21
398.7
 31
0.0
  0
LINE
  5
16C
330
1E
100
AcDbEntity
  8
0
100
AcDbLine
 10
310.8942484448316
 20
397.5
 30
0.0
 11
308.3942484448316
 21
397.5
 31
0.0
  0
ARC
  5
16D
330
1E
100
AcDbEntity
  8
0
100
AcDbCircle
 10
312.2192484448315
 20
396.625
 30
0.0
 40
0.2263846284534336
100
AcDbArc
 50
186.3401917459185
 51
353.659808254082
  0
ARC
  5
16E
330
1E
100
AcDbEntity
  8
0
100
AcDbCircle
 10
308.9501307977726
 20
398.0808823529412
 30
0.0
 40
3.794979667236887
100
AcDbArc
 50
337.0317225277351
 51
13.23924859674572
  0
ARC
  5
16F
330
1E
100
AcDbEntity
  8
0
100
AcDbCircle
 10
336.6581373337069
 20
402.563888888886
 30
0.0
 40
25.37469971845512
100
AcDbArc
 50
189.6737067398128
 51
193.5935612580678
  0
LINE
  5
170
330
1E
100
AcDbEntity
  8
0
100
AcDbLine
 10
310.8942484448316
 20
398.7
 30
0.0
 11
310.8942484448316
 21
397.5
 31
0.0
  0
ARC
  5
171
330
1E
100
AcDbEntity
  8
0
100
AcDbCircle
 10
306.2748040003879
 20
395.3916666666668
 30
0.0
 40
5.077827923408231
100
AcDbArc
 50
356.707160599633
 51
24.5321499526733
  0
ARC
  5
172
330
1E
100
AcDbEntity
  8
0
100
AcDbCircle
 10
311.1502611030593
 20
398.2768987341771
 30
0.0
 40
0.4945272108930645
100
AcDbArc
 50
2.677480366337352
 51
121.1775457619564
  0
LINE
  5
173
330
1E
100
AcDbEntity
  8
0
100
AcDbLine
 10
308.3442484448315
 20
412.9999999999999
 30
0.0
 11
305.7942484448314
 21
412.9999999999999
 31
0.0
  0
LINE
  5
174
330
1E
100
AcDbEntity
  8
0
100
AcDbLine
 10
308.3442484448315
 20
409.2999999999999
 30
0.0
 11
305.8442484448316
 21
409.2999999999999
 31
0.0
  0
LINE
  5
175
330
1E
100
AcDbEntity
  8
0
100
AcDbLine
 10
305.8442484448316
 20
408.65
 30
0.0
 11
308.3442484448315
 21
408.65
 31
0.0
  0
ARC
  5
176
330
1E
100
AcDbEntity
  8
0
100
AcDbCircle
 10
331.48287254555
 20
403.1111510791369
 30
0.0
 40
27.5262554875826
100
AcDbArc
 50
158.9457640275546
 51
177.0036767531748
  0
ARC
  5
177
330
1E
100
AcDbEntity
  8
0
100
AcDbCircle
 10
304.1627968319282
 20
403.8798387096774
 30
0.0
 40
0.1825682487527802
100
AcDbArc
 50
157.399603545779
 51
6.340191745921748
  0
ARC
  5
178
330
1E
100
AcDbEntity
  8
0
100
AcDbCircle
 10
319.1737004996252
 20
402.6890410958904
 30
0.0
 40
14.87881277901134
100
AcDbArc
 50
153.6201385552709
 51
175.3316394512307
  0
LINE
  5
179
330
1E
100
AcDbEntity
  8
0
100
AcDbLine
 10
305.8442484448316
 20
409.2999999999999
 30
0.0
 11
305.8442484448316
 21
408.65
 31
0.0
  0
ARC
  5
17A
330
1E
100
AcDbEntity
  8
0
100
AcDbCircle
 10
285.255624344113
 20
403.1111510791369
 30
0.0
 40
27.5262554875826
100
AcDbArc
 50
2.996323246825019
 51
21.05423597244519
  0
LINE
  5
17B
330
1E
100
AcDbEntity
  8
0
100
AcDbLine
 10
308.3942484448316
 20
409.2999999999999
 30
0.0
 11
310.8942484448316
 21
409.2999999999999
 31
0.0
  0
LINE
  5
17C
330
1E
100
AcDbEntity
  8
0
100
AcDbLine
 10
310.8942484448316
 20
408.65
 30
0.0
 11
308.3942484448316
 21
408.65
 31
0.0
  0
ARC
  5
17D
330
1E
100
AcDbEntity
  8
0
100
AcDbCircle
 10
312.5757000577348
 20
403.8798387096774
 30
0.0
 40
0.1825682487527802
100
AcDbArc
 50
173.6598082540781
 51
22.60039645422045
  0
ARC
  5
17E
330
1E
100
AcDbEntity
  8
0
100
AcDbCircle
 10
297.5647963900377
 20
402.6890410958904
 30
0.0
 40
14.87881277901134
100
AcDbArc
 50
4.668360548769234
 51
26.37986144471872
  0
LINE
  5
17F
330
1E
100
AcDbEntity
  8
0
100
AcDbLine
 10
310.8942484448316
 20
409.2999999999999
 30
0.0
 11
310.8942484448316
 21
408.65
 31
0.0
  0
LINE
  5
180
330
1E
100
AcDbEntity
  8
0
100
AcDbLine
 10
308.3942484448316
 20
412.9999999999999
 30
0.0
 11
310.9442484448316
 21
412.9999999999999
 31
0.0
  0
LINE
  5
181
330
1E
100
AcDbEntity
  8
0
100
AcDbLine
 10
338.9499999999999
 20
373.55
 30
0.0
 11
338.9499999999999
 21
399.55
 31
0.0
  0
LINE
  5
182
330
1E
100
AcDbEntity
  8
0
100
AcDbLine
 10
337.95
 20
400.55
 30
0.0
 11
330.45
 21
400.55
 31
0.0
  0
LINE
  5
183
330
1E
100
AcDbEntity
  8
0
100
AcDbLine
 10
321.75
 20
400.55
 30
0.0
 11
312.7499999999999
 21
400.55
 31
0.0
  0
ARC
  5
184
330
1E
100
AcDbEntity
  8
0
100
AcDbCircle
 10
338.0749999999999
 20
399.675
 30
0.0
 40
0.8838834764831924
100
AcDbArc
 50
351.8698976458403
 51
98.13010235415646
  0
LINE
  5
185
330
1E
100
AcDbEntity
  8
1
100
AcDbLine
 10
345.1499999999999
 20
373.45
 30
0.0
 11
299.3
 21
373.45
 31
0.0
  0
LINE
  5
186
330
1E
100
AcDbEntity
  8
2
100
AcDbLine
 10
338.8999999999999
 20
392.5
 30
0.0
 11
333.3999999999999
 21
392.5
 31
0.0
  0
LINE
  5
187
330
1E
100
AcDbEntity
  8
2
100
AcDbLine
 10
333.3999999999999
 20
373.4999999999999
 30
0.0
 11
333.3999999999999
 21
394.5
 31
0.0
  0
LINE
  5
188
330
1E
100
AcDbEntity
  8
2
100
AcDbLine
 10
333.3999999999999
 20
394.5
 30
0.0
 11
309.3999999999999
 21
394.5
 31
0.0
  0
LINE
  5
189
330
1E
100
AcDbEntity
  8
2
100
AcDbLine
 10
309.3999999999999
 20
394.5
 30
0.0
 11
309.3999999999999
 21
395.9999999999999
 31
0.0
  0
LINE
  5
18A
330
1E
100
AcDbEntity
  8
2
100
AcDbLine
 10
309.3999999999999
 20
395.9999999999999
 30
0.0
 11
307.8999999999999
 21
395.9999999999999
 31
0.0
  0
LINE
  5
18B
330
1E
100
AcDbEntity
  8
2
100
AcDbLine
 10
307.8999999999999
 20
395.9999999999999
 30
0.0
 11
307.8999999999999
 21
394.5
 31
0.0
  0
LINE
  5
18C
330
1E
100
AcDbEntity
  8
2
100
AcDbLine
 10
307.8999999999999
 20
394.5
 30
0.0
 11
305.0
 21
394.5
 31
0.0
  0
LINE
  5
18D
330
1E
100
AcDbEntity
  8
2
100
AcDbLine
 10
321.3999999999999
 20
373.4999999999999
 30
0.0
 11
321.3999999999999
 21
394.5
 31
0.0
  0
LINE
  5
18E
330
1E
100
AcDbEntity
  8
2
100
AcDbLine
 10
309.3999999999999
 20
394.5
 30
0.0
 11
309.3999999999999
 21
373.4999999999999
 31
0.0
  0
LINE
  5
18F
330
1E
100
AcDbEntity
  8
2
100
AcDbLine
 10
332.5
 20
383.4999999999999
 30
0.0
 11
322.3999999999999
 21
383.4999999999999
 31
0.0
  0
LINE
  5
190
330
1E
100
AcDbEntity
  8
2
100
AcDbLine
 10
320.3999999999999
 20
383.4999999999999
 30
0.0
 11
310.3999999999999
 21
383.4999999999999
 31
0.0
  0
CIRCLE
  5
191
330
1E
100
AcDbEntity
  8
2
100
AcDbCircle
 10
327.4
 20
389.6999999999999
 30
0.0
 40
3.0
  0
CIRCLE
  5
192
330
1E
100
AcDbEntity
  8
2
100
AcDbCircle
 10
315.3999999999999
 20
389.6999999999999
 30
0.0
 40
3.0
  0
LINE
  5
193
330
1E
100
AcDbEntity
  8
2
100
AcDbLine
 10
333.3
 20
392.2
 30
0.0
 11
329.1999999999999
 21
392.2
 31
0.0
  0
LINE
  5
194
330
1E
100
AcDbEntity
  8
2
100
AcDbLine
 10
325.4
 20
392.2
 30
0.0
 11
317.3
 21
392.2
 31
0.0
  0
LINE
  5
195
330
1E
100
AcDbEntity
  8
2
100
AcDbLine
 10
313.5
 20
392.2
 30
0.0
 11
309.6999999999999
 21
392.2
 31
0.0
  0
LINE
  5
196
330
1E
100
AcDbEntity
  8
2
100
AcDbLine
 10
333.1
 20
387.1999999999999
 30
0.0
 11
329.1999999999999
 21
387.1999999999999
 31
0.0
  0
LINE
  5
197
330
1E
100
AcDbEntity
  8
2
100
AcDbLine
 10
325.4
 20
387.1999999999999
 30
0.0
 11
317.3999999999999
 21
387.1999999999999
 31
0.0
  0
LINE
  5
198
330
1E
100
AcDbEntity
  8
2
100
AcDbLine
 10
313.3
 20
387.1999999999999
 30
0.0
 11
309.6
 21
387.1999999999999
 31
0.0
  0
LINE
  5
199
330
1E
100
AcDbEntity
  8
2
100
AcDbLine
 10
332.5
 20
383.4999999999999
 30
0.0
 11
333.3999999999999
 21
384.5
 31
0.0
  0
LINE
  5
19A
330
1E
100
AcDbEntity
  8
2
100
AcDbLine
 10
322.3999999999999
 20
383.4999999999999
 30
0.0
 11
321.3999999999999
 21
384.5
 31
0.0
  0
LINE
  5
19B
330
1E
100
AcDbEntity
  8
2
100
AcDbLine
 10
321.3999999999999
 20
384.5
 30
0.0
 11
320.3999999999999
 21
383.4999999999999
 31
0.0
  0
LINE
  5
19C
330
1E
100
AcDbEntity
  8
2
100
AcDbLine
 10
310.3999999999999
 20
383.4999999999999
 30
0.0
 11
309.3999999999999
 21
384.5
 31
0.0
  0
LINE
  5
19D
330
1E
100
AcDbEntity
  8
2
100
AcDbLine
 10
309.3999999999999
 20
393.5
 30
0.0
 11
310.3999999999999
 21
394.5
 31
0.0
  0
LINE
  5
19E
330
1E
100
AcDbEntity
  8
2
100
AcDbLine
 10
321.3999999999999
 20
393.5
 30
0.0
 11
320.5
 21
394.5
 31
0.0
  0
LINE
  5
19F
330
1E
100
AcDbEntity
  8
2
100
AcDbLine
 10
321.3999999999999
 20
393.5
 30
0.0
 11
322.5
 21
394.5
 31
0.0
  0
LINE
  5
1A0
330
1E
100
AcDbEntity
  8
2
100
AcDbLine
 10
333.3
 20
393.5
 30
0.0
 11
332.3999999999999
 21
394.5
 31
0.0
  0
LINE
  5
1A1
330
1E
100
AcDbEntity
  8
3
100
AcDbLine
 10
308.1
 20
395.9999999999999
 30
0.0
 11
308.1
 21
373.4999999999999
 31
0.0
  0
ARC
  5
1A2
330
1E
100
AcDbEntity
  8
0
100
AcDbCircle
 10
338.0749999999999
 20
347.325
 30
0.0
 40
0.8838834764831924
100
AcDbArc
 50
261.8698976458434
 51
8.130102354159646
  0
LINE
  5
1A3
330
1E
100
AcDbEntity
  8
0
100
AcDbLine
 10
312.7442484448315
 20
373.4999999999999
 30
0.0
 11
312.7442484448315
 21
342.45
 31
0.0
  0
LINE
  5
1A4
330
1E
100
AcDbEntity
  8
0
100
AcDbLine
 10
303.9942484448315
 20
373.4999999999999
 30
0.0
 11
303.9942484448315
 21
342.45
 31
0.0
  0
LINE
  5
1A5
330
1E
100
AcDbEntity
  8
1
100
AcDbLine
 10
308.3442484448315
 20
373.4999999999999
 30
0.0
 11
308.3442484448315
 21
328.1500000000001
 31
0.0
  0
ARC
  5
1A6
330
1E
100
AcDbEntity
  8
0
100
AcDbCircle
 10
379.4646306104417
 20
356.6398885350328
 30
0.0
 40
75.85829350067422
100
AcDbArc
 50
186.5018897667941
 51
193.9518256458883
  0
ARC
  5
1A7
330
1E
100
AcDbEntity
  8
0
100
AcDbCircle
 10
237.2738662792212
 20
356.6398885350328
 30
0.0
 40
75.85829350067422
100
AcDbArc
 50
346.0481743541116
 51
353.4981102332057
  0
ARC
  5
1A8
330
1E
100
AcDbEntity
  8
0
100
AcDbCircle
 10
255.0238662792213
 20
356.6398885350328
 30
0.0
 40
75.85829350067422
100
AcDbArc
 50
346.0481743541116
 51
353.4981102332057
  0
ARC
  5
1A9
330
1E
100
AcDbEntity
  8
0
100
AcDbCircle
 10
397.214630610442
 20
356.6398885350328
 30
0.0
 40
75.85829350067422
100
AcDbArc
 50
186.5018897667941
 51
193.9518256458883
  0
LINE
  5
1AA
330
1E
100
AcDbEntity
  8
0
100
AcDbLine
 10
321.7442484448315
 20
373.4999999999999
 30
0.0
 11
321.7442484448315
 21
342.45
 31
0.0
  0
LINE
  5
1AB
330
1E
100
AcDbEntity
  8
0
100
AcDbLine
 10
330.4942484448315
 20
373.4999999999999
 30
0.0
 11
330.4942484448315
 21
342.45
 31
0.0
  0
LINE
  5
1AC
330
1E
100
AcDbEntity
  8
2
100
AcDbLine
 10
325.4
 20
359.8
 30
0.0
 11
317.3999999999999
 21
359.8
 31
0.0
  0
LINE
  5
1AD
330
1E
100
AcDbEntity
  8
2
100
AcDbLine
 10
325.4
 20
354.8
 30
0.0
 11
317.3
 21
354.8
 31
0.0
  0
LINE
  5
1AE
330
1E
100
AcDbEntity
  8
2
100
AcDbLine
 10
332.5
 20
363.5
 30
0.0
 11
322.3999999999999
 21
363.5
 31
0.0
  0
LINE
  5
1AF
330
1E
100
AcDbEntity
  8
2
100
AcDbLine
 10
333.3999999999999
 20
352.5
 30
0.0
 11
309.3999999999999
 21
352.5
 31
0.0
  0
LINE
  5
1B0
330
1E
100
AcDbEntity
  8
0
100
AcDbLine
 10
326.0942484448316
 20
348.3
 30
0.0
 11
323.5942484448316
 21
348.3
 31
0.0
  0
LINE
  5
1B1
330
1E
100
AcDbEntity
  8
0
100
AcDbLine
 10
323.5942484448316
 20
349.5
 30
0.0
 11
326.0942484448316
 21
349.5
 31
0.0
  0
LINE
  5
1B2
330
1E
100
AcDbEntity
  8
0
100
AcDbLine
 10
323.5942484448316
 20
365.45
 30
0.0
 11
326.0942484448316
 21
365.45
 31
0.0
  0
LINE
  5
1B3
330
1E
100
AcDbEntity
  8
0
100
AcDbLine
 10
326.0942484448316
 20
363.75
 30
0.0
 11
323.5942484448316
 21
363.75
 31
0.0
  0
LINE
  5
1B4
330
1E
100
AcDbEntity
  8
3
100
AcDbLine
 10
308.1
 20
351.0
 30
0.0
 11
308.1
 21
373.4999999999999
 31
0.0
  0
LINE
  5
1B5
330
1E
100
AcDbEntity
  8
2
100
AcDbLine
 10
309.3999999999999
 20
352.5
 30
0.0
 11
309.3999999999999
 21
373.4999999999999
 31
0.0
  0
LINE
  5
1B6
330
1E
100
AcDbEntity
  8
2
100
AcDbLine
 10
321.3999999999999
 20
373.4999999999999
 30
0.0
 11
321.3999999999999
 21
352.5
 31
0.0
  0
LINE
  5
1B7
330
1E
100
AcDbEntity
  8
0
100
AcDbLine
 10
310.8942484448316
 20
363.75
 30
0.0
 11
310.8942484448316
 21
365.45
 31
0.0
  0
LINE
  5
1B8
330
1E
100
AcDbEntity
  8
0
100
AcDbLine
 10
305.8442484448316
 20
363.75
 30
0.0
 11
305.8442484448316
 21
365.45
 31
0.0
  0
LINE
  5
1B9
330
1E
100
AcDbEntity
  8
0
100
AcDbLine
 10
323.5942484448316
 20
363.75
 30
0.0
 11
323.5942484448316
 21
365.45
 31
0.0
  0
ARC
  5
1BA
330
1E
100
AcDbEntity
  8
0
100
AcDbCircle
 10
295.0983024988852
 20
374.0679536679536
 30
0.0
 40
17.70505787312752
100
AcDbArc
 50
339.6122033322223
 51
358.1617155958813
  0
ARC
  5
1BB
330
1E
100
AcDbEntity
  8
0
100
AcDbCircle
 10
321.6401943907778
 20
374.0679536679536
 30
0.0
 40
17.70505787312752
100
AcDbArc
 50
181.8382844041185
 51
200.3877966677775
  0
ARC
  5
1BC
330
1E
100
AcDbEntity
  8
0
100
AcDbCircle
 10
298.4345262226105
 20
364.3861111111113
 30
0.0
 40
7.485709250189835
100
AcDbArc
 50
8.170693936323765
 51
27.99619682977445
  0
LINE
  5
1BD
330
1E
100
AcDbEntity
  8
0
100
AcDbLine
 10
305.8442484448316
 20
365.45
 30
0.0
 11
308.3442484448315
 21
365.45
 31
0.0
  0
ARC
  5
1BE
330
1E
100
AcDbEntity
  8
0
100
AcDbCircle
 10
318.3039706670526
 20
364.3861111111113
 30
0.0
 40
7.485709250189835
100
AcDbArc
 50
152.0038031702255
 51
171.8293060636762
  0
LINE
  5
1BF
330
1E
100
AcDbEntity
  8
0
100
AcDbLine
 10
310.8942484448316
 20
365.45
 30
0.0
 11
308.3942484448316
 21
365.45
 31
0.0
  0
ARC
  5
1C0
330
1E
100
AcDbEntity
  8
0
100
AcDbCircle
 10
339.3901943907779
 20
374.0679536679536
 30
0.0
 40
17.70505787312752
100
AcDbArc
 50
181.8382844041185
 51
200.3877966677775
  0
ARC
  5
1C1
330
1E
100
AcDbEntity
  8
0
100
AcDbCircle
 10
316.1845262226105
 20
364.3861111111113
 30
0.0
 40
7.485709250189835
100
AcDbArc
 50
8.170693936323765
 51
27.99619682977445
  0
LINE
  5
1C2
330
1E
100
AcDbEntity
  8
2
100
AcDbLine
 10
313.3
 20
359.8
 30
0.0
 11
309.6
 21
359.8
 31
0.0
  0
LINE
  5
1C3
330
1E
100
AcDbEntity
  8
2
100
AcDbLine
 10
313.5
 20
354.8
 30
0.0
 11
309.6999999999999
 21
354.8
 31
0.0
  0
LINE
  5
1C4
330
1E
100
AcDbEntity
  8
2
100
AcDbLine
 10
320.3999999999999
 20
363.5
 30
0.0
 11
310.3999999999999
 21
363.5
 31
0.0
  0
ARC
  5
1C5
330
1E
100
AcDbEntity
  8
0
100
AcDbCircle
 10
311.1502611030593
 20
348.7231012658228
 30
0.0
 40
0.4945272108930645
100
AcDbArc
 50
238.8224542380434
 51
357.3225196336625
  0
ARC
  5
1C6
330
1E
100
AcDbEntity
  8
0
100
AcDbCircle
 10
336.6581373337069
 20
344.4361111111139
 30
0.0
 40
25.37469971845512
100
AcDbArc
 50
166.4064387419321
 51
170.326293260187
  0
ARC
  5
1C7
330
1E
100
AcDbEntity
  8
0
100
AcDbCircle
 10
313.4850379185157
 20
364.4460526315788
 30
0.0
 40
2.682662737445884
100
AcDbArc
 50
195.0382209782013
 51
234.9458194189165
  0
ARC
  5
1C8
330
1E
100
AcDbEntity
  8
0
100
AcDbCircle
 10
381.8942484448308
 20
342.8277777777775
 30
0.0
 40
71.13091955014567
100
AcDbArc
 50
167.519244956757
 51
172.6723886172947
  0
ARC
  5
1C9
330
1E
100
AcDbEntity
  8
0
100
AcDbCircle
 10
234.8442484448322
 20
342.8277777777775
 30
0.0
 40
71.13091955014567
100
AcDbArc
 50
7.327611382705247
 51
12.48075504324291
  0
ARC
  5
1CA
330
1E
100
AcDbEntity
  8
0
100
AcDbCircle
 10
303.2534589711473
 20
364.4460526315788
 30
0.0
 40
2.682662737445884
100
AcDbArc
 50
305.0541805810833
 51
344.9617790217984
  0
LINE
  5
1CB
330
1E
100
AcDbEntity
  8
0
100
AcDbLine
 10
308.3442484448315
 20
363.75
 30
0.0
 11
305.8442484448316
 21
363.75
 31
0.0
  0
ARC
  5
1CC
330
1E
100
AcDbEntity
  8
0
100
AcDbCircle
 10
307.8231319399772
 20
359.8201995685005
 30
0.0
 40
3.883048462752104
100
AcDbArc
 50
141.263067651003
 51
204.6610508226221
  0
LINE
  5
1CD
330
1E
100
AcDbEntity
  8
2
100
AcDbLine
 10
310.3999999999999
 20
363.5
 30
0.0
 11
309.3999999999999
 21
362.5
 31
0.0
  0
LINE
  5
1CE
330
1E
100
AcDbEntity
  8
0
100
AcDbLine
 10
308.3942484448316
 20
363.75
 30
0.0
 11
310.8942484448316
 21
363.75
 31
0.0
  0
LINE
  5
1CF
330
1E
100
AcDbEntity
  8
2
100
AcDbLine
 10
307.8999999999999
 20
352.5
 30
0.0
 11
305.0
 21
352.5
 31
0.0
  0
LINE
  5
1D0
330
1E
100
AcDbEntity
  8
0
100
AcDbLine
 10
305.8442484448316
 20
349.5
 30
0.0
 11
308.3442484448315
 21
349.5
 31
0.0
  0
LINE
  5
1D1
330
1E
100
AcDbEntity
  8
0
100
AcDbLine
 10
308.3442484448315
 20
348.3
 30
0.0
 11
305.8442484448316
 21
348.3
 31
0.0
  0
ARC
  5
1D2
330
1E
100
AcDbEntity
  8
0
100
AcDbCircle
 10
280.0803595559561
 20
344.4361111111139
 30
0.0
 40
25.37469971845512
100
AcDbArc
 50
9.673706739812951
 51
13.59356125806779
  0
ARC
  5
1D3
330
1E
100
AcDbEntity
  8
0
100
AcDbCircle
 10
305.5882357866037
 20
348.7231012658228
 30
0.0
 40
0.4945272108930645
100
AcDbArc
 50
182.6774803663372
 51
301.1775457619563
  0
ARC
  5
1D4
330
1E
100
AcDbEntity
  8
0
100
AcDbCircle
 10
307.7883660918905
 20
348.9191176470588
 30
0.0
 40
3.794979667236887
100
AcDbArc
 50
157.0317225277351
 51
193.2392485967456
  0
ARC
  5
1D5
330
1E
100
AcDbEntity
  8
0
100
AcDbCircle
 10
304.5192484448315
 20
350.375
 30
0.0
 40
0.2263846284534336
100
AcDbArc
 50
6.340191745918623
 51
173.659808254082
  0
ARC
  5
1D6
330
1E
100
AcDbEntity
  8
0
100
AcDbCircle
 10
310.4636928892752
 20
351.6083333333331
 30
0.0
 40
5.077827923408231
100
AcDbArc
 50
176.707160599633
 51
204.5321499526732
  0
LINE
  5
1D7
330
1E
100
AcDbEntity
  8
0
100
AcDbLine
 10
305.8442484448316
 20
348.3
 30
0.0
 11
305.8442484448316
 21
349.5
 31
0.0
  0
LINE
  5
1D8
330
1E
100
AcDbEntity
  8
2
100
AcDbLine
 10
309.3999999999999
 20
353.5
 30
0.0
 11
310.3999999999999
 21
352.5
 31
0.0
  0
LINE
  5
1D9
330
1E
100
AcDbEntity
  8
2
100
AcDbLine
 10
307.8999999999999
 20
351.0
 30
0.0
 11
307.8999999999999
 21
352.5
 31
0.0
  0
LINE
  5
1DA
330
1E
100
AcDbEntity
  8
2
100
AcDbLine
 10
309.3999999999999
 20
351.0
 30
0.0
 11
307.8999999999999
 21
351.0
 31
0.0
  0
LINE
  5
1DB
330
1E
100
AcDbEntity
  8
2
100
AcDbLine
 10
309.3999999999999
 20
352.5
 30
0.0
 11
309.3999999999999
 21
351.0
 31
0.0
  0
ARC
  5
1DC
330
1E
100
AcDbEntity
  8
0
100
AcDbCircle
 10
306.2748040003879
 20
351.6083333333331
 30
0.0
 40
5.077827923408231
100
AcDbArc
 50
335.4678500473287
 51
3.292839400366953
  0
LINE
  5
1DD
330
1E
100
AcDbEntity
  8
0
100
AcDbLine
 10
310.8942484448316
 20
348.3
 30
0.0
 11
310.8942484448316
 21
349.5
 31
0.0
  0
LINE
  5
1DE
330
1E
100
AcDbEntity
  8
0
100
AcDbLine
 10
310.8942484448316
 20
349.5
 30
0.0
 11
308.3942484448316
 21
349.5
 31
0.0
  0
LINE
  5
1DF
330
1E
100
AcDbEntity
  8
0
100
AcDbLine
 10
308.3942484448316
 20
348.3
 30
0.0
 11
310.8942484448316
 21
348.3
 31
0.0
  0
CIRCLE
  5
1E0
330
1E
100
AcDbEntity
  8
2
100
AcDbCircle
 10
315.3999999999999
 20
357.3
 30
0.0
 40
3.0
  0
ARC
  5
1E1
330
1E
100
AcDbEntity
  8
0
100
AcDbCircle
 10
252.5942484448322
 20
342.8277777777775
 30
0.0
 40
71.13091955014567
100
AcDbArc
 50
7.327611382705247
 51
12.48075504324291
  0
ARC
  5
1E2
330
1E
100
AcDbEntity
  8
0
100
AcDbCircle
 10
308.9153649496858
 20
359.8201995685005
 30
0.0
 40
3.883048462752104
100
AcDbArc
 50
335.3389491773802
 51
38.73693234899683
  0
LINE
  5
1E3
330
1E
100
AcDbEntity
  8
2
100
AcDbLine
 10
321.3999999999999
 20
362.5
 30
0.0
 11
320.3999999999999
 21
363.5
 31
0.0
  0
LINE
  5
1E4
330
1E
100
AcDbEntity
  8
2
100
AcDbLine
 10
322.3999999999999
 20
363.5
 30
0.0
 11
321.3999999999999
 21
362.5
 31
0.0
  0
ARC
  5
1E5
330
1E
100
AcDbEntity
  8
0
100
AcDbCircle
 10
325.5731319399772
 20
359.8201995685005
 30
0.0
 40
3.883048462752104
100
AcDbArc
 50
141.263067651003
 51
204.6610508226221
  0
ARC
  5
1E6
330
1E
100
AcDbEntity
  8
0
100
AcDbCircle
 10
321.0034589711474
 20
364.4460526315788
 30
0.0
 40
2.682662737445884
100
AcDbArc
 50
305.0541805810833
 51
344.9617790217984
  0
LINE
  5
1E7
330
1E
100
AcDbEntity
  8
0
100
AcDbLine
 10
321.75
 20
346.4500000000001
 30
0.0
 11
312.7499999999999
 21
346.4500000000001
 31
0.0
  0
ARC
  5
1E8
330
1E
100
AcDbEntity
  8
0
100
AcDbCircle
 10
308.9501307977726
 20
348.9191176470588
 30
0.0
 40
3.794979667236887
100
AcDbArc
 50
346.7607514032541
 51
22.9682774722642
  0
ARC
  5
1E9
330
1E
100
AcDbEntity
  8
0
100
AcDbCircle
 10
312.2192484448315
 20
350.375
 30
0.0
 40
0.2263846284534336
100
AcDbArc
 50
6.34019174591786
 51
173.6598082540812
  0
LINE
  5
1EA
330
1E
100
AcDbEntity
  8
2
100
AcDbLine
 10
321.3999999999999
 20
353.5
 30
0.0
 11
322.5
 21
352.5
 31
0.0
  0
LINE
  5
1EB
330
1E
100
AcDbEntity
  8
2
100
AcDbLine
 10
321.3999999999999
 20
353.5
 30
0.0
 11
320.5
 21
352.5
 31
0.0
  0
LINE
  5
1EC
330
1E
100
AcDbEntity
  8
0
100
AcDbLine
 10
323.5942484448316
 20
348.3
 30
0.0
 11
323.5942484448316
 21
349.5
 31
0.0
  0
ARC
  5
1ED
330
1E
100
AcDbEntity
  8
0
100
AcDbCircle
 10
328.2136928892752
 20
351.6083333333331
 30
0.0
 40
5.077827923408231
100
AcDbArc
 50
176.707160599633
 51
204.5321499526732
  0
ARC
  5
1EE
330
1E
100
AcDbEntity
  8
0
100
AcDbCircle
 10
322.2692484448316
 20
350.375
 30
0.0
 40
0.2263846284534336
100
AcDbArc
 50
6.340191745918623
 51
173.659808254082
  0
ARC
  5
1EF
330
1E
100
AcDbEntity
  8
0
100
AcDbCircle
 10
325.5383660918906
 20
348.9191176470588
 30
0.0
 40
3.794979667236887
100
AcDbArc
 50
157.0317225277351
 51
193.2392485967456
  0
ARC
  5
1F0
330
1E
100
AcDbEntity
  8
0
100
AcDbCircle
 10
323.3382357866037
 20
348.7231012658228
 30
0.0
 40
0.4945272108930645
100
AcDbArc
 50
182.6774803663372
 51
301.1775457619563
  0
ARC
  5
1F1
330
1E
100
AcDbEntity
  8
0
100
AcDbCircle
 10
297.8303595559562
 20
344.4361111111139
 30
0.0
 40
25.37469971845512
100
AcDbArc
 50
9.673706739812951
 51
13.59356125806779
  0
LINE
  5
1F2
330
1E
100
AcDbEntity
  8
2
100
AcDbLine
 10
333.3999999999999
 20
373.4999999999999
 30
0.0
 11
333.3999999999999
 21
352.5
 31
0.0
  0
LINE
  5
1F3
330
1E
100
AcDbEntity
  8
0
100
AcDbLine
 10
338.9499999999999
 20
373.45
 30
0.0
 11
338.9499999999999
 21
347.4500000000001
 31
0.0
  0
LINE
  5
1F4
330
1E
100
AcDbEntity
  8
0
100
AcDbLine
 10
328.6442484448316
 20
363.75
 30
0.0
 11
328.6442484448316
 21
365.45
 31
0.0
  0
ARC
  5
1F5
330
1E
100
AcDbEntity
  8
0
100
AcDbCircle
 10
312.8483024988852
 20
374.0679536679536
 30
0.0
 40
17.70505787312752
100
AcDbArc
 50
339.6122033322223
 51
358.1617155958813
  0
LINE
  5
1F6
330
1E
100
AcDbEntity
  8
0
100
AcDbLine
 10
328.6442484448316
 20
365.45
 30
0.0
 11
326.1442484448316
 21
365.45
 31
0.0
  0
ARC
  5
1F7
330
1E
100
AcDbEntity
  8
0
100
AcDbCircle
 10
336.0539706670528
 20
364.3861111111113
 30
0.0
 40
7.485709250189835
100
AcDbArc
 50
152.0038031702255
 51
171.8293060636762
  0
LINE
  5
1F8
330
1E
100
AcDbEntity
  8
2
100
AcDbLine
 10
338.8999999999999
 20
354.5
 30
0.0
 11
333.3999999999999
 21
354.5
 31
0.0
  0
LINE
  5
1F9
330
1E
100
AcDbEntity
  8
0
100
AcDbLine
 10
337.95
 20
346.4500000000001
 30
0.0
 11
330.45
 21
346.4500000000001
 31
0.0
  0
CIRCLE
  5
1FA
330
1E
100
AcDbEntity
  8
2
100
AcDbCircle
 10
327.4
 20
357.3
 30
0.0
 40
3.0
  0
ARC
  5
1FB
330
1E
100
AcDbEntity
  8
0
100
AcDbCircle
 10
399.644248444831
 20
342.8277777777775
 30
0.0
 40
71.13091955014567
100
AcDbArc
 50
167.519244956757
 51
172.6723886172947
  0
LINE
  5
1FC
330
1E
100
AcDbEntity
  8
2
100
AcDbLine
 10
333.1
 20
359.8
 30
0.0
 11
329.1999999999999
 21
359.8
 31
0.0
  0
LINE
  5
1FD
330
1E
100
AcDbEntity
  8
0
100
AcDbLine
 10
326.1442484448316
 20
363.75
 30
0.0
 11
328.6442484448316
 21
363.75
 31
0.0
  0
ARC
  5
1FE
330
1E
100
AcDbEntity
  8
0
100
AcDbCircle
 10
326.6653649496857
 20
359.8201995685005
 30
0.0
 40
3.883048462752104
100
AcDbArc
 50
335.3389491773802
 51
38.73693234899683
  0
ARC
  5
1FF
330
1E
100
AcDbEntity
  8
0
100
AcDbCircle
 10
331.2350379185158
 20
364.4460526315788
 30
0.0
 40
2.682662737445884
100
AcDbArc
 50
195.0382209782013
 51
234.9458194189165
  0
LINE
  5
200
330
1E
100
AcDbEntity
  8
2
100
AcDbLine
 10
332.5
 20
363.5
 30
0.0
 11
333.3999999999999
 21
362.5
 31
0.0
  0
LINE
  5
201
330
1E
100
AcDbEntity
  8
2
100
AcDbLine
 10
333.3
 20
354.8
 30
0.0
 11
329.1999999999999
 21
354.8
 31
0.0
  0
LINE
  5
202
330
1E
100
AcDbEntity
  8
0
100
AcDbLine
 10
326.1442484448316
 20
348.3
 30
0.0
 11
328.6442484448316
 21
348.3
 31
0.0
  0
LINE
  5
203
330
1E
100
AcDbEntity
  8
0
100
AcDbLine
 10
328.6442484448316
 20
349.5
 30
0.0
 11
326.1442484448316
 21
349.5
 31
0.0
  0
ARC
  5
204
330
1E
100
AcDbEntity
  8
0
100
AcDbCircle
 10
329.9692484448316
 20
350.375
 30
0.0
 40
0.2263846284534336
100
AcDbArc
 50
6.34019174591786
 51
173.6598082540812
  0
ARC
  5
205
330
1E
100
AcDbEntity
  8
0
100
AcDbCircle
 10
326.7001307977727
 20
348.9191176470588
 30
0.0
 40
3.794979667236887
100
AcDbArc
 50
346.7607514032541
 51
22.9682774722642
  0
ARC
  5
206
330
1E
100
AcDbEntity
  8
0
100
AcDbCircle
 10
354.4081373337069
 20
344.4361111111139
 30
0.0
 40
25.37469971845512
100
AcDbArc
 50
166.4064387419321
 51
170.326293260187
  0
LINE
  5
207
330
1E
100
AcDbEntity
  8
0
100
AcDbLine
 10
328.6442484448316
 20
348.3
 30
0.0
 11
328.6442484448316
 21
349.5
 31
0.0
  0
ARC
  5
208
330
1E
100
AcDbEntity
  8
0
100
AcDbCircle
 10
324.024804000388
 20
351.6083333333331
 30
0.0
 40
5.077827923408231
100
AcDbArc
 50
335.4678500473287
 51
3.292839400366953
  0
ARC
  5
209
330
1E
100
AcDbEntity
  8
0
100
AcDbCircle
 10
328.9002611030594
 20
348.7231012658228
 30
0.0
 40
0.4945272108930645
100
AcDbArc
 50
238.8224542380434
 51
357.3225196336625
  0
LINE
  5
20A
330
1E
100
AcDbEntity
  8
2
100
AcDbLine
 10
333.3
 20
353.5
 30
0.0
 11
332.3999999999999
 21
352.5
 31
0.0
  0
LINE
  5
20B
330
1E
100
AcDbEntity
  8
0
100
AcDbLine
 10
326.0942484448316
 20
334.0
 30
0.0
 11
323.5442484448316
 21
334.0
 31
0.0
  0
LINE
  5
20C
330
1E
100
AcDbEntity
  8
0
100
AcDbLine
 10
326.0942484448316
 20
337.6999999999999
 30
0.0
 11
323.5942484448316
 21
337.6999999999999
 31
0.0
  0
LINE
  5
20D
330
1E
100
AcDbEntity
  8
0
100
AcDbLine
 10
323.5942484448316
 20
338.35
 30
0.0
 11
326.0942484448316
 21
338.35
 31
0.0
  0
ARC
  5
20E
330
1E
100
AcDbEntity
  8
0
100
AcDbCircle
 10
297.5647963900377
 20
344.3109589041095
 30
0.0
 40
14.87881277901134
100
AcDbArc
 50
333.6201385552914
 51
355.3316394512308
  0
ARC
  5
20F
330
1E
100
AcDbEntity
  8
0
100
AcDbCircle
 10
285.255624344113
 20
343.8888489208629
 30
0.0
 40
27.5262554875826
100
AcDbArc
 50
338.9457640275549
 51
357.003676753175
  0
ARC
  5
210
330
1E
100
AcDbEntity
  8
0
100
AcDbCircle
 10
331.48287254555
 20
343.8888489208629
 30
0.0
 40
27.5262554875826
100
AcDbArc
 50
182.996323246825
 51
201.0542359724451
  0
LINE
  5
211
330
1E
100
AcDbEntity
  8
0
100
AcDbLine
 10
305.8442484448316
 20
338.35
 30
0.0
 11
308.3442484448315
 21
338.35
 31
0.0
  0
LINE
  5
212
330
1E
100
AcDbEntity
  8
0
100
AcDbLine
 10
308.3442484448315
 20
337.6999999999999
 30
0.0
 11
305.8442484448316
 21
337.6999999999999
 31
0.0
  0
LINE
  5
213
330
1E
100
AcDbEntity
  8
0
100
AcDbLine
 10
305.8442484448316
 20
337.6999999999999
 30
0.0
 11
305.8442484448316
 21
338.35
 31
0.0
  0
ARC
  5
214
330
1E
100
AcDbEntity
  8
0
100
AcDbCircle
 10
319.1737004996252
 20
344.3109589041095
 30
0.0
 40
14.87881277901134
100
AcDbArc
 50
184.6683605487691
 51
206.3798614447187
  0
ARC
  5
215
330
1E
100
AcDbEntity
  8
0
100
AcDbCircle
 10
304.1627968319282
 20
343.1201612903227
 30
0.0
 40
0.1825682487527802
100
AcDbArc
 50
353.6598082540781
 51
202.6003964542204
  0
LINE
  5
216
330
1E
100
AcDbEntity
  8
0
100
AcDbLine
 10
310.8942484448316
 20
337.6999999999999
 30
0.0
 11
310.8942484448316
 21
338.35
 31
0.0
  0
LINE
  5
217
330
1E
100
AcDbEntity
  8
0
100
AcDbLine
 10
310.8942484448316
 20
338.35
 30
0.0
 11
308.3942484448316
 21
338.35
 31
0.0
  0
LINE
  5
218
330
1E
100
AcDbEntity
  8
0
100
AcDbLine
 10
308.3942484448316
 20
337.6999999999999
 30
0.0
 11
310.8942484448316
 21
337.6999999999999
 31
0.0
  0
LINE
  5
219
330
1E
100
AcDbEntity
  8
0
100
AcDbLine
 10
308.3442484448315
 20
334.0
 30
0.0
 11
305.7942484448314
 21
334.0
 31
0.0
  0
LINE
  5
21A
330
1E
100
AcDbEntity
  8
0
100
AcDbLine
 10
308.3942484448316
 20
334.0
 30
0.0
 11
310.9442484448316
 21
334.0
 31
0.0
  0
ARC
  5
21B
330
1E
100
AcDbEntity
  8
0
100
AcDbCircle
 10
349.2328725455501
 20
343.8888489208629
 30
0.0
 40
27.5262554875826
100
AcDbArc
 50
182.996323246825
 51
201.0542359724451
  0
ARC
  5
21C
330
1E
100
AcDbEntity
  8
0
100
AcDbCircle
 10
312.5757000577348
 20
343.1201612903227
 30
0.0
 40
0.1825682487527802
100
AcDbArc
 50
337.3996035457798
 51
186.3401917459216
  0
ARC
  5
21D
330
1E
100
AcDbEntity
  8
0
100
AcDbCircle
 10
321.9127968319283
 20
343.1201612903227
 30
0.0
 40
0.1825682487527802
100
AcDbArc
 50
353.6598082540781
 51
202.6003964542204
  0
ARC
  5
21E
330
1E
100
AcDbEntity
  8
0
100
AcDbCircle
 10
336.9237004996254
 20
344.3109589041095
 30
0.0
 40
14.87881277901134
100
AcDbArc
 50
184.6683605487691
 51
206.3798614447187
  0
LINE
  5
21F
330
1E
100
AcDbEntity
  8
0
100
AcDbLine
 10
323.5942484448316
 20
337.6999999999999
 30
0.0
 11
323.5942484448316
 21
338.35
 31
0.0
  0
ARC
  5
220
330
1E
100
AcDbEntity
  8
0
100
AcDbCircle
 10
303.0056243441129
 20
343.8888489208629
 30
0.0
 40
27.5262554875826
100
AcDbArc
 50
338.9457640275549
 51
357.003676753175
  0
LINE
  5
221
330
1E
100
AcDbEntity
  8
0
100
AcDbLine
 10
326.1442484448316
 20
337.6999999999999
 30
0.0
 11
328.6442484448316
 21
337.6999999999999
 31
0.0
  0
LINE
  5
222
330
1E
100
AcDbEntity
  8
0
100
AcDbLine
 10
328.6442484448316
 20
338.35
 30
0.0
 11
326.1442484448316
 21
338.35
 31
0.0
  0
ARC
  5
223
330
1E
100
AcDbEntity
  8
0
100
AcDbCircle
 10
330.3257000577348
 20
343.1201612903227
 30
0.0
 40
0.1825682487527802
100
AcDbArc
 50
337.3996035457798
 51
186.3401917459216
  0
ARC
  5
224
330
1E
100
AcDbEntity
  8
0
100
AcDbCircle
 10
315.3147963900376
 20
344.3109589041095
 30
0.0
 40
14.87881277901134
100
AcDbArc
 50
333.6201385552914
 51
355.3316394512308
  0
LINE
  5
225
330
1E
100
AcDbEntity
  8
0
100
AcDbLine
 10
328.6442484448316
 20
337.6999999999999
 30
0.0
 11
328.6442484448316
 21
338.35
 31
0.0
  0
LINE
  5
226
330
1E
100
AcDbEntity
  8
0
100
AcDbLine
 10
326.1442484448316
 20
334.0
 30
0.0
 11
328.6942484448316
 21
334.0
 31
0.0
  0
LINE
  5
227
330
1E
100
AcDbEntity
  8
1
100
AcDbLine
 10
345.1499999999999
 20
241.9499999999999
 30
0.0
 11
299.3
 21
241.9499999999999
 31
0.0
  0
ARC
  5
228
330
1E
100
AcDbEntity
  8
0
100
AcDbCircle
 10
336.0539706670528
 20
232.8861111111113
 30
0.0
 40
7.485709250189835
100
AcDbArc
 50
152.0038031702255
 51
171.8293060636762
  0
LINE
  5
229
330
1E
100
AcDbEntity
  8
0
100
AcDbLine
 10
338.9499999999999
 20
241.9499999999999
 30
0.0
 11
338.9499999999999
 21
215.9499999999999
 31
0.0
  0
LINE
  5
22A
330
1E
100
AcDbEntity
  8
2
100
AcDbLine
 10
333.3999999999999
 20
242.0
 30
0.0
 11
333.3999999999999
 21
221.0
 31
0.0
  0
ARC
  5
22B
330
1E
100
AcDbEntity
  8
0
100
AcDbCircle
 10
316.1845262226105
 20
232.8861111111113
 30
0.0
 40
7.485709250189835
100
AcDbArc
 50
8.170693936323765
 51
27.99619682977445
  0
ARC
  5
22C
330
1E
100
AcDbEntity
  8
0
100
AcDbCircle
 10
318.3039706670526
 20
232.8861111111113
 30
0.0
 40
7.485709250189835
100
AcDbArc
 50
152.0038031702255
 51
171.8293060636762
  0
ARC
  5
22D
330
1E
100
AcDbEntity
  8
0
100
AcDbCircle
 10
298.4345262226105
 20
232.8861111111113
 30
0.0
 40
7.485709250189835
100
AcDbArc
 50
8.170693936323765
 51
27.99619682977445
  0
LINE
  5
22E
330
1E
100
AcDbEntity
  8
2
100
AcDbLine
 10
321.3999999999999
 20
242.0
 30
0.0
 11
321.3999999999999
 21
221.0
 31
0.0
  0
LINE
  5
22F
330
1E
100
AcDbEntity
  8
2
100
AcDbLine
 10
309.3999999999999
 20
221.0
 30
0.0
 11
309.3999999999999
 21
242.0
 31
0.0
  0
LINE
  5
230
330
1E
100
AcDbEntity
  8
3
100
AcDbLine
 10
308.1
 20
219.5
 30
0.0
 11
308.1
 21
242.0
 31
0.0
  0
LINE
  5
231
330
1E
100
AcDbEntity
  8
0
100
AcDbLine
 10
330.4942484448315
 20
241.9999999999999
 30
0.0
 11
330.4942484448315
 21
210.9499999999999
 31
0.0
  0
LINE
  5
232
330
1E
100
AcDbEntity
  8
0
100
AcDbLine
 10
321.7442484448315
 20
241.9999999999999
 30
0.0
 11
321.7442484448315
 21
210.9499999999999
 31
0.0
  0
LINE
  5
233
330
1E
100
AcDbEntity
  8
1
100
AcDbLine
 10
308.3442484448315
 20
241.9999999999999
 30
0.0
 11
308.3442484448315
 21
196.65
 31
0.0
  0
LINE
  5
234
330
1E
100
AcDbEntity
  8
0
100
AcDbLine
 10
303.9942484448315
 20
241.9999999999999
 30
0.0
 11
303.9942484448315
 21
210.9499999999999
 31
0.0
  0
LINE
  5
235
330
1E
100
AcDbEntity
  8
0
100
AcDbLine
 10
312.7442484448315
 20
241.9999999999999
 30
0.0
 11
312.7442484448315
 21
210.9499999999999
 31
0.0
  0
LINE
  5
236
330
1E
100
AcDbEntity
  8
1
100
AcDbLine
 10
326.0942484448316
 20
242.0999999999999
 30
0.0
 11
326.0942484448316
 21
196.75
 31
0.0
  0
LINE
  5
237
330
1E
100
AcDbEntity
  8
0
100
AcDbLine
 10
323.5942484448316
 20
206.8499999999999
 30
0.0
 11
326.0942484448316
 21
206.8499999999999
 31
0.0
  0
LINE
  5
238
330
1E
100
AcDbEntity
  8
0
100
AcDbLine
 10
326.0942484448316
 20
206.1999999999999
 30
0.0
 11
323.5942484448316
 21
206.1999999999999
 31
0.0
  0
LINE
  5
239
330
1E
100
AcDbEntity
  8
0
100
AcDbLine
 10
326.0942484448316
 20
202.5
 30
0.0
 11
323.5442484448316
 21
202.5
 31
0.0
  0
LINE
  5
23A
330
1E
100
AcDbEntity
  8
0
100
AcDbLine
 10
326.0942484448316
 20
232.25
 30
0.0
 11
323.5942484448316
 21
232.25
 31
0.0
  0
LINE
  5
23B
330
1E
100
AcDbEntity
  8
0
100
AcDbLine
 10
323.5942484448316
 20
233.95
 30
0.0
 11
326.0942484448316
 21
233.95
 31
0.0
  0
LINE
  5
23C
330
1E
100
AcDbEntity
  8
0
100
AcDbLine
 10
323.5942484448316
 20
218.0000000000001
 30
0.0
 11
326.0942484448316
 21
218.0000000000001
 31
0.0
  0
LINE
  5
23D
330
1E
100
AcDbEntity
  8
0
100
AcDbLine
 10
326.0942484448316
 20
216.8
 30
0.0
 11
323.5942484448316
 21
216.8
 31
0.0
  0
LINE
  5
23E
330
1E
100
AcDbEntity
  8
2
100
AcDbLine
 10
333.3999999999999
 20
221.0
 30
0.0
 11
309.3999999999999
 21
221.0
 31
0.0
  0
LINE
  5
23F
330
1E
100
AcDbEntity
  8
2
100
AcDbLine
 10
332.5
 20
232.0
 30
0.0
 11
322.3999999999999
 21
232.0
 31
0.0
  0
LINE
  5
240
330
1E
100
AcDbEntity
  8
2
100
AcDbLine
 10
325.4
 20
223.3
 30
0.0
 11
317.3
 21
223.3
 31
0.0
  0
LINE
  5
241
330
1E
100
AcDbEntity
  8
2
100
AcDbLine
 10
325.4
 20
228.3
 30
0.0
 11
317.3999999999999
 21
228.3
 31
0.0
  0
ARC
  5
242
330
1E
100
AcDbEntity
  8
0
100
AcDbCircle
 10
397.214630610442
 20
225.1398885350328
 30
0.0
 40
75.85829350067422
100
AcDbArc
 50
186.5018897667941
 51
193.9518256458883
  0
ARC
  5
243
330
1E
100
AcDbEntity
  8
0
100
AcDbCircle
 10
237.2738662792212
 20
225.1398885350328
 30
0.0
 40
75.85829350067422
100
AcDbArc
 50
346.0481743541116
 51
353.4981102332057
  0
ARC
  5
244
330
1E
100
AcDbEntity
  8
0
100
AcDbCircle
 10
379.4646306104417
 20
225.1398885350328
 30
0.0
 40
75.85829350067422
100
AcDbArc
 50
186.5018897667941
 51
193.9518256458883
  0
ARC
  5
245
330
1E
100
AcDbEntity
  8
0
100
AcDbCircle
 10
285.255624344113
 20
212.388848920863
 30
0.0
 40
27.5262554875826
100
AcDbArc
 50
338.9457640275549
 51
357.003676753175
  0
ARC
  5
246
330
1E
100
AcDbEntity
  8
0
100
AcDbCircle
 10
297.5647963900377
 20
212.8109589041094
 30
0.0
 40
14.87881277901134
100
AcDbArc
 50
333.6201385552914
 51
355.3316394512308
  0
ARC
  5
247
330
1E
100
AcDbEntity
  8
0
100
AcDbCircle
 10
319.1737004996252
 20
212.8109589041094
 30
0.0
 40
14.87881277901134
100
AcDbArc
 50
184.6683605487691
 51
206.3798614447187
  0
ARC
  5
248
330
1E
100
AcDbEntity
  8
0
100
AcDbCircle
 10
331.48287254555
 20
212.388848920863
 30
0.0
 40
27.5262554875826
100
AcDbArc
 50
182.996323246825
 51
201.0542359724451
  0
LINE
  5
249
330
1E
100
AcDbEntity
  8
0
100
AcDbLine
 10
308.3442484448315
 20
202.5
 30
0.0
 11
305.7942484448314
 21
202.5
 31
0.0
  0
LINE
  5
24A
330
1E
100
AcDbEntity
  8
0
100
AcDbLine
 10
308.3442484448315
 20
206.1999999999999
 30
0.0
 11
305.8442484448316
 21
206.1999999999999
 31
0.0
  0
LINE
  5
24B
330
1E
100
AcDbEntity
  8
0
100
AcDbLine
 10
305.8442484448316
 20
206.8499999999999
 30
0.0
 11
308.3442484448315
 21
206.8499999999999
 31
0.0
  0
LINE
  5
24C
330
1E
100
AcDbEntity
  8
0
100
AcDbLine
 10
305.8442484448316
 20
206.1999999999999
 30
0.0
 11
305.8442484448316
 21
206.8499999999999
 31
0.0
  0
LINE
  5
24D
330
1E
100
AcDbEntity
  8
0
100
AcDbLine
 10
308.3942484448316
 20
202.5
 30
0.0
 11
310.9442484448316
 21
202.5
 31
0.0
  0
LINE
  5
24E
330
1E
100
AcDbEntity
  8
0
100
AcDbLine
 10
308.3942484448316
 20
206.1999999999999
 30
0.0
 11
310.8942484448316
 21
206.1999999999999
 31
0.0
  0
LINE
  5
24F
330
1E
100
AcDbEntity
  8
0
100
AcDbLine
 10
310.8942484448316
 20
206.8499999999999
 30
0.0
 11
308.3942484448316
 21
206.8499999999999
 31
0.0
  0
LINE
  5
250
330
1E
100
AcDbEntity
  8
0
100
AcDbLine
 10
310.8942484448316
 20
206.1999999999999
 30
0.0
 11
310.8942484448316
 21
206.8499999999999
 31
0.0
  0
ARC
  5
251
330
1E
100
AcDbEntity
  8
0
100
AcDbCircle
 10
304.1627968319282
 20
211.6201612903227
 30
0.0
 40
0.1825682487527802
100
AcDbArc
 50
353.6598082540781
 51
202.6003964542204
  0
ARC
  5
252
330
1E
100
AcDbEntity
  8
0
100
AcDbCircle
 10
336.9237004996254
 20
212.8109589041094
 30
0.0
 40
14.87881277901134
100
AcDbArc
 50
184.6683605487691
 51
206.3798614447187
  0
ARC
  5
253
330
1E
100
AcDbEntity
  8
0
100
AcDbCircle
 10
349.2328725455501
 20
212.388848920863
 30
0.0
 40
27.5262554875826
100
AcDbArc
 50
182.996323246825
 51
201.0542359724451
  0
LINE
  5
254
330
1E
100
AcDbEntity
  8
0
100
AcDbLine
 10
323.5942484448316
 20
206.1999999999999
 30
0.0
 11
323.5942484448316
 21
206.8499999999999
 31
0.0
  0
LINE
  5
255
330
1E
100
AcDbEntity
  8
0
100
AcDbLine
 10
321.75
 20
214.95
 30
0.0
 11
312.7499999999999
 21
214.95
 31
0.0
  0
ARC
  5
256
330
1E
100
AcDbEntity
  8
0
100
AcDbCircle
 10
312.5757000577348
 20
211.6201612903227
 30
0.0
 40
0.1825682487527802
100
AcDbArc
 50
337.3996035457798
 51
186.3401917459216
  0
ARC
  5
257
330
1E
100
AcDbEntity
  8
0
100
AcDbCircle
 10
321.9127968319283
 20
211.6201612903227
 30
0.0
 40
0.1825682487527802
100
AcDbArc
 50
353.6598082540781
 51
202.6003964542204
  0
ARC
  5
258
330
1E
100
AcDbEntity
  8
0
100
AcDbCircle
 10
381.8942484448308
 20
211.3277777777776
 30
0.0
 40
71.13091955014567
100
AcDbArc
 50
167.519244956757
 51
172.6723886172947
  0
ARC
  5
259
330
1E
100
AcDbEntity
  8
0
100
AcDbCircle
 10
313.4850379185157
 20
232.9460526315788
 30
0.0
 40
2.682662737445884
100
AcDbArc
 50
195.0382209782013
 51
234.9458194189165
  0
ARC
  5
25A
330
1E
100
AcDbEntity
  8
0
100
AcDbCircle
 10
336.6581373337069
 20
212.9361111111138
 30
0.0
 40
25.37469971845512
100
AcDbArc
 50
166.4064387419321
 51
170.326293260187
  0
ARC
  5
25B
330
1E
100
AcDbEntity
  8
0
100
AcDbCircle
 10
311.1502611030593
 20
217.2231012658228
 30
0.0
 40
0.4945272108930645
100
AcDbArc
 50
238.8224542380434
 51
357.3225196336625
  0
LINE
  5
25C
330
1E
100
AcDbEntity
  8
2
100
AcDbLine
 10
320.3999999999999
 20
232.0
 30
0.0
 11
310.3999999999999
 21
232.0
 31
0.0
  0
LINE
  5
25D
330
1E
100
AcDbEntity
  8
2
100
AcDbLine
 10
313.5
 20
223.3
 30
0.0
 11
309.6999999999999
 21
223.3
 31
0.0
  0
LINE
  5
25E
330
1E
100
AcDbEntity
  8
2
100
AcDbLine
 10
313.3
 20
228.3
 30
0.0
 11
309.6
 21
228.3
 31
0.0
  0
ARC
  5
25F
330
1E
100
AcDbEntity
  8
0
100
AcDbCircle
 10
234.8442484448322
 20
211.3277777777776
 30
0.0
 40
71.13091955014567
100
AcDbArc
 50
7.327611382705247
 51
12.48075504324291
  0
LINE
  5
260
330
1E
100
AcDbEntity
  8
0
100
AcDbLine
 10
308.3442484448315
 20
216.8
 30
0.0
 11
305.8442484448316
 21
216.8
 31
0.0
  0
LINE
  5
261
330
1E
100
AcDbEntity
  8
0
100
AcDbLine
 10
305.8442484448316
 20
218.0000000000001
 30
0.0
 11
308.3442484448315
 21
218.0000000000001
 31
0.0
  0
LINE
  5
262
330
1E
100
AcDbEntity
  8
2
100
AcDbLine
 10
307.8999999999999
 20
221.0
 30
0.0
 11
305.0
 21
221.0
 31
0.0
  0
LINE
  5
263
330
1E
100
AcDbEntity
  8
0
100
AcDbLine
 10
305.8442484448316
 20
216.8
 30
0.0
 11
305.8442484448316
 21
218.0000000000001
 31
0.0
  0
ARC
  5
264
330
1E
100
AcDbEntity
  8
0
100
AcDbCircle
 10
310.4636928892752
 20
220.1083333333332
 30
0.0
 40
5.077827923408231
100
AcDbArc
 50
176.707160599633
 51
204.5321499526731
  0
ARC
  5
265
330
1E
100
AcDbEntity
  8
0
100
AcDbCircle
 10
304.5192484448315
 20
218.875
 30
0.0
 40
0.2263846284534336
100
AcDbArc
 50
6.340191745918623
 51
173.659808254082
  0
ARC
  5
266
330
1E
100
AcDbEntity
  8
0
100
AcDbCircle
 10
307.7883660918905
 20
217.4191176470589
 30
0.0
 40
3.794979667236887
100
AcDbArc
 50
157.0317225277351
 51
193.2392485967456
  0
ARC
  5
267
330
1E
100
AcDbEntity
  8
0
100
AcDbCircle
 10
305.5882357866037
 20
217.2231012658228
 30
0.0
 40
0.4945272108930645
100
AcDbArc
 50
182.6774803663372
 51
301.1775457619563
  0
ARC
  5
268
330
1E
100
AcDbEntity
  8
0
100
AcDbCircle
 10
280.0803595559561
 20
212.9361111111138
 30
0.0
 40
25.37469971845512
100
AcDbArc
 50
9.673706739812951
 51
13.59356125806779
  0
LINE
  5
269
330
1E
100
AcDbEntity
  8
0
100
AcDbLine
 10
308.3942484448316
 20
216.8
 30
0.0
 11
310.8942484448316
 21
216.8
 31
0.0
  0
LINE
  5
26A
330
1E
100
AcDbEntity
  8
0
100
AcDbLine
 10
310.8942484448316
 20
218.0000000000001
 30
0.0
 11
308.3942484448316
 21
218.0000000000001
 31
0.0
  0
LINE
  5
26B
330
1E
100
AcDbEntity
  8
0
100
AcDbLine
 10
310.8942484448316
 20
216.8
 30
0.0
 11
310.8942484448316
 21
218.0000000000001
 31
0.0
  0
ARC
  5
26C
330
1E
100
AcDbEntity
  8
0
100
AcDbCircle
 10
306.2748040003879
 20
220.1083333333332
 30
0.0
 40
5.077827923408231
100
AcDbArc
 50
335.4678500473287
 51
3.292839400366953
  0
LINE
  5
26D
330
1E
100
AcDbEntity
  8
2
100
AcDbLine
 10
309.3999999999999
 20
221.0
 30
0.0
 11
309.3999999999999
 21
219.5
 31
0.0
  0
LINE
  5
26E
330
1E
100
AcDbEntity
  8
2
100
AcDbLine
 10
309.3999999999999
 20
219.5
 30
0.0
 11
307.8999999999999
 21
219.5
 31
0.0
  0
LINE
  5
26F
330
1E
100
AcDbEntity
  8
2
100
AcDbLine
 10
307.8999999999999
 20
219.5
 30
0.0
 11
307.8999999999999
 21
221.0
 31
0.0
  0
LINE
  5
270
330
1E
100
AcDbEntity
  8
2
100
AcDbLine
 10
309.3999999999999
 20
222.0000000000001
 30
0.0
 11
310.3999999999999
 21
221.0
 31
0.0
  0
LINE
  5
271
330
1E
100
AcDbEntity
  8
0
100
AcDbLine
 10
308.3442484448315
 20
232.25
 30
0.0
 11
305.8442484448316
 21
232.25
 31
0.0
  0
ARC
  5
272
330
1E
100
AcDbEntity
  8
0
100
AcDbCircle
 10
303.2534589711473
 20
232.9460526315788
 30
0.0
 40
2.682662737445884
100
AcDbArc
 50
305.0541805810833
 51
344.9617790217984
  0
LINE
  5
273
330
1E
100
AcDbEntity
  8
0
100
AcDbLine
 10
305.8442484448316
 20
233.95
 30
0.0
 11
308.3442484448315
 21
233.95
 31
0.0
  0
ARC
  5
274
330
1E
100
AcDbEntity
  8
0
100
AcDbCircle
 10
307.8231319399772
 20
228.3201995685006
 30
0.0
 40
3.883048462752104
100
AcDbArc
 50
141.263067651003
 51
204.6610508226221
  0
LINE
  5
275
330
1E
100
AcDbEntity
  8
0
100
AcDbLine
 10
305.8442484448316
 20
232.25
 30
0.0
 11
305.8442484448316
 21
233.95
 31
0.0
  0
LINE
  5
276
330
1E
100
AcDbEntity
  8
0
100
AcDbLine
 10
308.3942484448316
 20
232.25
 30
0.0
 11
310.8942484448316
 21
232.25
 31
0.0
  0
LINE
  5
277
330
1E
100
AcDbEntity
  8
2
100
AcDbLine
 10
310.3999999999999
 20
232.0
 30
0.0
 11
309.3999999999999
 21
231.0
 31
0.0
  0
LINE
  5
278
330
1E
100
AcDbEntity
  8
0
100
AcDbLine
 10
310.8942484448316
 20
233.95
 30
0.0
 11
308.3942484448316
 21
233.95
 31
0.0
  0
LINE
  5
279
330
1E
100
AcDbEntity
  8
0
100
AcDbLine
 10
310.8942484448316
 20
232.25
 30
0.0
 11
310.8942484448316
 21
233.95
 31
0.0
  0
ARC
  5
27A
330
1E
100
AcDbEntity
  8
0
100
AcDbCircle
 10
252.5942484448322
 20
211.3277777777776
 30
0.0
 40
71.13091955014567
100
AcDbArc
 50
7.327611382705247
 51
12.48075504324291
  0
CIRCLE
  5
27B
330
1E
100
AcDbEntity
  8
2
100
AcDbCircle
 10
315.3999999999999
 20
225.8
 30
0.0
 40
3.0
  0
ARC
  5
27C
330
1E
100
AcDbEntity
  8
0
100
AcDbCircle
 10
312.2192484448315
 20
218.875
 30
0.0
 40
0.2263846284534336
100
AcDbArc
 50
6.34019174591786
 51
173.6598082540812
  0
ARC
  5
27D
330
1E
100
AcDbEntity
  8
0
100
AcDbCircle
 10
308.9501307977726
 20
217.4191176470589
 30
0.0
 40
3.794979667236887
100
AcDbArc
 50
346.7607514032541
 51
22.9682774722642
  0
ARC
  5
27E
330
1E
100
AcDbEntity
  8
0
100
AcDbCircle
 10
297.8303595559562
 20
212.9361111111138
 30
0.0
 40
25.37469971845512
100
AcDbArc
 50
9.673706739812951
 51
13.59356125806779
  0
ARC
  5
27F
330
1E
100
AcDbEntity
  8
0
100
AcDbCircle
 10
323.3382357866037
 20
217.2231012658228
 30
0.0
 40
0.4945272108930645
100
AcDbArc
 50
182.6774803663372
 51
301.1775457619563
  0
ARC
  5
280
330
1E
100
AcDbEntity
  8
0
100
AcDbCircle
 10
325.5383660918906
 20
217.4191176470589
 30
0.0
 40
3.794979667236887
100
AcDbArc
 50
157.0317225277351
 51
193.2392485967456
  0
ARC
  5
281
330
1E
100
AcDbEntity
  8
0
100
AcDbCircle
 10
322.2692484448316
 20
218.875
 30
0.0
 40
0.2263846284534336
100
AcDbArc
 50
6.340191745918623
 51
173.659808254082
  0
ARC
  5
282
330
1E
100
AcDbEntity
  8
0
100
AcDbCircle
 10
328.2136928892752
 20
220.1083333333332
 30
0.0
 40
5.077827923408231
100
AcDbArc
 50
176.707160599633
 51
204.5321499526731
  0
LINE
  5
283
330
1E
100
AcDbEntity
  8
0
100
AcDbLine
 10
323.5942484448316
 20
216.8
 30
0.0
 11
323.5942484448316
 21
218.0000000000001
 31
0.0
  0
LINE
  5
284
330
1E
100
AcDbEntity
  8
2
100
AcDbLine
 10
321.3999999999999
 20
222.0000000000001
 30
0.0
 11
320.5
 21
221.0
 31
0.0
  0
LINE
  5
285
330
1E
100
AcDbEntity
  8
2
100
AcDbLine
 10
321.3999999999999
 20
222.0000000000001
 30
0.0
 11
322.5
 21
221.0
 31
0.0
  0
ARC
  5
286
330
1E
100
AcDbEntity
  8
0
100
AcDbCircle
 10
308.9153649496858
 20
228.3201995685006
 30
0.0
 40
3.883048462752104
100
AcDbArc
 50
335.3389491773802
 51
38.73693234899683
  0
ARC
  5
287
330
1E
100
AcDbEntity
  8
0
100
AcDbCircle
 10
321.0034589711474
 20
232.9460526315788
 30
0.0
 40
2.682662737445884
100
AcDbArc
 50
305.0541805810833
 51
344.9617790217984
  0
ARC
  5
288
330
1E
100
AcDbEntity
  8
0
100
AcDbCircle
 10
325.5731319399772
 20
228.3201995685006
 30
0.0
 40
3.883048462752104
100
AcDbArc
 50
141.263067651003
 51
204.6610508226221
  0
LINE
  5
289
330
1E
100
AcDbEntity
  8
2
100
AcDbLine
 10
322.3999999999999
 20
232.0
 30
0.0
 11
321.3999999999999
 21
231.0
 31
0.0
  0
LINE
  5
28A
330
1E
100
AcDbEntity
  8
2
100
AcDbLine
 10
321.3999999999999
 20
231.0
 30
0.0
 11
320.3999999999999
 21
232.0
 31
0.0
  0
LINE
  5
28B
330
1E
100
AcDbEntity
  8
0
100
AcDbLine
 10
323.5942484448316
 20
232.25
 30
0.0
 11
323.5942484448316
 21
233.95
 31
0.0
  0
ARC
  5
28C
330
1E
100
AcDbEntity
  8
0
100
AcDbCircle
 10
255.0238662792213
 20
225.1398885350328
 30
0.0
 40
75.85829350067422
100
AcDbArc
 50
346.0481743541116
 51
353.4981102332057
  0
LINE
  5
28D
330
1E
100
AcDbEntity
  8
0
100
AcDbLine
 10
337.95
 20
214.95
 30
0.0
 11
330.45
 21
214.95
 31
0.0
  0
ARC
  5
28E
330
1E
100
AcDbEntity
  8
0
100
AcDbCircle
 10
315.3147963900376
 20
212.8109589041094
 30
0.0
 40
14.87881277901134
100
AcDbArc
 50
333.6201385552914
 51
355.3316394512308
  0
ARC
  5
28F
330
1E
100
AcDbEntity
  8
0
100
AcDbCircle
 10
303.0056243441129
 20
212.388848920863
 30
0.0
 40
27.5262554875826
100
AcDbArc
 50
338.9457640275549
 51
357.003676753175
  0
LINE
  5
290
330
1E
100
AcDbEntity
  8
0
100
AcDbLine
 10
326.1442484448316
 20
202.5
 30
0.0
 11
328.6942484448316
 21
202.5
 31
0.0
  0
LINE
  5
291
330
1E
100
AcDbEntity
  8
0
100
AcDbLine
 10
328.6442484448316
 20
206.1999999999999
 30
0.0
 11
328.6442484448316
 21
206.8499999999999
 31
0.0
  0
LINE
  5
292
330
1E
100
AcDbEntity
  8
0
100
AcDbLine
 10
328.6442484448316
 20
206.8499999999999
 30
0.0
 11
326.1442484448316
 21
206.8499999999999
 31
0.0
  0
LINE
  5
293
330
1E
100
AcDbEntity
  8
0
100
AcDbLine
 10
326.1442484448316
 20
206.1999999999999
 30
0.0
 11
328.6442484448316
 21
206.1999999999999
 31
0.0
  0
ARC
  5
294
330
1E
100
AcDbEntity
  8
0
100
AcDbCircle
 10
330.3257000577348
 20
211.6201612903227
 30
0.0
 40
0.1825682487527802
100
AcDbArc
 50
337.3996035457798
 51
186.3401917459216
  0
ARC
  5
295
330
1E
100
AcDbEntity
  8
0
100
AcDbCircle
 10
338.0749999999999
 20
215.8249999999999
 30
0.0
 40
0.8838834764831924
100
AcDbArc
 50
261.8698976458434
 51
8.130102354159646
  0
LINE
  5
296
330
1E
100
AcDbEntity
  8
2
100
AcDbLine
 10
338.8999999999999
 20
223.0
 30
0.0
 11
333.3999999999999
 21
223.0
 31
0.0
  0
ARC
  5
297
330
1E
100
AcDbEntity
  8
0
100
AcDbCircle
 10
399.644248444831
 20
211.3277777777776
 30
0.0
 40
71.13091955014567
100
AcDbArc
 50
167.519244956757
 51
172.6723886172947
  0
CIRCLE
  5
298
330
1E
100
AcDbEntity
  8
2
100
AcDbCircle
 10
327.4
 20
225.8
 30
0.0
 40
3.0
  0
LINE
  5
299
330
1E
100
AcDbEntity
  8
2
100
AcDbLine
 10
333.3
 20
223.3
 30
0.0
 11
329.1999999999999
 21
223.3
 31
0.0
  0
ARC
  5
29A
330
1E
100
AcDbEntity
  8
0
100
AcDbCircle
 10
328.9002611030594
 20
217.2231012658228
 30
0.0
 40
0.4945272108930645
100
AcDbArc
 50
238.8224542380434
 51
357.3225196336625
  0
ARC
  5
29B
330
1E
100
AcDbEntity
  8
0
100
AcDbCircle
 10
324.024804000388
 20
220.1083333333332
 30
0.0
 40
5.077827923408231
100
AcDbArc
 50
335.4678500473287
 51
3.292839400366953
  0
LINE
  5
29C
330
1E
100
AcDbEntity
  8
0
100
AcDbLine
 10
328.6442484448316
 20
216.8
 30
0.0
 11
328.6442484448316
 21
218.0000000000001
 31
0.0
  0
ARC
  5
29D
330
1E
100
AcDbEntity
  8
0
100
AcDbCircle
 10
354.4081373337069
 20
212.9361111111138
 30
0.0
 40
25.37469971845512
100
AcDbArc
 50
166.4064387419321
 51
170.326293260187
  0
ARC
  5
29E
330
1E
100
AcDbEntity
  8
0
100
AcDbCircle
 10
326.7001307977727
 20
217.4191176470589
 30
0.0
 40
3.794979667236887
100
AcDbArc
 50
346.7607514032541
 51
22.9682774722642
  0
ARC
  5
29F
330
1E
100
AcDbEntity
  8
0
100
AcDbCircle
 10
329.9692484448316
 20
218.875
 30
0.0
 40
0.2263846284534336
100
AcDbArc
 50
6.34019174591786
 51
173.6598082540812
  0
LINE
  5
2A0
330
1E
100
AcDbEntity
  8
0
100
AcDbLine
 10
328.6442484448316
 20
218.0000000000001
 30
0.0
 11
326.1442484448316
 21
218.0000000000001
 31
0.0
  0
LINE
  5
2A1
330
1E
100
AcDbEntity
  8
0
100
AcDbLine
 10
326.1442484448316
 20
216.8
 30
0.0
 11
328.6442484448316
 21
216.8
 31
0.0
  0
LINE
  5
2A2
330
1E
100
AcDbEntity
  8
2
100
AcDbLine
 10
333.3
 20
222.0000000000001
 30
0.0
 11
332.3999999999999
 21
221.0
 31
0.0
  0
LINE
  5
2A3
330
1E
100
AcDbEntity
  8
2
100
AcDbLine
 10
333.1
 20
228.3
 30
0.0
 11
329.1999999999999
 21
228.3
 31
0.0
  0
ARC
  5
2A4
330
1E
100
AcDbEntity
  8
0
100
AcDbCircle
 10
331.2350379185158
 20
232.9460526315788
 30
0.0
 40
2.682662737445884
100
AcDbArc
 50
195.0382209782013
 51
234.9458194189165
  0
ARC
  5
2A5
330
1E
100
AcDbEntity
  8
0
100
AcDbCircle
 10
326.6653649496857
 20
228.3201995685006
 30
0.0
 40
3.883048462752104
100
AcDbArc
 50
335.3389491773802
 51
38.73693234899683
  0
LINE
  5
2A6
330
1E
100
AcDbEntity
  8
0
100
AcDbLine
 10
326.1442484448316
 20
232.25
 30
0.0
 11
328.6442484448316
 21
232.25
 31
0.0
  0
LINE
  5
2A7
330
1E
100
AcDbEntity
  8
0
100
AcDbLine
 10
328.6442484448316
 20
233.95
 30
0.0
 11
326.1442484448316
 21
233.95
 31
0.0
  0
LINE
  5
2A8
330
1E
100
AcDbEntity
  8
0
100
AcDbLine
 10
328.6442484448316
 20
232.25
 30
0.0
 11
328.6442484448316
 21
233.95
 31
0.0
  0
LINE
  5
2A9
330
1E
100
AcDbEntity
  8
2
100
AcDbLine
 10
332.5
 20
232.0
 30
0.0
 11
333.3999999999999
 21
231.0
 31
0.0
  0
ARC
  5
2AA
330
1E
100
AcDbEntity
  8
0
100
AcDbCircle
 10
338.0749999999999
 20
268.175
 30
0.0
 40
0.8838834764831924
100
AcDbArc
 50
351.8698976458403
 51
98.13010235415646
  0
LINE
  5
2AB
330
1E
100
AcDbEntity
  8
0
100
AcDbLine
 10
312.7442484448315
 20
242.0
 30
0.0
 11
312.7442484448315
 21
273.05
 31
0.0
  0
LINE
  5
2AC
330
1E
100
AcDbEntity
  8
0
100
AcDbLine
 10
303.9942484448315
 20
242.0
 30
0.0
 11
303.9942484448315
 21
273.05
 31
0.0
  0
LINE
  5
2AD
330
1E
100
AcDbEntity
  8
1
100
AcDbLine
 10
308.3442484448315
 20
242.0
 30
0.0
 11
308.3442484448315
 21
287.35
 31
0.0
  0
ARC
  5
2AE
330
1E
100
AcDbEntity
  8
0
100
AcDbCircle
 10
379.4646306104417
 20
258.8601114649673
 30
0.0
 40
75.85829350067422
100
AcDbArc
 50
166.0481743541116
 51
173.4981102332056
  0
ARC
  5
2AF
330
1E
100
AcDbEntity
  8
0
100
AcDbCircle
 10
237.2738662792212
 20
258.8601114649673
 30
0.0
 40
75.85829350067422
100
AcDbArc
 50
6.501889766794272
 51
13.95182564588833
  0
ARC
  5
2B0
330
1E
100
AcDbEntity
  8
0
100
AcDbCircle
 10
255.0238662792213
 20
258.8601114649673
 30
0.0
 40
75.85829350067422
100
AcDbArc
 50
6.501889766794272
 51
13.95182564588833
  0
ARC
  5
2B1
330
1E
100
AcDbEntity
  8
0
100
AcDbCircle
 10
397.214630610442
 20
258.8601114649673
 30
0.0
 40
75.85829350067422
100
AcDbArc
 50
166.0481743541116
 51
173.4981102332056
  0
LINE
  5
2B2
330
1E
100
AcDbEntity
  8
1
100
AcDbLine
 10
326.0942484448316
 20
242.0
 30
0.0
 11
326.0942484448316
 21
287.35
 31
0.0
  0
LINE
  5
2B3
330
1E
100
AcDbEntity
  8
0
100
AcDbLine
 10
321.7442484448315
 20
242.0
 30
0.0
 11
321.7442484448315
 21
273.05
 31
0.0
  0
LINE
  5
2B4
330
1E
100
AcDbEntity
  8
0
100
AcDbLine
 10
330.4942484448315
 20
242.0
 30
0.0
 11
330.4942484448315
 21
273.05
 31
0.0
  0
LINE
  5
2B5
330
1E
100
AcDbEntity
  8
2
100
AcDbLine
 10
325.4
 20
255.6999999999999
 30
0.0
 11
317.3999999999999
 21
255.6999999999999
 31
0.0
  0
LINE
  5
2B6
330
1E
100
AcDbEntity
  8
2
100
AcDbLine
 10
325.4
 20
260.6999999999999
 30
0.0
 11
317.3
 21
260.6999999999999
 31
0.0
  0
LINE
  5
2B7
330
1E
100
AcDbEntity
  8
2
100
AcDbLine
 10
332.5
 20
252.0
 30
0.0
 11
322.3999999999999
 21
252.0
 31
0.0
  0
LINE
  5
2B8
330
1E
100
AcDbEntity
  8
2
100
AcDbLine
 10
333.3999999999999
 20
262.9999999999999
 30
0.0
 11
309.3999999999999
 21
262.9999999999999
 31
0.0
  0
LINE
  5
2B9
330
1E
100
AcDbEntity
  8
0
100
AcDbLine
 10
326.0942484448316
 20
267.2
 30
0.0
 11
323.5942484448316
 21
267.2
 31
0.0
  0
LINE
  5
2BA
330
1E
100
AcDbEntity
  8
0
100
AcDbLine
 10
323.5942484448316
 20
266.0
 30
0.0
 11
326.0942484448316
 21
266.0
 31
0.0
  0
LINE
  5
2BB
330
1E
100
AcDbEntity
  8
0
100
AcDbLine
 10
323.5942484448316
 20
250.05
 30
0.0
 11
326.0942484448316
 21
250.05
 31
0.0
  0
LINE
  5
2BC
330
1E
100
AcDbEntity
  8
0
100
AcDbLine
 10
326.0942484448316
 20
251.75
 30
0.0
 11
323.5942484448316
 21
251.75
 31
0.0
  0
LINE
  5
2BD
330
1E
100
AcDbEntity
  8
3
100
AcDbLine
 10
308.1
 20
264.5
 30
0.0
 11
308.1
 21
241.9999999999999
 31
0.0
  0
LINE
  5
2BE
330
1E
100
AcDbEntity
  8
2
100
AcDbLine
 10
309.3999999999999
 20
262.9999999999999
 30
0.0
 11
309.3999999999999
 21
241.9999999999999
 31
0.0
  0
LINE
  5
2BF
330
1E
100
AcDbEntity
  8
2
100
AcDbLine
 10
321.3999999999999
 20
241.9999999999999
 30
0.0
 11
321.3999999999999
 21
262.9999999999999
 31
0.0
  0
LINE
  5
2C0
330
1E
100
AcDbEntity
  8
0
100
AcDbLine
 10
310.8942484448316
 20
251.75
 30
0.0
 11
310.8942484448316
 21
250.05
 31
0.0
  0
LINE
  5
2C1
330
1E
100
AcDbEntity
  8
0
100
AcDbLine
 10
305.8442484448316
 20
251.75
 30
0.0
 11
305.8442484448316
 21
250.05
 31
0.0
  0
LINE
  5
2C2
330
1E
100
AcDbEntity
  8
0
100
AcDbLine
 10
323.5942484448316
 20
251.75
 30
0.0
 11
323.5942484448316
 21
250.05
 31
0.0
  0
ARC
  5
2C3
330
1E
100
AcDbEntity
  8
0
100
AcDbCircle
 10
295.0983024988852
 20
242.5679536679536
 30
0.0
 40
17.70505787312752
100
AcDbArc
 50
339.6122033322223
 51
358.1617155958813
  0
ARC
  5
2C4
330
1E
100
AcDbEntity
  8
0
100
AcDbCircle
 10
295.0983024988852
 20
241.4320463320463
 30
0.0
 40
17.70505787312752
100
AcDbArc
 50
1.838284404118651
 51
20.38779666777757
  0
ARC
  5
2C5
330
1E
100
AcDbEntity
  8
0
100
AcDbCircle
 10
321.6401943907778
 20
241.4320463320463
 30
0.0
 40
17.70505787312752
100
AcDbArc
 50
159.6122033322223
 51
178.1617155958812
  0
ARC
  5
2C6
330
1E
100
AcDbEntity
  8
0
100
AcDbCircle
 10
321.6401943907778
 20
242.5679536679536
 30
0.0
 40
17.70505787312752
100
AcDbArc
 50
181.8382844041185
 51
200.3877966677775
  0
ARC
  5
2C7
330
1E
100
AcDbEntity
  8
0
100
AcDbCircle
 10
298.4345262226105
 20
251.1138888888885
 30
0.0
 40
7.485709250189835
100
AcDbArc
 50
332.0038031702254
 51
351.8293060636762
  0
LINE
  5
2C8
330
1E
100
AcDbEntity
  8
0
100
AcDbLine
 10
305.8442484448316
 20
250.05
 30
0.0
 11
308.3442484448315
 21
250.05
 31
0.0
  0
ARC
  5
2C9
330
1E
100
AcDbEntity
  8
0
100
AcDbCircle
 10
318.3039706670526
 20
251.1138888888885
 30
0.0
 40
7.485709250189835
100
AcDbArc
 50
188.1706939363236
 51
207.9961968297744
  0
LINE
  5
2CA
330
1E
100
AcDbEntity
  8
0
100
AcDbLine
 10
310.8942484448316
 20
250.05
 30
0.0
 11
308.3942484448316
 21
250.05
 31
0.0
  0
ARC
  5
2CB
330
1E
100
AcDbEntity
  8
0
100
AcDbCircle
 10
339.3901943907779
 20
241.4320463320463
 30
0.0
 40
17.70505787312752
100
AcDbArc
 50
159.6122033322223
 51
178.1617155958812
  0
ARC
  5
2CC
330
1E
100
AcDbEntity
  8
0
100
AcDbCircle
 10
339.3901943907779
 20
242.5679536679536
 30
0.0
 40
17.70505787312752
100
AcDbArc
 50
181.8382844041185
 51
200.3877966677775
  0
ARC
  5
2CD
330
1E
100
AcDbEntity
  8
0
100
AcDbCircle
 10
316.1845262226105
 20
251.1138888888885
 30
0.0
 40
7.485709250189835
100
AcDbArc
 50
332.0038031702254
 51
351.8293060636762
  0
LINE
  5
2CE
330
1E
100
AcDbEntity
  8
2
100
AcDbLine
 10
313.3
 20
255.6999999999999
 30
0.0
 11
309.6
 21
255.6999999999999
 31
0.0
  0
LINE
  5
2CF
330
1E
100
AcDbEntity
  8
2
100
AcDbLine
 10
313.5
 20
260.6999999999999
 30
0.0
 11
309.6999999999999
 21
260.6999999999999
 31
0.0
  0
LINE
  5
2D0
330
1E
100
AcDbEntity
  8
2
100
AcDbLine
 10
320.3999999999999
 20
252.0
 30
0.0
 11
310.3999999999999
 21
252.0
 31
0.0
  0
ARC
  5
2D1
330
1E
100
AcDbEntity
  8
0
100
AcDbCircle
 10
311.1502611030593
 20
266.7768987341771
 30
0.0
 40
0.4945272108930645
100
AcDbArc
 50
2.677480366337352
 51
121.1775457619564
  0
ARC
  5
2D2
330
1E
100
AcDbEntity
  8
0
100
AcDbCircle
 10
336.6581373337069
 20
271.0638888888861
 30
0.0
 40
25.37469971845512
100
AcDbArc
 50
189.6737067398128
 51
193.5935612580678
  0
ARC
  5
2D3
330
1E
100
AcDbEntity
  8
0
100
AcDbCircle
 10
313.4850379185157
 20
251.0539473684211
 30
0.0
 40
2.682662737445884
100
AcDbArc
 50
125.0541805810832
 51
164.9617790217984
  0
ARC
  5
2D4
330
1E
100
AcDbEntity
  8
0
100
AcDbCircle
 10
381.8942484448308
 20
272.6722222222223
 30
0.0
 40
71.13091955014567
100
AcDbArc
 50
187.3276113827051
 51
192.4807550432429
  0
ARC
  5
2D5
330
1E
100
AcDbEntity
  8
0
100
AcDbCircle
 10
234.8442484448322
 20
272.6722222222223
 30
0.0
 40
71.13091955014567
100
AcDbArc
 50
347.5192449567569
 51
352.6723886172947
  0
ARC
  5
2D6
330
1E
100
AcDbEntity
  8
0
100
AcDbCircle
 10
303.2534589711473
 20
251.0539473684211
 30
0.0
 40
2.682662737445884
100
AcDbArc
 50
15.03822097820146
 51
54.94581941891668
  0
LINE
  5
2D7
330
1E
100
AcDbEntity
  8
0
100
AcDbLine
 10
308.3442484448315
 20
251.75
 30
0.0
 11
305.8442484448316
 21
251.75
 31
0.0
  0
ARC
  5
2D8
330
1E
100
AcDbEntity
  8
0
100
AcDbCircle
 10
307.8231319399772
 20
255.6798004314994
 30
0.0
 40
3.883048462752104
100
AcDbArc
 50
155.3389491773753
 51
218.7369323489968
  0
LINE
  5
2D9
330
1E
100
AcDbEntity
  8
2
100
AcDbLine
 10
310.3999999999999
 20
252.0
 30
0.0
 11
309.3999999999999
 21
253.0
 31
0.0
  0
LINE
  5
2DA
330
1E
100
AcDbEntity
  8
0
100
AcDbLine
 10
308.3942484448316
 20
251.75
 30
0.0
 11
310.8942484448316
 21
251.75
 31
0.0
  0
LINE
  5
2DB
330
1E
100
AcDbEntity
  8
2
100
AcDbLine
 10
307.8999999999999
 20
262.9999999999999
 30
0.0
 11
305.0
 21
262.9999999999999
 31
0.0
  0
LINE
  5
2DC
330
1E
100
AcDbEntity
  8
0
100
AcDbLine
 10
305.8442484448316
 20
266.0
 30
0.0
 11
308.3442484448315
 21
266.0
 31
0.0
  0
LINE
  5
2DD
330
1E
100
AcDbEntity
  8
0
100
AcDbLine
 10
308.3442484448315
 20
267.2
 30
0.0
 11
305.8442484448316
 21
267.2
 31
0.0
  0
ARC
  5
2DE
330
1E
100
AcDbEntity
  8
0
100
AcDbCircle
 10
280.0803595559561
 20
271.0638888888861
 30
0.0
 40
25.37469971845512
100
AcDbArc
 50
346.4064387419322
 51
350.326293260187
  0
ARC
  5
2DF
330
1E
100
AcDbEntity
  8
0
100
AcDbCircle
 10
305.5882357866037
 20
266.7768987341771
 30
0.0
 40
0.4945272108930645
100
AcDbArc
 50
58.8224542380436
 51
177.3225196336626
  0
ARC
  5
2E0
330
1E
100
AcDbEntity
  8
0
100
AcDbCircle
 10
307.7883660918905
 20
266.5808823529411
 30
0.0
 40
3.794979667236887
100
AcDbArc
 50
166.7607514032543
 51
202.9682774722652
  0
ARC
  5
2E1
330
1E
100
AcDbEntity
  8
0
100
AcDbCircle
 10
304.5192484448315
 20
265.125
 30
0.0
 40
0.2263846284534336
100
AcDbArc
 50
186.3401917459177
 51
353.6598082540813
  0
ARC
  5
2E2
330
1E
100
AcDbEntity
  8
0
100
AcDbCircle
 10
310.4636928892752
 20
263.8916666666669
 30
0.0
 40
5.077827923408231
100
AcDbArc
 50
155.4678500473245
 51
183.2928394003668
  0
LINE
  5
2E3
330
1E
100
AcDbEntity
  8
0
100
AcDbLine
 10
305.8442484448316
 20
267.2
 30
0.0
 11
305.8442484448316
 21
266.0
 31
0.0
  0
LINE
  5
2E4
330
1E
100
AcDbEntity
  8
2
100
AcDbLine
 10
309.3999999999999
 20
262.0
 30
0.0
 11
310.3999999999999
 21
262.9999999999999
 31
0.0
  0
LINE
  5
2E5
330
1E
100
AcDbEntity
  8
2
100
AcDbLine
 10
307.8999999999999
 20
264.5
 30
0.0
 11
307.8999999999999
 21
262.9999999999999
 31
0.0
  0
LINE
  5
2E6
330
1E
100
AcDbEntity
  8
2
100
AcDbLine
 10
309.3999999999999
 20
264.5
 30
0.0
 11
307.8999999999999
 21
264.5
 31
0.0
  0
LINE
  5
2E7
330
1E
100
AcDbEntity
  8
2
100
AcDbLine
 10
309.3999999999999
 20
262.9999999999999
 30
0.0
 11
309.3999999999999
 21
264.5
 31
0.0
  0
ARC
  5
2E8
330
1E
100
AcDbEntity
  8
0
100
AcDbCircle
 10
306.2748040003879
 20
263.8916666666669
 30
0.0
 40
5.077827923408231
100
AcDbArc
 50
356.707160599633
 51
24.5321499526733
  0
LINE
  5
2E9
330
1E
100
AcDbEntity
  8
0
100
AcDbLine
 10
310.8942484448316
 20
267.2
 30
0.0
 11
310.8942484448316
 21
266.0
 31
0.0
  0
LINE
  5
2EA
330
1E
100
AcDbEntity
  8
0
100
AcDbLine
 10
310.8942484448316
 20
266.0
 30
0.0
 11
308.3942484448316
 21
266.0
 31
0.0
  0
LINE
  5
2EB
330
1E
100
AcDbEntity
  8
0
100
AcDbLine
 10
308.3942484448316
 20
267.2
 30
0.0
 11
310.8942484448316
 21
267.2
 31
0.0
  0
CIRCLE
  5
2EC
330
1E
100
AcDbEntity
  8
2
100
AcDbCircle
 10
315.3999999999999
 20
258.1999999999999
 30
0.0
 40
3.0
  0
ARC
  5
2ED
330
1E
100
AcDbEntity
  8
0
100
AcDbCircle
 10
252.5942484448322
 20
272.6722222222223
 30
0.0
 40
71.13091955014567
100
AcDbArc
 50
347.5192449567569
 51
352.6723886172947
  0
ARC
  5
2EE
330
1E
100
AcDbEntity
  8
0
100
AcDbCircle
 10
308.9153649496858
 20
255.6798004314994
 30
0.0
 40
3.883048462752104
100
AcDbArc
 50
321.263067651003
 51
24.66105082262221
  0
LINE
  5
2EF
330
1E
100
AcDbEntity
  8
2
100
AcDbLine
 10
321.3999999999999
 20
253.0
 30
0.0
 11
320.3999999999999
 21
252.0
 31
0.0
  0
LINE
  5
2F0
330
1E
100
AcDbEntity
  8
2
100
AcDbLine
 10
322.3999999999999
 20
252.0
 30
0.0
 11
321.3999999999999
 21
253.0
 31
0.0
  0
ARC
  5
2F1
330
1E
100
AcDbEntity
  8
0
100
AcDbCircle
 10
325.5731319399772
 20
255.6798004314994
 30
0.0
 40
3.883048462752104
100
AcDbArc
 50
155.3389491773753
 51
218.7369323489968
  0
ARC
  5
2F2
330
1E
100
AcDbEntity
  8
0
100
AcDbCircle
 10
321.0034589711474
 20
251.0539473684211
 30
0.0
 40
2.682662737445884
100
AcDbArc
 50
15.03822097820146
 51
54.94581941891668
  0
LINE
  5
2F3
330
1E
100
AcDbEntity
  8
0
100
AcDbLine
 10
321.75
 20
269.05
 30
0.0
 11
312.7499999999999
 21
269.05
 31
0.0
  0
ARC
  5
2F4
330
1E
100
AcDbEntity
  8
0
100
AcDbCircle
 10
308.9501307977726
 20
266.5808823529411
 30
0.0
 40
3.794979667236887
100
AcDbArc
 50
337.0317225277351
 51
13.23924859674572
  0
ARC
  5
2F5
330
1E
100
AcDbEntity
  8
0
100
AcDbCircle
 10
312.2192484448315
 20
265.125
 30
0.0
 40
0.2263846284534336
100
AcDbArc
 50
186.3401917459185
 51
353.659808254082
  0
LINE
  5
2F6
330
1E
100
AcDbEntity
  8
2
100
AcDbLine
 10
321.3999999999999
 20
262.0
 30
0.0
 11
322.5
 21
262.9999999999999
 31
0.0
  0
LINE
  5
2F7
330
1E
100
AcDbEntity
  8
2
100
AcDbLine
 10
321.3999999999999
 20
262.0
 30
0.0
 11
320.5
 21
262.9999999999999
 31
0.0
  0
LINE
  5
2F8
330
1E
100
AcDbEntity
  8
0
100
AcDbLine
 10
323.5942484448316
 20
267.2
 30
0.0
 11
323.5942484448316
 21
266.0
 31
0.0
  0
ARC
  5
2F9
330
1E
100
AcDbEntity
  8
0
100
AcDbCircle
 10
328.2136928892752
 20
263.8916666666669
 30
0.0
 40
5.077827923408231
100
AcDbArc
 50
155.4678500473245
 51
183.2928394003668
  0
ARC
  5
2FA
330
1E
100
AcDbEntity
  8
0
100
AcDbCircle
 10
322.2692484448316
 20
265.125
 30
0.0
 40
0.2263846284534336
100
AcDbArc
 50
186.3401917459177
 51
353.6598082540813
  0
ARC
  5
2FB
330
1E
100
AcDbEntity
  8
0
100
AcDbCircle
 10
325.5383660918906
 20
266.5808823529411
 30
0.0
 40
3.794979667236887
100
AcDbArc
 50
166.7607514032543
 51
202.9682774722652
  0
ARC
  5
2FC
330
1E
100
AcDbEntity
  8
0
100
AcDbCircle
 10
323.3382357866037
 20
266.7768987341771
 30
0.0
 40
0.4945272108930645
100
AcDbArc
 50
58.8224542380436
 51
177.3225196336626
  0
ARC
  5
2FD
330
1E
100
AcDbEntity
  8
0
100
AcDbCircle
 10
297.8303595559562
 20
271.0638888888861
 30
0.0
 40
25.37469971845512
100
AcDbArc
 50
346.4064387419322
 51
350.326293260187
  0
LINE
  5
2FE
330
1E
100
AcDbEntity
  8
2
100
AcDbLine
 10
333.3999999999999
 20
241.9999999999999
 30
0.0
 11
333.3999999999999
 21
262.9999999999999
 31
0.0
  0
LINE
  5
2FF
330
1E
100
AcDbEntity
  8
0
100
AcDbLine
 10
338.9499999999999
 20
242.05
 30
0.0
 11
338.9499999999999
 21
268.05
 31
0.0
  0
LINE
  5
300
330
1E
100
AcDbEntity
  8
0
100
AcDbLine
 10
328.6442484448316
 20
251.75
 30
0.0
 11
328.6442484448316
 21
250.05
 31
0.0
  0
ARC
  5
301
330
1E
100
AcDbEntity
  8
0
100
AcDbCircle
 10
312.8483024988852
 20
241.4320463320463
 30
0.0
 40
17.70505787312752
100
AcDbArc
 50
1.838284404118651
 51
20.38779666777757
  0
ARC
  5
302
330
1E
100
AcDbEntity
  8
0
100
AcDbCircle
 10
312.8483024988852
 20
242.5679536679536
 30
0.0
 40
17.70505787312752
100
AcDbArc
 50
339.6122033322223
 51
358.1617155958813
  0
LINE
  5
303
330
1E
100
AcDbEntity
  8
0
100
AcDbLine
 10
328.6442484448316
 20
250.05
 30
0.0
 11
326.1442484448316
 21
250.05
 31
0.0
  0
ARC
  5
304
330
1E
100
AcDbEntity
  8
0
100
AcDbCircle
 10
336.0539706670528
 20
251.1138888888885
 30
0.0
 40
7.485709250189835
100
AcDbArc
 50
188.1706939363236
 51
207.9961968297744
  0
LINE
  5
305
330
1E
100
AcDbEntity
  8
2
100
AcDbLine
 10
338.8999999999999
 20
260.9999999999998
 30
0.0
 11
333.3999999999999
 21
260.9999999999998
 31
0.0
  0
LINE
  5
306
330
1E
100
AcDbEntity
  8
0
100
AcDbLine
 10
337.95
 20
269.05
 30
0.0
 11
330.45
 21
269.05
 31
0.0
  0
CIRCLE
  5
307
330
1E
100
AcDbEntity
  8
2
100
AcDbCircle
 10
327.4
 20
258.1999999999999
 30
0.0
 40
3.0
  0
ARC
  5
308
330
1E
100
AcDbEntity
  8
0
100
AcDbCircle
 10
399.644248444831
 20
272.6722222222223
 30
0.0
 40
71.13091955014567
100
AcDbArc
 50
187.3276113827051
 51
192.4807550432429
  0
LINE
  5
309
330
1E
100
AcDbEntity
  8
2
100
AcDbLine
 10
333.1
 20
255.6999999999999
 30
0.0
 11
329.1999999999999
 21
255.6999999999999
 31
0.0
  0
LINE
  5
30A
330
1E
100
AcDbEntity
  8
0
100
AcDbLine
 10
326.1442484448316
 20
251.75
 30
0.0
 11
328.6442484448316
 21
251.75
 31
0.0
  0
ARC
  5
30B
330
1E
100
AcDbEntity
  8
0
100
AcDbCircle
 10
326.6653649496857
 20
255.6798004314994
 30
0.0
 40
3.883048462752104
100
AcDbArc
 50
321.263067651003
 51
24.66105082262221
  0
ARC
  5
30C
330
1E
100
AcDbEntity
  8
0
100
AcDbCircle
 10
331.2350379185158
 20
251.0539473684211
 30
0.0
 40
2.682662737445884
100
AcDbArc
 50
125.0541805810832
 51
164.9617790217984
  0
LINE
  5
30D
330
1E
100
AcDbEntity
  8
2
100
AcDbLine
 10
332.5
 20
252.0
 30
0.0
 11
333.3999999999999
 21
253.0
 31
0.0
  0
LINE
  5
30E
330
1E
100
AcDbEntity
  8
2
100
AcDbLine
 10
333.3
 20
260.6999999999999
 30
0.0
 11
329.1999999999999
 21
260.6999999999999
 31
0.0
  0
LINE
  5
30F
330
1E
100
AcDbEntity
  8
0
100
AcDbLine
 10
326.1442484448316
 20
267.2
 30
0.0
 11
328.6442484448316
 21
267.2
 31
0.0
  0
LINE
  5
310
330
1E
100
AcDbEntity
  8
0
100
AcDbLine
 10
328.6442484448316
 20
266.0
 30
0.0
 11
326.1442484448316
 21
266.0
 31
0.0
  0
ARC
  5
311
330
1E
100
AcDbEntity
  8
0
100
AcDbCircle
 10
329.9692484448316
 20
265.125
 30
0.0
 40
0.2263846284534336
100
AcDbArc
 50
186.3401917459185
 51
353.659808254082
  0
ARC
  5
312
330
1E
100
AcDbEntity
  8
0
100
AcDbCircle
 10
326.7001307977727
 20
266.5808823529411
 30
0.0
 40
3.794979667236887
100
AcDbArc
 50
337.0317225277351
 51
13.23924859674572
  0
ARC
  5
313
330
1E
100
AcDbEntity
  8
0
100
AcDbCircle
 10
354.4081373337069
 20
271.0638888888861
 30
0.0
 40
25.37469971845512
100
AcDbArc
 50
189.6737067398128
 51
193.5935612580678
  0
LINE
  5
314
330
1E
100
AcDbEntity
  8
0
100
AcDbLine
 10
328.6442484448316
 20
267.2
 30
0.0
 11
328.6442484448316
 21
266.0
 31
0.0
  0
ARC
  5
315
330
1E
100
AcDbEntity
  8
0
100
AcDbCircle
 10
324.024804000388
 20
263.8916666666669
 30
0.0
 40
5.077827923408231
100
AcDbArc
 50
356.707160599633
 51
24.5321499526733
  0
ARC
  5
316
330
1E
100
AcDbEntity
  8
0
100
AcDbCircle
 10
328.9002611030594
 20
266.7768987341771
 30
0.0
 40
0.4945272108930645
100
AcDbArc
 50
2.677480366337352
 51
121.1775457619564
  0
LINE
  5
317
330
1E
100
AcDbEntity
  8
2
100
AcDbLine
 10
333.3
 20
262.0
 30
0.0
 11
332.3999999999999
 21
262.9999999999999
 31
0.0
  0
LINE
  5
318
330
1E
100
AcDbEntity
  8
0
100
AcDbLine
 10
326.0942484448316
 20
281.4999999999999
 30
0.0
 11
323.5442484448316
 21
281.4999999999999
 31
0.0
  0
LINE
  5
319
330
1E
100
AcDbEntity
  8
0
100
AcDbLine
 10
326.0942484448316
 20
277.8
 30
0.0
 11
323.5942484448316
 21
277.8
 31
0.0
  0
LINE
  5
31A
330
1E
100
AcDbEntity
  8
0
100
AcDbLine
 10
323.5942484448316
 20
277.1499999999999
 30
0.0
 11
326.0942484448316
 21
277.1499999999999
 31
0.0
  0
ARC
  5
31B
330
1E
100
AcDbEntity
  8
0
100
AcDbCircle
 10
297.5647963900377
 20
271.1890410958906
 30
0.0
 40
14.87881277901134
100
AcDbArc
 50
4.668360548769234
 51
26.37986144471872
  0
ARC
  5
31C
330
1E
100
AcDbEntity
  8
0
100
AcDbCircle
 10
285.255624344113
 20
271.611151079137
 30
0.0
 40
27.5262554875826
100
AcDbArc
 50
2.996323246825019
 51
21.05423597244519
  0
ARC
  5
31D
330
1E
100
AcDbEntity
  8
0
100
AcDbCircle
 10
331.48287254555
 20
271.611151079137
 30
0.0
 40
27.5262554875826
100
AcDbArc
 50
158.9457640275546
 51
177.0036767531748
  0
LINE
  5
31E
330
1E
100
AcDbEntity
  8
0
100
AcDbLine
 10
305.8442484448316
 20
277.1499999999999
 30
0.0
 11
308.3442484448315
 21
277.1499999999999
 31
0.0
  0
LINE
  5
31F
330
1E
100
AcDbEntity
  8
0
100
AcDbLine
 10
308.3442484448315
 20
277.8
 30
0.0
 11
305.8442484448316
 21
277.8
 31
0.0
  0
LINE
  5
320
330
1E
100
AcDbEntity
  8
0
100
AcDbLine
 10
305.8442484448316
 20
277.8
 30
0.0
 11
305.8442484448316
 21
277.1499999999999
 31
0.0
  0
ARC
  5
321
330
1E
100
AcDbEntity
  8
0
100
AcDbCircle
 10
319.1737004996252
 20
271.1890410958906
 30
0.0
 40
14.87881277901134
100
AcDbArc
 50
153.6201385552709
 51
175.3316394512307
  0
ARC
  5
322
330
1E
100
AcDbEntity
  8
0
100
AcDbCircle
 10
304.1627968319282
 20
272.3798387096774
 30
0.0
 40
0.1825682487527802
100
AcDbArc
 50
157.399603545779
 51
6.340191745921748
  0
LINE
  5
323
330
1E
100
AcDbEntity
  8
0
100
AcDbLine
 10
310.8942484448316
 20
277.8
 30
0.0
 11
310.8942484448316
 21
277.1499999999999
 31
0.0
  0
LINE
  5
324
330
1E
100
AcDbEntity
  8
0
100
AcDbLine
 10
310.8942484448316
 20
277.1499999999999
 30
0.0
 11
308.3942484448316
 21
277.1499999999999
 31
0.0
  0
LINE
  5
325
330
1E
100
AcDbEntity
  8
0
100
AcDbLine
 10
308.3942484448316
 20
277.8
 30
0.0
 11
310.8942484448316
 21
277.8
 31
0.0
  0
LINE
  5
326
330
1E
100
AcDbEntity
  8
0
100
AcDbLine
 10
308.3442484448315
 20
281.4999999999999
 30
0.0
 11
305.7942484448314
 21
281.4999999999999
 31
0.0
  0
LINE
  5
327
330
1E
100
AcDbEntity
  8
0
100
AcDbLine
 10
308.3942484448316
 20
281.4999999999999
 30
0.0
 11
310.9442484448316
 21
281.4999999999999
 31
0.0
  0
ARC
  5
328
330
1E
100
AcDbEntity
  8
0
100
AcDbCircle
 10
349.2328725455501
 20
271.611151079137
 30
0.0
 40
27.5262554875826
100
AcDbArc
 50
158.9457640275546
 51
177.0036767531748
  0
ARC
  5
329
330
1E
100
AcDbEntity
  8
0
100
AcDbCircle
 10
312.5757000577348
 20
272.3798387096774
 30
0.0
 40
0.1825682487527802
100
AcDbArc
 50
173.6598082540781
 51
22.60039645422045
  0
ARC
  5
32A
330
1E
100
AcDbEntity
  8
0
100
AcDbCircle
 10
321.9127968319283
 20
272.3798387096774
 30
0.0
 40
0.1825682487527802
100
AcDbArc
 50
157.399603545779
 51
6.340191745921748
  0
ARC
  5
32B
330
1E
100
AcDbEntity
  8
0
100
AcDbCircle
 10
336.9237004996254
 20
271.1890410958906
 30
0.0
 40
14.87881277901134
100
AcDbArc
 50
153.6201385552709
 51
175.3316394512307
  0
LINE
  5
32C
330
1E
100
AcDbEntity
  8
0
100
AcDbLine
 10
323.5942484448316
 20
277.8
 30
0.0
 11
323.5942484448316
 21
277.1499999999999
 31
0.0
  0
ARC
  5
32D
330
1E
100
AcDbEntity
  8
0
100
AcDbCircle
 10
303.0056243441129
 20
271.611151079137
 30
0.0
 40
27.5262554875826
100
AcDbArc
 50
2.996323246825019
 51
21.05423597244519
  0
LINE
  5
32E
330
1E
100
AcDbEntity
  8
0
100
AcDbLine
 10
326.1442484448316
 20
277.8
 30
0.0
 11
328.6442484448316
 21
277.8
 31
0.0
  0
LINE
  5
32F
330
1E
100
AcDbEntity
  8
0
100
AcDbLine
 10
328.6442484448316
 20
277.1499999999999
 30
0.0
 11
326.1442484448316
 21
277.1499999999999
 31
0.0
  0
ARC
  5
330
330
1E
100
AcDbEntity
  8
0
100
AcDbCircle
 10
330.3257000577348
 20
272.3798387096774
 30
0.0
 40
0.1825682487527802
100
AcDbArc
 50
173.6598082540781
 51
22.60039645422045
  0
ARC
  5
331
330
1E
100
AcDbEntity
  8
0
100
AcDbCircle
 10
315.3147963900376
 20
271.1890410958906
 30
0.0
 40
14.87881277901134
100
AcDbArc
 50
4.668360548769234
 51
26.37986144471872
  0
LINE
  5
332
330
1E
100
AcDbEntity
  8
0
100
AcDbLine
 10
328.6442484448316
 20
277.8
 30
0.0
 11
328.6442484448316
 21
277.1499999999999
 31
0.0
  0
LINE
  5
333
330
1E
100
AcDbEntity
  8
0
100
AcDbLine
 10
326.1442484448316
 20
281.4999999999999
 30
0.0
 11
328.6942484448316
 21
281.4999999999999
 31
0.0
  0
LINE
  5
334
330
1E
100
AcDbEntity
  8
1
100
AcDbLine
 10
345.1499999999999
 20
83.75
 30
0.0
 11
299.3
 21
83.75
 31
0.0
  0
ARC
  5
335
330
1E
100
AcDbEntity
  8
0
100
AcDbCircle
 10
336.0539706670528
 20
74.68611111111136
 30
0.0
 40
7.485709250189835
100
AcDbArc
 50
152.0038031702255
 51
171.8293060636762
  0
LINE
  5
336
330
1E
100
AcDbEntity
  8
0
100
AcDbLine
 10
338.9499999999999
 20
83.75
 30
0.0
 11
338.9499999999999
 21
57.75000000000005
 31
0.0
  0
LINE
  5
337
330
1E
100
AcDbEntity
  8
2
100
AcDbLine
 10
333.3999999999999
 20
83.79999999999999
 30
0.0
 11
333.3999999999999
 21
62.80000000000007
 31
0.0
  0
ARC
  5
338
330
1E
100
AcDbEntity
  8
0
100
AcDbCircle
 10
316.1845262226105
 20
74.68611111111136
 30
0.0
 40
7.485709250189835
100
AcDbArc
 50
8.170693936323765
 51
27.99619682977445
  0
ARC
  5
339
330
1E
100
AcDbEntity
  8
0
100
AcDbCircle
 10
318.3039706670526
 20
74.68611111111136
 30
0.0
 40
7.485709250189835
100
AcDbArc
 50
152.0038031702255
 51
171.8293060636762
  0
ARC
  5
33A
330
1E
100
AcDbEntity
  8
0
100
AcDbCircle
 10
298.4345262226105
 20
74.68611111111136
 30
0.0
 40
7.485709250189835
100
AcDbArc
 50
8.170693936323765
 51
27.99619682977445
  0
LINE
  5
33B
330
1E
100
AcDbEntity
  8
2
100
AcDbLine
 10
321.3999999999999
 20
83.79999999999999
 30
0.0
 11
321.3999999999999
 21
62.80000000000007
 31
0.0
  0
LINE
  5
33C
330
1E
100
AcDbEntity
  8
2
100
AcDbLine
 10
309.3999999999999
 20
62.80000000000007
 30
0.0
 11
309.3999999999999
 21
83.79999999999999
 31
0.0
  0
LINE
  5
33D
330
1E
100
AcDbEntity
  8
3
100
AcDbLine
 10
308.1
 20
61.30000000000006
 30
0.0
 11
308.1
 21
83.79999999999999
 31
0.0
  0
LINE
  5
33E
330
1E
100
AcDbEntity
  8
0
100
AcDbLine
 10
330.4942484448315
 20
83.79999999999995
 30
0.0
 11
330.4942484448315
 21
52.75
 31
0.0
  0
LINE
  5
33F
330
1E
100
AcDbEntity
  8
0
100
AcDbLine
 10
321.7442484448315
 20
83.79999999999995
 30
0.0
 11
321.7442484448315
 21
52.75
 31
0.0
  0
LINE
  5
340
330
1E
100
AcDbEntity
  8
1
100
AcDbLine
 10
308.3442484448315
 20
83.79999999999995
 30
0.0
 11
308.3442484448315
 21
38.45000000000004
 31
0.0
  0
LINE
  5
341
330
1E
100
AcDbEntity
  8
0
100
AcDbLine
 10
303.9942484448315
 20
83.79999999999995
 30
0.0
 11
303.9942484448315
 21
52.75
 31
0.0
  0
LINE
  5
342
330
1E
100
AcDbEntity
  8
0
100
AcDbLine
 10
312.7442484448315
 20
83.79999999999995
 30
0.0
 11
312.7442484448315
 21
52.75
 31
0.0
  0
LINE
  5
343
330
1E
100
AcDbEntity
  8
1
100
AcDbLine
 10
326.0942484448316
 20
83.90000000000004
 30
0.0
 11
326.0942484448316
 21
38.55000000000001
 31
0.0
  0
LINE
  5
344
330
1E
100
AcDbEntity
  8
0
100
AcDbLine
 10
323.5942484448316
 20
48.64999999999998
 30
0.0
 11
326.0942484448316
 21
48.64999999999998
 31
0.0
  0
LINE
  5
345
330
1E
100
AcDbEntity
  8
0
100
AcDbLine
 10
326.0942484448316
 20
48.0
 30
0.0
 11
323.5942484448316
 21
48.0
 31
0.0
  0
LINE
  5
346
330
1E
100
AcDbEntity
  8
0
100
AcDbLine
 10
326.0942484448316
 20
44.30000000000006
 30
0.0
 11
323.5442484448316
 21
44.30000000000006
 31
0.0
  0
LINE
  5
347
330
1E
100
AcDbEntity
  8
0
100
AcDbLine
 10
326.0942484448316
 20
74.04999999999995
 30
0.0
 11
323.5942484448316
 21
74.04999999999995
 31
0.0
  0
LINE
  5
348
330
1E
100
AcDbEntity
  8
0
100
AcDbLine
 10
323.5942484448316
 20
75.74999999999993
 30
0.0
 11
326.0942484448316
 21
75.74999999999993
 31
0.0
  0
LINE
  5
349
330
1E
100
AcDbEntity
  8
0
100
AcDbLine
 10
323.5942484448316
 20
59.80000000000007
 30
0.0
 11
326.0942484448316
 21
59.80000000000007
 31
0.0
  0
LINE
  5
34A
330
1E
100
AcDbEntity
  8
0
100
AcDbLine
 10
326.0942484448316
 20
58.60000000000002
 30
0.0
 11
323.5942484448316
 21
58.60000000000002
 31
0.0
  0
LINE
  5
34B
330
1E
100
AcDbEntity
  8
2
100
AcDbLine
 10
333.3999999999999
 20
62.80000000000007
 30
0.0
 11
309.3999999999999
 21
62.80000000000007
 31
0.0
  0
LINE
  5
34C
330
1E
100
AcDbEntity
  8
2
100
AcDbLine
 10
332.5
 20
73.80000000000002
 30
0.0
 11
322.3999999999999
 21
73.80000000000002
 31
0.0
  0
LINE
  5
34D
330
1E
100
AcDbEntity
  8
2
100
AcDbLine
 10
325.4
 20
65.10000000000002
 30
0.0
 11
317.3
 21
65.10000000000002
 31
0.0
  0
LINE
  5
34E
330
1E
100
AcDbEntity
  8
2
100
AcDbLine
 10
325.4
 20
70.10000000000002
 30
0.0
 11
317.3999999999999
 21
70.10000000000002
 31
0.0
  0
ARC
  5
34F
330
1E
100
AcDbEntity
  8
0
100
AcDbCircle
 10
397.214630610442
 20
66.93988853503277
 30
0.0
 40
75.85829350067422
100
AcDbArc
 50
186.5018897667941
 51
193.9518256458883
  0
ARC
  5
350
330
1E
100
AcDbEntity
  8
0
100
AcDbCircle
 10
237.2738662792212
 20
66.93988853503277
 30
0.0
 40
75.85829350067422
100
AcDbArc
 50
346.0481743541116
 51
353.4981102332057
  0
ARC
  5
351
330
1E
100
AcDbEntity
  8
0
100
AcDbCircle
 10
379.4646306104417
 20
66.93988853503277
 30
0.0
 40
75.85829350067422
100
AcDbArc
 50
186.5018897667941
 51
193.9518256458883
  0
ARC
  5
352
330
1E
100
AcDbEntity
  8
0
100
AcDbCircle
 10
285.255624344113
 20
54.18884892086304
 30
0.0
 40
27.5262554875826
100
AcDbArc
 50
338.9457640275549
 51
357.003676753175
  0
ARC
  5
353
330
1E
100
AcDbEntity
  8
0
100
AcDbCircle
 10
297.5647963900377
 20
54.61095890410945
 30
0.0
 40
14.87881277901134
100
AcDbArc
 50
333.6201385552914
 51
355.3316394512308
  0
ARC
  5
354
330
1E
100
AcDbEntity
  8
0
100
AcDbCircle
 10
319.1737004996252
 20
54.61095890410945
 30
0.0
 40
14.87881277901134
100
AcDbArc
 50
184.6683605487691
 51
206.3798614447187
  0
ARC
  5
355
330
1E
100
AcDbEntity
  8
0
100
AcDbCircle
 10
331.48287254555
 20
54.18884892086304
 30
0.0
 40
27.5262554875826
100
AcDbArc
 50
182.996323246825
 51
201.0542359724451
  0
LINE
  5
356
330
1E
100
AcDbEntity
  8
0
100
AcDbLine
 10
308.3442484448315
 20
44.30000000000006
 30
0.0
 11
305.7942484448314
 21
44.30000000000006
 31
0.0
  0
LINE
  5
357
330
1E
100
AcDbEntity
  8
0
100
AcDbLine
 10
308.3442484448315
 20
48.0
 30
0.0
 11
305.8442484448316
 21
48.0
 31
0.0
  0
LINE
  5
358
330
1E
100
AcDbEntity
  8
0
100
AcDbLine
 10
305.8442484448316
 20
48.64999999999998
 30
0.0
 11
308.3442484448315
 21
48.64999999999998
 31
0.0
  0
LINE
  5
359
330
1E
100
AcDbEntity
  8
0
100
AcDbLine
 10
305.8442484448316
 20
48.0
 30
0.0
 11
305.8442484448316
 21
48.64999999999998
 31
0.0
  0
LINE
  5
35A
330
1E
100
AcDbEntity
  8
0
100
AcDbLine
 10
308.3942484448316
 20
44.30000000000006
 30
0.0
 11
310.9442484448316
 21
44.30000000000006
 31
0.0
  0
LINE
  5
35B
330
1E
100
AcDbEntity
  8
0
100
AcDbLine
 10
308.3942484448316
 20
48.0
 30
0.0
 11
310.8942484448316
 21
48.0
 31
0.0
  0
LINE
  5
35C
330
1E
100
AcDbEntity
  8
0
100
AcDbLine
 10
310.8942484448316
 20
48.64999999999998
 30
0.0
 11
308.3942484448316
 21
48.64999999999998
 31
0.0
  0
LINE
  5
35D
330
1E
100
AcDbEntity
  8
0
100
AcDbLine
 10
310.8942484448316
 20
48.0
 30
0.0
 11
310.8942484448316
 21
48.64999999999998
 31
0.0
  0
ARC
  5
35E
330
1E
100
AcDbEntity
  8
0
100
AcDbCircle
 10
304.1627968319282
 20
53.42016129032264
 30
0.0
 40
0.1825682487527802
100
AcDbArc
 50
353.6598082540781
 51
202.6003964542204
  0
ARC
  5
35F
330
1E
100
AcDbEntity
  8
0
100
AcDbCircle
 10
336.9237004996254
 20
54.61095890410945
 30
0.0
 40
14.87881277901134
100
AcDbArc
 50
184.6683605487691
 51
206.3798614447187
  0
ARC
  5
360
330
1E
100
AcDbEntity
  8
0
100
AcDbCircle
 10
349.2328725455501
 20
54.18884892086304
 30
0.0
 40
27.5262554875826
100
AcDbArc
 50
182.996323246825
 51
201.0542359724451
  0
LINE
  5
361
330
1E
100
AcDbEntity
  8
0
100
AcDbLine
 10
323.5942484448316
 20
48.0
 30
0.0
 11
323.5942484448316
 21
48.64999999999998
 31
0.0
  0
LINE
  5
362
330
1E
100
AcDbEntity
  8
0
100
AcDbLine
 10
321.75
 20
56.75000000000006
 30
0.0
 11
312.7499999999999
 21
56.75000000000006
 31
0.0
  0
ARC
  5
363
330
1E
100
AcDbEntity
  8
0
100
AcDbCircle
 10
312.5757000577348
 20
53.42016129032264
 30
0.0
 40
0.1825682487527802
100
AcDbArc
 50
337.3996035457798
 51
186.3401917459216
  0
ARC
  5
364
330
1E
100
AcDbEntity
  8
0
100
AcDbCircle
 10
321.9127968319283
 20
53.42016129032264
 30
0.0
 40
0.1825682487527802
100
AcDbArc
 50
353.6598082540781
 51
202.6003964542204
  0
ARC
  5
365
330
1E
100
AcDbEntity
  8
0
100
AcDbCircle
 10
381.8942484448308
 20
53.12777777777761
 30
0.0
 40
71.13091955014567
100
AcDbArc
 50
167.519244956757
 51
172.6723886172947
  0
ARC
  5
366
330
1E
100
AcDbEntity
  8
0
100
AcDbCircle
 10
313.4850379185157
 20
74.7460526315789
 30
0.0
 40
2.682662737445884
100
AcDbArc
 50
195.0382209782013
 51
234.9458194189165
  0
ARC
  5
367
330
1E
100
AcDbEntity
  8
0
100
AcDbCircle
 10
336.6581373337069
 20
54.73611111111392
 30
0.0
 40
25.37469971845512
100
AcDbArc
 50
166.4064387419321
 51
170.326293260187
  0
ARC
  5
368
330
1E
100
AcDbEntity
  8
0
100
AcDbCircle
 10
311.1502611030593
 20
59.02310126582278
 30
0.0
 40
0.4945272108930645
100
AcDbArc
 50
238.8224542380434
 51
357.3225196336625
  0
LINE
  5
369
330
1E
100
AcDbEntity
  8
2
100
AcDbLine
 10
320.3999999999999
 20
73.80000000000002
 30
0.0
 11
310.3999999999999
 21
73.80000000000002
 31
0.0
  0
LINE
  5
36A
330
1E
100
AcDbEntity
  8
2
100
AcDbLine
 10
313.5
 20
65.10000000000002
 30
0.0
 11
309.6999999999999
 21
65.10000000000002
 31
0.0
  0
LINE
  5
36B
330
1E
100
AcDbEntity
  8
2
100
AcDbLine
 10
313.3
 20
70.10000000000002
 30
0.0
 11
309.6
 21
70.10000000000002
 31
0.0
  0
ARC
  5
36C
330
1E
100
AcDbEntity
  8
0
100
AcDbCircle
 10
234.8442484448322
 20
53.12777777777761
 30
0.0
 40
71.13091955014567
100
AcDbArc
 50
7.327611382705247
 51
12.48075504324291
  0
LINE
  5
36D
330
1E
100
AcDbEntity
  8
0
100
AcDbLine
 10
308.3442484448315
 20
58.60000000000002
 30
0.0
 11
305.8442484448316
 21
58.60000000000002
 31
0.0
  0
LINE
  5
36E
330
1E
100
AcDbEntity
  8
0
100
AcDbLine
 10
305.8442484448316
 20
59.80000000000007
 30
0.0
 11
308.3442484448315
 21
59.80000000000007
 31
0.0
  0
LINE
  5
36F
330
1E
100
AcDbEntity
  8
2
100
AcDbLine
 10
307.8999999999999
 20
62.80000000000007
 30
0.0
 11
305.0
 21
62.80000000000007
 31
0.0
  0
LINE
  5
370
330
1E
100
AcDbEntity
  8
0
100
AcDbLine
 10
305.8442484448316
 20
58.60000000000002
 30
0.0
 11
305.8442484448316
 21
59.80000000000007
 31
0.0
  0
ARC
  5
371
330
1E
100
AcDbEntity
  8
0
100
AcDbCircle
 10
310.4636928892752
 20
61.90833333333319
 30
0.0
 40
5.077827923408231
100
AcDbArc
 50
176.707160599633
 51
204.5321499526731
  0
ARC
  5
372
330
1E
100
AcDbEntity
  8
0
100
AcDbCircle
 10
304.5192484448315
 20
60.67499999999993
 30
0.0
 40
0.2263846284534336
100
AcDbArc
 50
6.340191745918623
 51
173.659808254082
  0
ARC
  5
373
330
1E
100
AcDbEntity
  8
0
100
AcDbCircle
 10
307.7883660918905
 20
59.21911764705885
 30
0.0
 40
3.794979667236887
100
AcDbArc
 50
157.0317225277351
 51
193.2392485967456
  0
ARC
  5
374
330
1E
100
AcDbEntity
  8
0
100
AcDbCircle
 10
305.5882357866037
 20
59.02310126582278
 30
0.0
 40
0.4945272108930645
100
AcDbArc
 50
182.6774803663372
 51
301.1775457619563
  0
ARC
  5
375
330
1E
100
AcDbEntity
  8
0
100
AcDbCircle
 10
280.0803595559561
 20
54.73611111111392
 30
0.0
 40
25.37469971845512
100
AcDbArc
 50
9.673706739812951
 51
13.59356125806779
  0
LINE
  5
376
330
1E
100
AcDbEntity
  8
0
100
AcDbLine
 10
308.3942484448316
 20
58.60000000000002
 30
0.0
 11
310.8942484448316
 21
58.60000000000002
 31
0.0
  0
LINE
  5
377
330
1E
100
AcDbEntity
  8
0
100
AcDbLine
 10
310.8942484448316
 20
59.80000000000007
 30
0.0
 11
308.3942484448316
 21
59.80000000000007
 31
0.0
  0
LINE
  5
378
330
1E
100
AcDbEntity
  8
0
100
AcDbLine
 10
310.8942484448316
 20
58.60000000000002
 30
0.0
 11
310.8942484448316
 21
59.80000000000007
 31
0.0
  0
ARC
  5
379
330
1E
100
AcDbEntity
  8
0
100
AcDbCircle
 10
306.2748040003879
 20
61.90833333333319
 30
0.0
 40
5.077827923408231
100
AcDbArc
 50
335.4678500473287
 51
3.292839400366953
  0
LINE
  5
37A
330
1E
100
AcDbEntity
  8
2
100
AcDbLine
 10
309.3999999999999
 20
62.80000000000007
 30
0.0
 11
309.3999999999999
 21
61.30000000000006
 31
0.0
  0
LINE
  5
37B
330
1E
100
AcDbEntity
  8
2
100
AcDbLine
 10
309.3999999999999
 20
61.30000000000006
 30
0.0
 11
307.8999999999999
 21
61.30000000000006
 31
0.0
  0
LINE
  5
37C
330
1E
100
AcDbEntity
  8
2
100
AcDbLine
 10
307.8999999999999
 20
61.30000000000006
 30
0.0
 11
307.8999999999999
 21
62.80000000000007
 31
0.0
  0
LINE
  5
37D
330
1E
100
AcDbEntity
  8
2
100
AcDbLine
 10
309.3999999999999
 20
63.80000000000006
 30
0.0
 11
310.3999999999999
 21
62.80000000000007
 31
0.0
  0
LINE
  5
37E
330
1E
100
AcDbEntity
  8
0
100
AcDbLine
 10
308.3442484448315
 20
74.04999999999995
 30
0.0
 11
305.8442484448316
 21
74.04999999999995
 31
0.0
  0
ARC
  5
37F
330
1E
100
AcDbEntity
  8
0
100
AcDbCircle
 10
303.2534589711473
 20
74.7460526315789
 30
0.0
 40
2.682662737445884
100
AcDbArc
 50
305.0541805810833
 51
344.9617790217984
  0
LINE
  5
380
330
1E
100
AcDbEntity
  8
0
100
AcDbLine
 10
305.8442484448316
 20
75.74999999999993
 30
0.0
 11
308.3442484448315
 21
75.74999999999993
 31
0.0
  0
ARC
  5
381
330
1E
100
AcDbEntity
  8
0
100
AcDbCircle
 10
307.8231319399772
 20
70.12019956850052
 30
0.0
 40
3.883048462752104
100
AcDbArc
 50
141.263067651003
 51
204.6610508226221
  0
LINE
  5
382
330
1E
100
AcDbEntity
  8
0
100
AcDbLine
 10
305.8442484448316
 20
74.04999999999995
 30
0.0
 11
305.8442484448316
 21
75.74999999999993
 31
0.0
  0
LINE
  5
383
330
1E
100
AcDbEntity
  8
0
100
AcDbLine
 10
308.3942484448316
 20
74.04999999999995
 30
0.0
 11
310.8942484448316
 21
74.04999999999995
 31
0.0
  0
LINE
  5
384
330
1E
100
AcDbEntity
  8
2
100
AcDbLine
 10
310.3999999999999
 20
73.80000000000002
 30
0.0
 11
309.3999999999999
 21
72.80000000000007
 31
0.0
  0
LINE
  5
385
330
1E
100
AcDbEntity
  8
0
100
AcDbLine
 10
310.8942484448316
 20
75.74999999999993
 30
0.0
 11
308.3942484448316
 21
75.74999999999993
 31
0.0
  0
LINE
  5
386
330
1E
100
AcDbEntity
  8
0
100
AcDbLine
 10
310.8942484448316
 20
74.04999999999995
 30
0.0
 11
310.8942484448316
 21
75.74999999999993
 31
0.0
  0
ARC
  5
387
330
1E
100
AcDbEntity
  8
0
100
AcDbCircle
 10
252.5942484448322
 20
53.12777777777761
 30
0.0
 40
71.13091955014567
100
AcDbArc
 50
7.327611382705247
 51
12.48075504324291
  0
CIRCLE
  5
388
330
1E
100
AcDbEntity
  8
2
100
AcDbCircle
 10
315.3999999999999
 20
67.60000000000002
 30
0.0
 40
3.0
  0
ARC
  5
389
330
1E
100
AcDbEntity
  8
0
100
AcDbCircle
 10
312.2192484448315
 20
60.67499999999993
 30
0.0
 40
0.2263846284534336
100
AcDbArc
 50
6.34019174591786
 51
173.6598082540812
  0
ARC
  5
38A
330
1E
100
AcDbEntity
  8
0
100
AcDbCircle
 10
308.9501307977726
 20
59.21911764705885
 30
0.0
 40
3.794979667236887
100
AcDbArc
 50
346.7607514032541
 51
22.9682774722642
  0
ARC
  5
38B
330
1E
100
AcDbEntity
  8
0
100
AcDbCircle
 10
297.8303595559562
 20
54.73611111111392
 30
0.0
 40
25.37469971845512
100
AcDbArc
 50
9.673706739812951
 51
13.59356125806779
  0
ARC
  5
38C
330
1E
100
AcDbEntity
  8
0
100
AcDbCircle
 10
323.3382357866037
 20
59.02310126582278
 30
0.0
 40
0.4945272108930645
100
AcDbArc
 50
182.6774803663372
 51
301.1775457619563
  0
ARC
  5
38D
330
1E
100
AcDbEntity
  8
0
100
AcDbCircle
 10
325.5383660918906
 20
59.21911764705885
 30
0.0
 40
3.794979667236887
100
AcDbArc
 50
157.0317225277351
 51
193.2392485967456
  0
ARC
  5
38E
330
1E
100
AcDbEntity
  8
0
100
AcDbCircle
 10
322.2692484448316
 20
60.67499999999993
 30
0.0
 40
0.2263846284534336
100
AcDbArc
 50
6.340191745918623
 51
173.659808254082
  0
ARC
  5
38F
330
1E
100
AcDbEntity
  8
0
100
AcDbCircle
 10
328.2136928892752
 20
61.90833333333319
 30
0.0
 40
5.077827923408231
100
AcDbArc
 50
176.707160599633
 51
204.5321499526731
  0
LINE
  5
390
330
1E
100
AcDbEntity
  8
0
100
AcDbLine
 10
323.5942484448316
 20
58.60000000000002
 30
0.0
 11
323.5942484448316
 21
59.80000000000007
 31
0.0
  0
LINE
  5
391
330
1E
100
AcDbEntity
  8
2
100
AcDbLine
 10
321.3999999999999
 20
63.80000000000006
 30
0.0
 11
320.5
 21
62.80000000000007
 31
0.0
  0
LINE
  5
392
330
1E
100
AcDbEntity
  8
2
100
AcDbLine
 10
321.3999999999999
 20
63.80000000000006
 30
0.0
 11
322.5
 21
62.80000000000007
 31
0.0
  0
ARC
  5
393
330
1E
100
AcDbEntity
  8
0
100
AcDbCircle
 10
308.9153649496858
 20
70.12019956850052
 30
0.0
 40
3.883048462752104
100
AcDbArc
 50
335.3389491773802
 51
38.73693234899683
  0
ARC
  5
394
330
1E
100
AcDbEntity
  8
0
100
AcDbCircle
 10
321.0034589711474
 20
74.7460526315789
 30
0.0
 40
2.682662737445884
100
AcDbArc
 50
305.0541805810833
 51
344.9617790217984
  0
ARC
  5
395
330
1E
100
AcDbEntity
  8
0
100
AcDbCircle
 10
325.5731319399772
 20
70.12019956850052
 30
0.0
 40
3.883048462752104
100
AcDbArc
 50
141.263067651003
 51
204.6610508226221
  0
LINE
  5
396
330
1E
100
AcDbEntity
  8
2
100
AcDbLine
 10
322.3999999999999
 20
73.80000000000002
 30
0.0
 11
321.3999999999999
 21
72.80000000000007
 31
0.0
  0
LINE
  5
397
330
1E
100
AcDbEntity
  8
2
100
AcDbLine
 10
321.3999999999999
 20
72.80000000000007
 30
0.0
 11
320.3999999999999
 21
73.80000000000002
 31
0.0
  0
LINE
  5
398
330
1E
100
AcDbEntity
  8
0
100
AcDbLine
 10
323.5942484448316
 20
74.04999999999995
 30
0.0
 11
323.5942484448316
 21
75.74999999999993
 31
0.0
  0
ARC
  5
399
330
1E
100
AcDbEntity
  8
0
100
AcDbCircle
 10
255.0238662792213
 20
66.93988853503277
 30
0.0
 40
75.85829350067422
100
AcDbArc
 50
346.0481743541116
 51
353.4981102332057
  0
LINE
  5
39A
330
1E
100
AcDbEntity
  8
0
100
AcDbLine
 10
337.95
 20
56.75000000000006
 30
0.0
 11
330.45
 21
56.75000000000006
 31
0.0
  0
ARC
  5
39B
330
1E
100
AcDbEntity
  8
0
100
AcDbCircle
 10
315.3147963900376
 20
54.61095890410945
 30
0.0
 40
14.87881277901134
100
AcDbArc
 50
333.6201385552914
 51
355.3316394512308
  0
ARC
  5
39C
330
1E
100
AcDbEntity
  8
0
100
AcDbCircle
 10
303.0056243441129
 20
54.18884892086304
 30
0.0
 40
27.5262554875826
100
AcDbArc
 50
338.9457640275549
 51
357.003676753175
  0
LINE
  5
39D
330
1E
100
AcDbEntity
  8
0
100
AcDbLine
 10
326.1442484448316
 20
44.30000000000006
 30
0.0
 11
328.6942484448316
 21
44.30000000000006
 31
0.0
  0
LINE
  5
39E
330
1E
100
AcDbEntity
  8
0
100
AcDbLine
 10
328.6442484448316
 20
48.0
 30
0.0
 11
328.6442484448316
 21
48.64999999999998
 31
0.0
  0
LINE
  5
39F
330
1E
100
AcDbEntity
  8
0
100
AcDbLine
 10
328.6442484448316
 20
48.64999999999998
 30
0.0
 11
326.1442484448316
 21
48.64999999999998
 31
0.0
  0
LINE
  5
3A0
330
1E
100
AcDbEntity
  8
0
100
AcDbLine
 10
326.1442484448316
 20
48.0
 30
0.0
 11
328.6442484448316
 21
48.0
 31
0.0
  0
ARC
  5
3A1
330
1E
100
AcDbEntity
  8
0
100
AcDbCircle
 10
330.3257000577348
 20
53.42016129032264
 30
0.0
 40
0.1825682487527802
100
AcDbArc
 50
337.3996035457798
 51
186.3401917459216
  0
ARC
  5
3A2
330
1E
100
AcDbEntity
  8
0
100
AcDbCircle
 10
338.0749999999999
 20
57.625
 30
0.0
 40
0.8838834764831924
100
AcDbArc
 50
261.8698976458434
 51
8.130102354159646
  0
LINE
  5
3A3
330
1E
100
AcDbEntity
  8
2
100
AcDbLine
 10
338.8999999999999
 20
64.80000000000007
 30
0.0
 11
333.3999999999999
 21
64.80000000000007
 31
0.0
  0
ARC
  5
3A4
330
1E
100
AcDbEntity
  8
0
100
AcDbCircle
 10
399.644248444831
 20
53.12777777777761
 30
0.0
 40
71.13091955014567
100
AcDbArc
 50
167.519244956757
 51
172.6723886172947
  0
CIRCLE
  5
3A5
330
1E
100
AcDbEntity
  8
2
100
AcDbCircle
 10
327.4
 20
67.60000000000002
 30
0.0
 40
3.0
  0
LINE
  5
3A6
330
1E
100
AcDbEntity
  8
2
100
AcDbLine
 10
333.3
 20
65.10000000000002
 30
0.0
 11
329.1999999999999
 21
65.10000000000002
 31
0.0
  0
ARC
  5
3A7
330
1E
100
AcDbEntity
  8
0
100
AcDbCircle
 10
328.9002611030594
 20
59.02310126582278
 30
0.0
 40
0.4945272108930645
100
AcDbArc
 50
238.8224542380434
 51
357.3225196336625
  0
ARC
  5
3A8
330
1E
100
AcDbEntity
  8
0
100
AcDbCircle
 10
324.024804000388
 20
61.90833333333319
 30
0.0
 40
5.077827923408231
100
AcDbArc
 50
335.4678500473287
 51
3.292839400366953
  0
LINE
  5
3A9
330
1E
100
AcDbEntity
  8
0
100
AcDbLine
 10
328.6442484448316
 20
58.60000000000002
 30
0.0
 11
328.6442484448316
 21
59.80000000000007
 31
0.0
  0
ARC
  5
3AA
330
1E
100
AcDbEntity
  8
0
100
AcDbCircle
 10
354.4081373337069
 20
54.73611111111392
 30
0.0
 40
25.37469971845512
100
AcDbArc
 50
166.4064387419321
 51
170.326293260187
  0
ARC
  5
3AB
330
1E
100
AcDbEntity
  8
0
100
AcDbCircle
 10
326.7001307977727
 20
59.21911764705885
 30
0.0
 40
3.794979667236887
100
AcDbArc
 50
346.7607514032541
 51
22.9682774722642
  0
ARC
  5
3AC
330
1E
100
AcDbEntity
  8
0
100
AcDbCircle
 10
329.9692484448316
 20
60.67499999999993
 30
0.0
 40
0.2263846284534336
100
AcDbArc
 50
6.34019174591786
 51
173.6598082540812
  0
LINE
  5
3AD
330
1E
100
AcDbEntity
  8
0
100
AcDbLine
 10
328.6442484448316
 20
59.80000000000007
 30
0.0
 11
326.1442484448316
 21
59.80000000000007
 31
0.0
  0
LINE
  5
3AE
330
1E
100
AcDbEntity
  8
0
100
AcDbLine
 10
326.1442484448316
 20
58.60000000000002
 30
0.0
 11
328.6442484448316
 21
58.60000000000002
 31
0.0
  0
LINE
  5
3AF
330
1E
100
AcDbEntity
  8
2
100
AcDbLine
 10
333.3
 20
63.80000000000006
 30
0.0
 11
332.3999999999999
 21
62.80000000000007
 31
0.0
  0
LINE
  5
3B0
330
1E
100
AcDbEntity
  8
2
100
AcDbLine
 10
333.1
 20
70.10000000000002
 30
0.0
 11
329.1999999999999
 21
70.10000000000002
 31
0.0
  0
ARC
  5
3B1
330
1E
100
AcDbEntity
  8
0
100
AcDbCircle
 10
331.2350379185158
 20
74.7460526315789
 30
0.0
 40
2.682662737445884
100
AcDbArc
 50
195.0382209782013
 51
234.9458194189165
  0
ARC
  5
3B2
330
1E
100
AcDbEntity
  8
0
100
AcDbCircle
 10
326.6653649496857
 20
70.12019956850052
 30
0.0
 40
3.883048462752104
100
AcDbArc
 50
335.3389491773802
 51
38.73693234899683
  0
LINE
  5
3B3
330
1E
100
AcDbEntity
  8
0
100
AcDbLine
 10
326.1442484448316
 20
74.04999999999995
 30
0.0
 11
328.6442484448316
 21
74.04999999999995
 31
0.0
  0
LINE
  5
3B4
330
1E
100
AcDbEntity
  8
0
100
AcDbLine
 10
328.6442484448316
 20
75.74999999999993
 30
0.0
 11
326.1442484448316
 21
75.74999999999993
 31
0.0
  0
LINE
  5
3B5
330
1E
100
AcDbEntity
  8
0
100
AcDbLine
 10
328.6442484448316
 20
74.04999999999995
 30
0.0
 11
328.6442484448316
 21
75.74999999999993
 31
0.0
  0
LINE
  5
3B6
330
1E
100
AcDbEntity
  8
2
100
AcDbLine
 10
332.5
 20
73.80000000000002
 30
0.0
 11
333.3999999999999
 21
72.80000000000007
 31
0.0
  0
ARC
  5
3B7
330
1E
100
AcDbEntity
  8
0
100
AcDbCircle
 10
338.0749999999999
 20
109.975
 30
0.0
 40
0.8838834764831924
100
AcDbArc
 50
351.8698976458403
 51
98.13010235415646
  0
LINE
  5
3B8
330
1E
100
AcDbEntity
  8
0
100
AcDbLine
 10
312.7442484448315
 20
83.79999999999999
 30
0.0
 11
312.7442484448315
 21
114.85
 31
0.0
  0
LINE
  5
3B9
330
1E
100
AcDbEntity
  8
0
100
AcDbLine
 10
303.9942484448315
 20
83.79999999999999
 30
0.0
 11
303.9942484448315
 21
114.85
 31
0.0
  0
LINE
  5
3BA
330
1E
100
AcDbEntity
  8
1
100
AcDbLine
 10
308.3442484448315
 20
83.79999999999999
 30
0.0
 11
308.3442484448315
 21
129.1499999999998
 31
0.0
  0
ARC
  5
3BB
330
1E
100
AcDbEntity
  8
0
100
AcDbCircle
 10
379.4646306104417
 20
100.6601114649671
 30
0.0
 40
75.85829350067422
100
AcDbArc
 50
166.0481743541116
 51
173.4981102332056
  0
ARC
  5
3BC
330
1E
100
AcDbEntity
  8
0
100
AcDbCircle
 10
237.2738662792212
 20
100.6601114649671
 30
0.0
 40
75.85829350067422
100
AcDbArc
 50
6.501889766794272
 51
13.95182564588833
  0
ARC
  5
3BD
330
1E
100
AcDbEntity
  8
0
100
AcDbCircle
 10
255.0238662792213
 20
100.6601114649671
 30
0.0
 40
75.85829350067422
100
AcDbArc
 50
6.501889766794272
 51
13.95182564588833
  0
ARC
  5
3BE
330
1E
100
AcDbEntity
  8
0
100
AcDbCircle
 10
397.214630610442
 20
100.6601114649671
 30
0.0
 40
75.85829350067422
100
AcDbArc
 50
166.0481743541116
 51
173.4981102332056
  0
LINE
  5
3BF
330
1E
100
AcDbEntity
  8
1
100
AcDbLine
 10
326.0942484448316
 20
83.79999999999999
 30
0.0
 11
326.0942484448316
 21
129.1499999999998
 31
0.0
  0
LINE
  5
3C0
330
1E
100
AcDbEntity
  8
0
100
AcDbLine
 10
321.7442484448315
 20
83.79999999999999
 30
0.0
 11
321.7442484448315
 21
114.85
 31
0.0
  0
LINE
  5
3C1
330
1E
100
AcDbEntity
  8
0
100
AcDbLine
 10
330.4942484448315
 20
83.79999999999999
 30
0.0
 11
330.4942484448315
 21
114.85
 31
0.0
  0
LINE
  5
3C2
330
1E
100
AcDbEntity
  8
2
100
AcDbLine
 10
325.4
 20
97.5
 30
0.0
 11
317.3999999999999
 21
97.5
 31
0.0
  0
LINE
  5
3C3
330
1E
100
AcDbEntity
  8
2
100
AcDbLine
 10
325.4
 20
102.4999999999999
 30
0.0
 11
317.3
 21
102.4999999999999
 31
0.0
  0
LINE
  5
3C4
330
1E
100
AcDbEntity
  8
2
100
AcDbLine
 10
332.5
 20
93.79999999999997
 30
0.0
 11
322.3999999999999
 21
93.79999999999997
 31
0.0
  0
LINE
  5
3C5
330
1E
100
AcDbEntity
  8
2
100
AcDbLine
 10
333.3999999999999
 20
104.7999999999998
 30
0.0
 11
309.3999999999999
 21
104.7999999999998
 31
0.0
  0
LINE
  5
3C6
330
1E
100
AcDbEntity
  8
0
100
AcDbLine
 10
326.0942484448316
 20
109.0
 30
0.0
 11
323.5942484448316
 21
109.0
 31
0.0
  0
LINE
  5
3C7
330
1E
100
AcDbEntity
  8
0
100
AcDbLine
 10
323.5942484448316
 20
107.7999999999998
 30
0.0
 11
326.0942484448316
 21
107.7999999999998
 31
0.0
  0
LINE
  5
3C8
330
1E
100
AcDbEntity
  8
0
100
AcDbLine
 10
323.5942484448316
 20
91.85000000000002
 30
0.0
 11
326.0942484448316
 21
91.85000000000002
 31
0.0
  0
LINE
  5
3C9
330
1E
100
AcDbEntity
  8
0
100
AcDbLine
 10
326.0942484448316
 20
93.55000000000002
 30
0.0
 11
323.5942484448316
 21
93.55000000000002
 31
0.0
  0
LINE
  5
3CA
330
1E
100
AcDbEntity
  8
3
100
AcDbLine
 10
308.1
 20
106.2999999999999
 30
0.0
 11
308.1
 21
83.79999999999995
 31
0.0
  0
LINE
  5
3CB
330
1E
100
AcDbEntity
  8
2
100
AcDbLine
 10
309.3999999999999
 20
104.7999999999998
 30
0.0
 11
309.3999999999999
 21
83.79999999999995
 31
0.0
  0
LINE
  5
3CC
330
1E
100
AcDbEntity
  8
2
100
AcDbLine
 10
321.3999999999999
 20
83.79999999999995
 30
0.0
 11
321.3999999999999
 21
104.7999999999998
 31
0.0
  0
LINE
  5
3CD
330
1E
100
AcDbEntity
  8
0
100
AcDbLine
 10
310.8942484448316
 20
93.55000000000002
 30
0.0
 11
310.8942484448316
 21
91.85000000000002
 31
0.0
  0
LINE
  5
3CE
330
1E
100
AcDbEntity
  8
0
100
AcDbLine
 10
305.8442484448316
 20
93.55000000000002
 30
0.0
 11
305.8442484448316
 21
91.85000000000002
 31
0.0
  0
LINE
  5
3CF
330
1E
100
AcDbEntity
  8
0
100
AcDbLine
 10
323.5942484448316
 20
93.55000000000002
 30
0.0
 11
323.5942484448316
 21
91.85000000000002
 31
0.0
  0
ARC
  5
3D0
330
1E
100
AcDbEntity
  8
0
100
AcDbCircle
 10
295.0983024988852
 20
84.3679536679536
 30
0.0
 40
17.70505787312752
100
AcDbArc
 50
339.6122033322223
 51
358.1617155958813
  0
ARC
  5
3D1
330
1E
100
AcDbEntity
  8
0
100
AcDbCircle
 10
295.0983024988852
 20
83.23204633204637
 30
0.0
 40
17.70505787312752
100
AcDbArc
 50
1.838284404118651
 51
20.38779666777757
  0
ARC
  5
3D2
330
1E
100
AcDbEntity
  8
0
100
AcDbCircle
 10
321.6401943907778
 20
83.23204633204637
 30
0.0
 40
17.70505787312752
100
AcDbArc
 50
159.6122033322223
 51
178.1617155958812
  0
ARC
  5
3D3
330
1E
100
AcDbEntity
  8
0
100
AcDbCircle
 10
321.6401943907778
 20
84.3679536679536
 30
0.0
 40
17.70505787312752
100
AcDbArc
 50
181.8382844041185
 51
200.3877966677775
  0
ARC
  5
3D4
330
1E
100
AcDbEntity
  8
0
100
AcDbCircle
 10
298.4345262226105
 20
92.91388888888858
 30
0.0
 40
7.485709250189835
100
AcDbArc
 50
332.0038031702254
 51
351.8293060636762
  0
LINE
  5
3D5
330
1E
100
AcDbEntity
  8
0
100
AcDbLine
 10
305.8442484448316
 20
91.85000000000002
 30
0.0
 11
308.3442484448315
 21
91.85000000000002
 31
0.0
  0
ARC
  5
3D6
330
1E
100
AcDbEntity
  8
0
100
AcDbCircle
 10
318.3039706670526
 20
92.91388888888858
 30
0.0
 40
7.485709250189835
100
AcDbArc
 50
188.1706939363236
 51
207.9961968297744
  0
LINE
  5
3D7
330
1E
100
AcDbEntity
  8
0
100
AcDbLine
 10
310.8942484448316
 20
91.85000000000002
 30
0.0
 11
308.3942484448316
 21
91.85000000000002
 31
0.0
  0
ARC
  5
3D8
330
1E
100
AcDbEntity
  8
0
100
AcDbCircle
 10
339.3901943907779
 20
83.23204633204637
 30
0.0
 40
17.70505787312752
100
AcDbArc
 50
159.6122033322223
 51
178.1617155958812
  0
ARC
  5
3D9
330
1E
100
AcDbEntity
  8
0
100
AcDbCircle
 10
339.3901943907779
 20
84.3679536679536
 30
0.0
 40
17.70505787312752
100
AcDbArc
 50
181.8382844041185
 51
200.3877966677775
  0
ARC
  5
3DA
330
1E
100
AcDbEntity
  8
0
100
AcDbCircle
 10
316.1845262226105
 20
92.91388888888858
 30
0.0
 40
7.485709250189835
100
AcDbArc
 50
332.0038031702254
 51
351.8293060636762
  0
LINE
  5
3DB
330
1E
100
AcDbEntity
  8
2
100
AcDbLine
 10
313.3
 20
97.5
 30
0.0
 11
309.6
 21
97.5
 31
0.0
  0
LINE
  5
3DC
330
1E
100
AcDbEntity
  8
2
100
AcDbLine
 10
313.5
 20
102.4999999999999
 30
0.0
 11
309.6999999999999
 21
102.4999999999999
 31
0.0
  0
LINE
  5
3DD
330
1E
100
AcDbEntity
  8
2
100
AcDbLine
 10
320.3999999999999
 20
93.79999999999997
 30
0.0
 11
310.3999999999999
 21
93.79999999999997
 31
0.0
  0
ARC
  5
3DE
330
1E
100
AcDbEntity
  8
0
100
AcDbCircle
 10
311.1502611030593
 20
108.5768987341772
 30
0.0
 40
0.4945272108930645
100
AcDbArc
 50
2.677480366337352
 51
121.1775457619564
  0
ARC
  5
3DF
330
1E
100
AcDbEntity
  8
0
100
AcDbCircle
 10
336.6581373337069
 20
112.8638888888859
 30
0.0
 40
25.37469971845512
100
AcDbArc
 50
189.6737067398128
 51
193.5935612580678
  0
ARC
  5
3E0
330
1E
100
AcDbEntity
  8
0
100
AcDbCircle
 10
313.4850379185157
 20
92.85394736842107
 30
0.0
 40
2.682662737445884
100
AcDbArc
 50
125.0541805810832
 51
164.9617790217984
  0
ARC
  5
3E1
330
1E
100
AcDbEntity
  8
0
100
AcDbCircle
 10
381.8942484448308
 20
114.4722222222222
 30
0.0
 40
71.13091955014567
100
AcDbArc
 50
187.3276113827051
 51
192.4807550432429
  0
ARC
  5
3E2
330
1E
100
AcDbEntity
  8
0
100
AcDbCircle
 10
234.8442484448322
 20
114.4722222222222
 30
0.0
 40
71.13091955014567
100
AcDbArc
 50
347.5192449567569
 51
352.6723886172947
  0
ARC
  5
3E3
330
1E
100
AcDbEntity
  8
0
100
AcDbCircle
 10
303.2534589711473
 20
92.85394736842107
 30
0.0
 40
2.682662737445884
100
AcDbArc
 50
15.03822097820146
 51
54.94581941891668
  0
LINE
  5
3E4
330
1E
100
AcDbEntity
  8
0
100
AcDbLine
 10
308.3442484448315
 20
93.55000000000002
 30
0.0
 11
305.8442484448316
 21
93.55000000000002
 31
0.0
  0
ARC
  5
3E5
330
1E
100
AcDbEntity
  8
0
100
AcDbCircle
 10
307.8231319399772
 20
97.47980043149949
 30
0.0
 40
3.883048462752104
100
AcDbArc
 50
155.3389491773753
 51
218.7369323489968
  0
LINE
  5
3E6
330
1E
100
AcDbEntity
  8
2
100
AcDbLine
 10
310.3999999999999
 20
93.79999999999997
 30
0.0
 11
309.3999999999999
 21
94.79999999999996
 31
0.0
  0
LINE
  5
3E7
330
1E
100
AcDbEntity
  8
0
100
AcDbLine
 10
308.3942484448316
 20
93.55000000000002
 30
0.0
 11
310.8942484448316
 21
93.55000000000002
 31
0.0
  0
LINE
  5
3E8
330
1E
100
AcDbEntity
  8
2
100
AcDbLine
 10
307.8999999999999
 20
104.7999999999998
 30
0.0
 11
305.0
 21
104.7999999999998
 31
0.0
  0
LINE
  5
3E9
330
1E
100
AcDbEntity
  8
0
100
AcDbLine
 10
305.8442484448316
 20
107.7999999999998
 30
0.0
 11
308.3442484448315
 21
107.7999999999998
 31
0.0
  0
LINE
  5
3EA
330
1E
100
AcDbEntity
  8
0
100
AcDbLine
 10
308.3442484448315
 20
109.0
 30
0.0
 11
305.8442484448316
 21
109.0
 31
0.0
  0
ARC
  5
3EB
330
1E
100
AcDbEntity
  8
0
100
AcDbCircle
 10
280.0803595559561
 20
112.8638888888859
 30
0.0
 40
25.37469971845512
100
AcDbArc
 50
346.4064387419322
 51
350.326293260187
  0
ARC
  5
3EC
330
1E
100
AcDbEntity
  8
0
100
AcDbCircle
 10
305.5882357866037
 20
108.5768987341772
 30
0.0
 40
0.4945272108930645
100
AcDbArc
 50
58.8224542380436
 51
177.3225196336626
  0
ARC
  5
3ED
330
1E
100
AcDbEntity
  8
0
100
AcDbCircle
 10
307.7883660918905
 20
108.3808823529411
 30
0.0
 40
3.794979667236887
100
AcDbArc
 50
166.7607514032543
 51
202.9682774722652
  0
ARC
  5
3EE
330
1E
100
AcDbEntity
  8
0
100
AcDbCircle
 10
304.5192484448315
 20
106.925
 30
0.0
 40
0.2263846284534336
100
AcDbArc
 50
186.3401917459177
 51
353.6598082540813
  0
ARC
  5
3EF
330
1E
100
AcDbEntity
  8
0
100
AcDbCircle
 10
310.4636928892752
 20
105.6916666666667
 30
0.0
 40
5.077827923408231
100
AcDbArc
 50
155.4678500473245
 51
183.2928394003668
  0
LINE
  5
3F0
330
1E
100
AcDbEntity
  8
0
100
AcDbLine
 10
305.8442484448316
 20
109.0
 30
0.0
 11
305.8442484448316
 21
107.7999999999998
 31
0.0
  0
LINE
  5
3F1
330
1E
100
AcDbEntity
  8
2
100
AcDbLine
 10
309.3999999999999
 20
103.7999999999998
 30
0.0
 11
310.3999999999999
 21
104.7999999999998
 31
0.0
  0
LINE
  5
3F2
330
1E
100
AcDbEntity
  8
2
100
AcDbLine
 10
307.8999999999999
 20
106.2999999999999
 30
0.0
 11
307.8999999999999
 21
104.7999999999998
 31
0.0
  0
LINE
  5
3F3
330
1E
100
AcDbEntity
  8
2
100
AcDbLine
 10
309.3999999999999
 20
106.2999999999999
 30
0.0
 11
307.8999999999999
 21
106.2999999999999
 31
0.0
  0
LINE
  5
3F4
330
1E
100
AcDbEntity
  8
2
100
AcDbLine
 10
309.3999999999999
 20
104.7999999999998
 30
0.0
 11
309.3999999999999
 21
106.2999999999999
 31
0.0
  0
ARC
  5
3F5
330
1E
100
AcDbEntity
  8
0
100
AcDbCircle
 10
306.2748040003879
 20
105.6916666666667
 30
0.0
 40
5.077827923408231
100
AcDbArc
 50
356.707160599633
 51
24.5321499526733
  0
LINE
  5
3F6
330
1E
100
AcDbEntity
  8
0
100
AcDbLine
 10
310.8942484448316
 20
109.0
 30
0.0
 11
310.8942484448316
 21
107.7999999999998
 31
0.0
  0
LINE
  5
3F7
330
1E
100
AcDbEntity
  8
0
100
AcDbLine
 10
310.8942484448316
 20
107.7999999999998
 30
0.0
 11
308.3942484448316
 21
107.7999999999998
 31
0.0
  0
LINE
  5
3F8
330
1E
100
AcDbEntity
  8
0
100
AcDbLine
 10
308.3942484448316
 20
109.0
 30
0.0
 11
310.8942484448316
 21
109.0
 31
0.0
  0
CIRCLE
  5
3F9
330
1E
100
AcDbEntity
  8
2
100
AcDbCircle
 10
315.3999999999999
 20
100.0
 30
0.0
 40
3.0
  0
ARC
  5
3FA
330
1E
100
AcDbEntity
  8
0
100
AcDbCircle
 10
252.5942484448322
 20
114.4722222222222
 30
0.0
 40
71.13091955014567
100
AcDbArc
 50
347.5192449567569
 51
352.6723886172947
  0
ARC
  5
3FB
330
1E
100
AcDbEntity
  8
0
100
AcDbCircle
 10
308.9153649496858
 20
97.47980043149949
 30
0.0
 40
3.883048462752104
100
AcDbArc
 50
321.263067651003
 51
24.66105082262221
  0
LINE
  5
3FC
330
1E
100
AcDbEntity
  8
2
100
AcDbLine
 10
321.3999999999999
 20
94.79999999999996
 30
0.0
 11
320.3999999999999
 21
93.79999999999997
 31
0.0
  0
LINE
  5
3FD
330
1E
100
AcDbEntity
  8
2
100
AcDbLine
 10
322.3999999999999
 20
93.79999999999997
 30
0.0
 11
321.3999999999999
 21
94.79999999999996
 31
0.0
  0
ARC
  5
3FE
330
1E
100
AcDbEntity
  8
0
100
AcDbCircle
 10
325.5731319399772
 20
97.47980043149949
 30
0.0
 40
3.883048462752104
100
AcDbArc
 50
155.3389491773753
 51
218.7369323489968
  0
ARC
  5
3FF
330
1E
100
AcDbEntity
  8
0
100
AcDbCircle
 10
321.0034589711474
 20
92.85394736842107
 30
0.0
 40
2.682662737445884
100
AcDbArc
 50
15.03822097820146
 51
54.94581941891668
  0
LINE
  5
400
330
1E
100
AcDbEntity
  8
0
100
AcDbLine
 10
321.75
 20
110.8499999999998
 30
0.0
 11
312.7499999999999
 21
110.8499999999998
 31
0.0
  0
ARC
  5
401
330
1E
100
AcDbEntity
  8
0
100
AcDbCircle
 10
308.9501307977726
 20
108.3808823529411
 30
0.0
 40
3.794979667236887
100
AcDbArc
 50
337.0317225277351
 51
13.23924859674572
  0
ARC
  5
402
330
1E
100
AcDbEntity
  8
0
100
AcDbCircle
 10
312.2192484448315
 20
106.925
 30
0.0
 40
0.2263846284534336
100
AcDbArc
 50
186.3401917459185
 51
353.659808254082
  0
LINE
  5
403
330
1E
100
AcDbEntity
  8
2
100
AcDbLine
 10
321.3999999999999
 20
103.7999999999998
 30
0.0
 11
322.5
 21
104.7999999999998
 31
0.0
  0
LINE
  5
404
330
1E
100
AcDbEntity
  8
2
100
AcDbLine
 10
321.3999999999999
 20
103.7999999999998
 30
0.0
 11
320.5
 21
104.7999999999998
 31
0.0
  0
LINE
  5
405
330
1E
100
AcDbEntity
  8
0
100
AcDbLine
 10
323.5942484448316
 20
109.0
 30
0.0
 11
323.5942484448316
 21
107.7999999999998
 31
0.0
  0
ARC
  5
406
330
1E
100
AcDbEntity
  8
0
100
AcDbCircle
 10
328.2136928892752
 20
105.6916666666667
 30
0.0
 40
5.077827923408231
100
AcDbArc
 50
155.4678500473245
 51
183.2928394003668
  0
ARC
  5
407
330
1E
100
AcDbEntity
  8
0
100
AcDbCircle
 10
322.2692484448316
 20
106.925
 30
0.0
 40
0.2263846284534336
100
AcDbArc
 50
186.3401917459177
 51
353.6598082540813
  0
ARC
  5
408
330
1E
100
AcDbEntity
  8
0
100
AcDbCircle
 10
325.5383660918906
 20
108.3808823529411
 30
0.0
 40
3.794979667236887
100
AcDbArc
 50
166.7607514032543
 51
202.9682774722652
  0
ARC
  5
409
330
1E
100
AcDbEntity
  8
0
100
AcDbCircle
 10
323.3382357866037
 20
108.5768987341772
 30
0.0
 40
0.4945272108930645
100
AcDbArc
 50
58.8224542380436
 51
177.3225196336626
  0
ARC
  5
40A
330
1E
100
AcDbEntity
  8
0
100
AcDbCircle
 10
297.8303595559562
 20
112.8638888888859
 30
0.0
 40
25.37469971845512
100
AcDbArc
 50
346.4064387419322
 51
350.326293260187
  0
LINE
  5
40B
330
1E
100
AcDbEntity
  8
2
100
AcDbLine
 10
333.3999999999999
 20
83.79999999999995
 30
0.0
 11
333.3999999999999
 21
104.7999999999998
 31
0.0
  0
LINE
  5
40C
330
1E
100
AcDbEntity
  8
0
100
AcDbLine
 10
338.9499999999999
 20
83.84999999999996
 30
0.0
 11
338.9499999999999
 21
109.8499999999998
 31
0.0
  0
LINE
  5
40D
330
1E
100
AcDbEntity
  8
0
100
AcDbLine
 10
328.6442484448316
 20
93.55000000000002
 30
0.0
 11
328.6442484448316
 21
91.85000000000002
 31
0.0
  0
ARC
  5
40E
330
1E
100
AcDbEntity
  8
0
100
AcDbCircle
 10
312.8483024988852
 20
83.23204633204637
 30
0.0
 40
17.70505787312752
100
AcDbArc
 50
1.838284404118651
 51
20.38779666777757
  0
ARC
  5
40F
330
1E
100
AcDbEntity
  8
0
100
AcDbCircle
 10
312.8483024988852
 20
84.3679536679536
 30
0.0
 40
17.70505787312752
100
AcDbArc
 50
339.6122033322223
 51
358.1617155958813
  0
LINE
  5
410
330
1E
100
AcDbEntity
  8
0
100
AcDbLine
 10
328.6442484448316
 20
91.85000000000002
 30
0.0
 11
326.1442484448316
 21
91.85000000000002
 31
0.0
  0
ARC
  5
411
330
1E
100
AcDbEntity
  8
0
100
AcDbCircle
 10
336.0539706670528
 20
92.91388888888858
 30
0.0
 40
7.485709250189835
100
AcDbArc
 50
188.1706939363236
 51
207.9961968297744
  0
LINE
  5
412
330
1E
100
AcDbEntity
  8
2
100
AcDbLine
 10
338.8999999999999
 20
102.7999999999998
 30
0.0
 11
333.3999999999999
 21
102.7999999999998
 31
0.0
  0
LINE
  5
413
330
1E
100
AcDbEntity
  8
0
100
AcDbLine
 10
337.95
 20
110.8499999999998
 30
0.0
 11
330.45
 21
110.8499999999998
 31
0.0
  0
CIRCLE
  5
414
330
1E
100
AcDbEntity
  8
2
100
AcDbCircle
 10
327.4
 20
100.0
 30
0.0
 40
3.0
  0
ARC
  5
415
330
1E
100
AcDbEntity
  8
0
100
AcDbCircle
 10
399.644248444831
 20
114.4722222222222
 30
0.0
 40
71.13091955014567
100
AcDbArc
 50
187.3276113827051
 51
192.4807550432429
  0
LINE
  5
416
330
1E
100
AcDbEntity
  8
2
100
AcDbLine
 10
333.1
 20
97.5
 30
0.0
 11
329.1999999999999
 21
97.5
 31
0.0
  0
LINE
  5
417
330
1E
100
AcDbEntity
  8
0
100
AcDbLine
 10
326.1442484448316
 20
93.55000000000002
 30
0.0
 11
328.6442484448316
 21
93.55000000000002
 31
0.0
  0
ARC
  5
418
330
1E
100
AcDbEntity
  8
0
100
AcDbCircle
 10
326.6653649496857
 20
97.47980043149949
 30
0.0
 40
3.883048462752104
100
AcDbArc
 50
321.263067651003
 51
24.66105082262221
  0
ARC
  5
419
330
1E
100
AcDbEntity
  8
0
100
AcDbCircle
 10
331.2350379185158
 20
92.85394736842107
 30
0.0
 40
2.682662737445884
100
AcDbArc
 50
125.0541805810832
 51
164.9617790217984
  0
LINE
  5
41A
330
1E
100
AcDbEntity
  8
2
100
AcDbLine
 10
332.5
 20
93.79999999999997
 30
0.0
 11
333.3999999999999
 21
94.79999999999996
 31
0.0
  0
LINE
  5
41B
330
1E
100
AcDbEntity
  8
2
100
AcDbLine
 10
333.3
 20
102.4999999999999
 30
0.0
 11
329.1999999999999
 21
102.4999999999999
 31
0.0
  0
LINE
  5
41C
330
1E
100
AcDbEntity
  8
0
100
AcDbLine
 10
326.1442484448316
 20
109.0
 30
0.0
 11
328.6442484448316
 21
109.0
 31
0.0
  0
LINE
  5
41D
330
1E
100
AcDbEntity
  8
0
100
AcDbLine
 10
328.6442484448316
 20
107.7999999999998
 30
0.0
 11
326.1442484448316
 21
107.7999999999998
 31
0.0
  0
ARC
  5
41E
330
1E
100
AcDbEntity
  8
0
100
AcDbCircle
 10
329.9692484448316
 20
106.925
 30
0.0
 40
0.2263846284534336
100
AcDbArc
 50
186.3401917459185
 51
353.659808254082
  0
ARC
  5
41F
330
1E
100
AcDbEntity
  8
0
100
AcDbCircle
 10
326.7001307977727
 20
108.3808823529411
 30
0.0
 40
3.794979667236887
100
AcDbArc
 50
337.0317225277351
 51
13.23924859674572
  0
ARC
  5
420
330
1E
100
AcDbEntity
  8
0
100
AcDbCircle
 10
354.4081373337069
 20
112.8638888888859
 30
0.0
 40
25.37469971845512
100
AcDbArc
 50
189.6737067398128
 51
193.5935612580678
  0
LINE
  5
421
330
1E
100
AcDbEntity
  8
0
100
AcDbLine
 10
328.6442484448316
 20
109.0
 30
0.0
 11
328.6442484448316
 21
107.7999999999998
 31
0.0
  0
ARC
  5
422
330
1E
100
AcDbEntity
  8
0
100
AcDbCircle
 10
324.024804000388
 20
105.6916666666667
 30
0.0
 40
5.077827923408231
100
AcDbArc
 50
356.707160599633
 51
24.5321499526733
  0
ARC
  5
423
330
1E
100
AcDbEntity
  8
0
100
AcDbCircle
 10
328.9002611030594
 20
108.5768987341772
 30
0.0
 40
0.4945272108930645
100
AcDbArc
 50
2.677480366337352
 51
121.1775457619564
  0
LINE
  5
424
330
1E
100
AcDbEntity
  8
2
100
AcDbLine
 10
333.3
 20
103.7999999999998
 30
0.0
 11
332.3999999999999
 21
104.7999999999998
 31
0.0
  0
LINE
  5
425
330
1E
100
AcDbEntity
  8
0
100
AcDbLine
 10
326.0942484448316
 20
123.2999999999998
 30
0.0
 11
323.5442484448316
 21
123.2999999999998
 31
0.0
  0
LINE
  5
426
330
1E
100
AcDbEntity
  8
0
100
AcDbLine
 10
326.0942484448316
 20
119.5999999999999
 30
0.0
 11
323.5942484448316
 21
119.5999999999999
 31
0.0
  0
LINE
  5
427
330
1E
100
AcDbEntity
  8
0
100
AcDbLine
 10
323.5942484448316
 20
118.9499999999999
 30
0.0
 11
326.0942484448316
 21
118.9499999999999
 31
0.0
  0
ARC
  5
428
330
1E
100
AcDbEntity
  8
0
100
AcDbCircle
 10
297.5647963900377
 20
112.9890410958904
 30
0.0
 40
14.87881277901134
100
AcDbArc
 50
4.668360548769234
 51
26.37986144471872
  0
ARC
  5
429
330
1E
100
AcDbEntity
  8
0
100
AcDbCircle
 10
285.255624344113
 20
113.4111510791369
 30
0.0
 40
27.5262554875826
100
AcDbArc
 50
2.996323246825019
 51
21.05423597244519
  0
ARC
  5
42A
330
1E
100
AcDbEntity
  8
0
100
AcDbCircle
 10
331.48287254555
 20
113.4111510791369
 30
0.0
 40
27.5262554875826
100
AcDbArc
 50
158.9457640275546
 51
177.0036767531748
  0
LINE
  5
42B
330
1E
100
AcDbEntity
  8
0
100
AcDbLine
 10
305.8442484448316
 20
118.9499999999999
 30
0.0
 11
308.3442484448315
 21
118.9499999999999
 31
0.0
  0
LINE
  5
42C
330
1E
100
AcDbEntity
  8
0
100
AcDbLine
 10
308.3442484448315
 20
119.5999999999999
 30
0.0
 11
305.8442484448316
 21
119.5999999999999
 31
0.0
  0
LINE
  5
42D
330
1E
100
AcDbEntity
  8
0
100
AcDbLine
 10
305.8442484448316
 20
119.5999999999999
 30
0.0
 11
305.8442484448316
 21
118.9499999999999
 31
0.0
  0
ARC
  5
42E
330
1E
100
AcDbEntity
  8
0
100
AcDbCircle
 10
319.1737004996252
 20
112.9890410958904
 30
0.0
 40
14.87881277901134
100
AcDbArc
 50
153.6201385552709
 51
175.3316394512307
  0
ARC
  5
42F
330
1E
100
AcDbEntity
  8
0
100
AcDbCircle
 10
304.1627968319282
 20
114.1798387096772
 30
0.0
 40
0.1825682487527802
100
AcDbArc
 50
157.399603545779
 51
6.340191745921748
  0
LINE
  5
430
330
1E
100
AcDbEntity
  8
0
100
AcDbLine
 10
310.8942484448316
 20
119.5999999999999
 30
0.0
 11
310.8942484448316
 21
118.9499999999999
 31
0.0
  0
LINE
  5
431
330
1E
100
AcDbEntity
  8
0
100
AcDbLine
 10
310.8942484448316
 20
118.9499999999999
 30
0.0
 11
308.3942484448316
 21
118.9499999999999
 31
0.0
  0
LINE
  5
432
330
1E
100
AcDbEntity
  8
0
100
AcDbLine
 10
308.3942484448316
 20
119.5999999999999
 30
0.0
 11
310.8942484448316
 21
119.5999999999999
 31
0.0
  0
LINE
  5
433
330
1E
100
AcDbEntity
  8
0
100
AcDbLine
 10
308.3442484448315
 20
123.2999999999998
 30
0.0
 11
305.7942484448314
 21
123.2999999999998
 31
0.0
  0
LINE
  5
434
330
1E
100
AcDbEntity
  8
0
100
AcDbLine
 10
308.3942484448316
 20
123.2999999999998
 30
0.0
 11
310.9442484448316
 21
123.2999999999998
 31
0.0
  0
ARC
  5
435
330
1E
100
AcDbEntity
  8
0
100
AcDbCircle
 10
349.2328725455501
 20
113.4111510791369
 30
0.0
 40
27.5262554875826
100
AcDbArc
 50
158.9457640275546
 51
177.0036767531748
  0
ARC
  5
436
330
1E
100
AcDbEntity
  8
0
100
AcDbCircle
 10
312.5757000577348
 20
114.1798387096772
 30
0.0
 40
0.1825682487527802
100
AcDbArc
 50
173.6598082540781
 51
22.60039645422045
  0
ARC
  5
437
330
1E
100
AcDbEntity
  8
0
100
AcDbCircle
 10
321.9127968319283
 20
114.1798387096772
 30
0.0
 40
0.1825682487527802
100
AcDbArc
 50
157.399603545779
 51
6.340191745921748
  0
ARC
  5
438
330
1E
100
AcDbEntity
  8
0
100
AcDbCircle
 10
336.9237004996254
 20
112.9890410958904
 30
0.0
 40
14.87881277901134
100
AcDbArc
 50
153.6201385552709
 51
175.3316394512307
  0
LINE
  5
439
330
1E
100
AcDbEntity
  8
0
100
AcDbLine
 10
323.5942484448316
 20
119.5999999999999
 30
0.0
 11
323.5942484448316
 21
118.9499999999999
 31
0.0
  0
ARC
  5
43A
330
1E
100
AcDbEntity
  8
0
100
AcDbCircle
 10
303.0056243441129
 20
113.4111510791369
 30
0.0
 40
27.5262554875826
100
AcDbArc
 50
2.996323246825019
 51
21.05423597244519
  0
LINE
  5
43B
330
1E
100
AcDbEntity
  8
0
100
AcDbLine
 10
326.1442484448316
 20
119.5999999999999
 30
0.0
 11
328.6442484448316
 21
119.5999999999999
 31
0.0
  0
LINE
  5
43C
330
1E
100
AcDbEntity
  8
0
100
AcDbLine
 10
328.6442484448316
 20
118.9499999999999
 30
0.0
 11
326.1442484448316
 21
118.9499999999999
 31
0.0
  0
ARC
  5
43D
330
1E
100
AcDbEntity
  8
0
100
AcDbCircle
 10
330.3257000577348
 20
114.1798387096772
 30
0.0
 40
0.1825682487527802
100
AcDbArc
 50
173.6598082540781
 51
22.60039645422045
  0
ARC
  5
43E
330
1E
100
AcDbEntity
  8
0
100
AcDbCircle
 10
315.3147963900376
 20
112.9890410958904
 30
0.0
 40
14.87881277901134
100
AcDbArc
 50
4.668360548769234
 51
26.37986144471872
  0
LINE
  5
43F
330
1E
100
AcDbEntity
  8
0
100
AcDbLine
 10
328.6442484448316
 20
119.5999999999999
 30
0.0
 11
328.6442484448316
 21
118.9499999999999
 31
0.0
  0
LINE
  5
440
330
1E
100
AcDbEntity
  8
0
100
AcDbLine
 10
326.1442484448316
 20
123.2999999999998
 30
0.0
 11
328.6942484448316
 21
123.2999999999998
 31
0.0
  0
ENDSEC
  0
SECTION
  2
OBJECTS
  0
DICTIONARY
  5
C
330
0
100
AcDbDictionary
281
     1
  3
ACAD_GROUP
350
D
  3
ACAD_LAYOUT
350
19
  3
ACAD_MLINESTYLE
350
16
  3
ACAD_PLOTSETTINGS
350
18
  3
ACAD_PLOTSTYLENAME
350
E
  3
AcDbVariableDictionary
350
55C
  3
AcmDictionary
350
4FD
  3
AMG
350
443
  3
AMGSNAPSETTINGS
350
51A
  3
DWGPROPS
350
500
  3
MAPISURF_MODULE
350
4D0
  0
DICTIONARY
  5
553
330
1E
100
AcDbDictionary
280
     1
281
     1
  3
ACAD_INDEX
360
554
  0
DICTIONARY
  5
D
102
{ACAD_REACTORS
330
C
102
}
330
C
100
AcDbDictionary
281
     1
  0
DICTIONARY
  5
19
102
{ACAD_REACTORS
330
C
102
}
330
C
100
AcDbDictionary
281
     1
  3
Model
350
21
  3
ﾚｲｱｳﾄ1
350
1D
  0
DICTIONARY
  5
16
102
{ACAD_REACTORS
330
C
102
}
330
C
100
AcDbDictionary
281
     1
  3
Standard
350
17
  0
DICTIONARY
  5
18
102
{ACAD_REACTORS
330
C
102
}
330
C
100
AcDbDictionary
281
     1
  0
ACDBDICTIONARYWDFLT
  5
E
102
{ACAD_REACTORS
330
C
102
}
330
C
100
AcDbDictionary
281
     1
  3
Normal
350
F
100
AcDbDictionaryWithDefault
340
F
  0
DICTIONARY
  5
55C
102
{ACAD_REACTORS
330
C
102
}
330
C
100
AcDbDictionary
281
     1
  3
DIMASSOC
350
55E
  3
INDEXCTL
350
55D
  0
DICTIONARY
  5
4FD
102
{ACAD_REACTORS
330
C
102
}
330
C
100
AcDbDictionary
281
     1
  3
AcmBOMDATA
350
4FE
  0
DICTIONARY
  5
443
102
{ACAD_REACTORS
330
C
102
}
330
C
100
AcDbDictionary
281
     1
  3
AcMgSettings
350
444
  3
AMGLAYCFG
350
50A
  0
DICTIONARY
  5
51A
102
{ACAD_REACTORS
330
C
102
}
330
C
100
AcDbDictionary
281
     1
  3
DIMENSION
350
51F
  3
FEA
350
51E
  3
HATCH (1)
350
51B
  3
HATCH (2)
350
51C
  3
SIMPLE WELD
350
520
  3
SYMBOLS
350
51D
  0
XRECORD
  5
500
102
{ACAD_REACTORS
330
C
102
}
330
C
100
AcDbXrecord
280
     1
  1
DWGPROPS COOKIE
  2

  3

  4

  6

  7

  8

  9

300
AmdtFileType=84
301
=
302
=
303
=
304
=
305
=
306
=
307
=
308
=
309
=
 40
0.000004525462963
 41
2450686.78818287
 42
2450686.78818287
  1

 90
        1
  0
DICTIONARY
  5
554
102
{ACAD_REACTORS
330
553
102
}
330
553
100
AcDbDictionary
281
     1
  3
*A1
350
555
  0
LAYOUT
  5
21
102
{ACAD_REACTORS
330
19
102
}
330
19
100
AcDbPlotSettings
  1

  2
\\KONISHIDENXP\SHARP MX-2700FG
  4

  6

 40
0.0
 41
0.0
 42
0.0
 43
0.0
 44
0.0
 45
0.0
 46
0.0
 47
0.0
 48
0.0
 49
0.0
140
0.0
141
0.0
142
1.0
143
1.0
 70
  1712
 72
     0
 73
     0
 74
     0
  7

 75
     0
147
1.0
148
0.0
149
0.0
100
AcDbLayout
  1
Model
 70
     1
 71
     0
 10
0.0
 20
0.0
 11
12.0
 21
9.0
 12
0.0
 22
0.0
 32
0.0
 14
0.0
 24
0.0
 34
0.0
 15
0.0
 25
0.0
 35
0.0
146
0.0
 13
0.0
 23
0.0
 33
0.0
 16
1.0
 26
0.0
 36
0.0
 17
0.0
 27
1.0
 37
0.0
 76
     0
330
1E
  0
LAYOUT
  5
1D
102
{ACAD_REACTORS
330
19
102
}
330
19
100
AcDbPlotSettings
  1

  2
\\KONISHIDENXP\SHARP MX-2700FG
  4

  6

 40
0.0
 41
0.0
 42
0.0
 43
0.0
 44
0.0
 45
0.0
 46
0.0
 47
0.0
 48
0.0
 49
0.0
140
0.0
141
0.0
142
1.0
143
1.0
 70
   688
 72
     0
 73
     0
 74
     5
  7

 75
    16
147
1.0
148
0.0
149
0.0
100
AcDbLayout
  1
ﾚｲｱｳﾄ1
 70
     1
 71
     1
 10
0.0
 20
0.0
 11
12.0
 21
9.0
 12
0.0
 22
0.0
 32
0.0
 14
1.000000000000000E+20
 24
1.000000000000000E+20
 34
1.000000000000000E+20
 15
-1.000000000000000E+20
 25
-1.000000000000000E+20
 35
-1.000000000000000E+20
146
0.0
 13
0.0
 23
0.0
 33
0.0
 16
1.0
 26
0.0
 36
0.0
 17
0.0
 27
1.0
 37
0.0
 76
     0
330
1A
  0
MLINESTYLE
  5
17
102
{ACAD_REACTORS
330
16
102
}
330
16
100
AcDbMlineStyle
  2
STANDARD
 70
     0
  3

 62
   256
 51
90.0
 52
90.0
 71
     2
 49
0.5
 62
   256
  6
BYLAYER
 49
-0.5
 62
   256
  6
BYLAYER
  0
ACDBPLACEHOLDER
  5
F
102
{ACAD_REACTORS
330
E
102
}
330
E
  0
DICTIONARYVAR
  5
55E
102
{ACAD_REACTORS
330
55C
102
}
330
55C
100
DictionaryVariables
280
     0
  1
1
  0
DICTIONARYVAR
  5
55D
102
{ACAD_REACTORS
330
55C
102
}
330
55C
100
DictionaryVariables
280
     0
  1
1
  0
ACMDATADICTIONARY
  5
4FE
102
{ACAD_REACTORS
330
4FD
102
}
330
4FD
100
AcDbDictionary
281
     1
  3
*A1
350
4FF
100
AcmDataDictionary
  0
DICTIONARY
  5
444
102
{ACAD_REACTORS
330
443
102
}
330
443
100
AcDbDictionary
281
     1
  3
DWGSETTINGS
350
445
  0
ACAMGFILTERDAT
  5
51F
102
{ACAD_REACTORS
330
51A
102
}
330
51A
100
AcAmgFilterDat
 70
    15
  1
DIMENSION,AMDT_*_DIM
  2
*
  3
*
  4
*
  5
*
290
     1
  0
ACAMGFILTERDAT
  5
51E
102
{ACAD_REACTORS
330
51A
102
}
330
51A
100
AcAmgFilterDat
 70
    15
  1
*
  2
AM_FEA-AM_*
  3
*
  4
*
  5
*
290
     1
  0
ACAMGFILTERDAT
  5
51B
102
{ACAD_REACTORS
330
51A
102
}
330
51A
100
AcAmgFilterDat
 70
    15
  1
HATCH
  2
*
  3
*
  4
*
  5
*
290
     1
  0
ACAMGFILTERDAT
  5
51C
102
{ACAD_REACTORS
330
51A
102
}
330
51A
100
AcAmgFilterDat
 70
    15
  1
LINE
  2
8,8N,*-8,*-8N,AM_8,AM_8N,*-AM_8,*-AM_8N
  3
*
  4
*
  5
INSERT,STDPART2D
290
     1
  0
ACAMGFILTERDAT
  5
520
102
{ACAD_REACTORS
330
51A
102
}
330
51A
100
AcAmgFilterDat
 70
    15
  1
ARC
  2
AM_5
  3
*
  4
2
  5
INSERT
290
     0
  0
ACAMGFILTERDAT
  5
51D
102
{ACAD_REACTORS
330
51A
102
}
330
51A
100
AcAmgFilterDat
 70
    15
  1
ACMFCFRAME,ACMDATUMTARGET,ACMDATUMID,ACMWELDSYM,ACMSURFSYM,ACMFEATID,ACMPARTREF,ACMBALLOON,AMDTEDGESYM,AMGSCREWCALCTABLE
  2
*
  3
*
  4
*
  5
*
290
     1
  0
LAYER_INDEX
  5
555
102
{ACAD_REACTORS
330
554
102
}
330
554
100
AcDbIndex
 40
2457158.58168022
100
AcDbLayerIndex
  8
0
360
556
 90
      834
  8
1
360
557
 90
       19
  8
2
360
558
 90
      162
  8
3
360
559
 90
       24
  8
Defpoints
360
55A
 90
        0
  0
ACMDATAENTRYBLOCK
  5
4FF
102
{ACAD_REACTORS
330
4FE
102
}
330
4FE
100
AcmDataEntry
100
AcmDataEntryBlock
  0
IDBUFFER
  5
556
330
0
100
AcDbIdBuffer
330
28E
330
28F
330
290
330
291
330
292
330
293
330
294
330
295
330
297
330
29A
330
29B
330
29C
330
29D
330
29E
330
29F
330
2A0
330
2A1
330
2A4
330
2A5
330
2A6
330
2A7
330
2A8
330
2AA
330
2AB
330
2AC
330
2AE
330
2AF
330
2B0
330
2B1
330
2B3
330
2B4
330
2B9
330
2BA
330
2BB
330
2BC
330
2C0
330
2C1
330
2C2
330
2C3
330
2C4
330
2C5
330
2C6
330
2C7
330
2C8
330
2C9
330
2CA
330
2CB
330
2CC
330
2CD
330
2D1
330
2D2
330
2D3
330
2D4
330
2D5
330
2D6
330
2D7
330
2D8
330
2DA
330
2DC
330
2DD
330
2DE
330
2DF
330
2E0
330
2E1
330
2E2
330
2E3
330
2E8
330
2E9
330
2EA
330
2EB
330
2ED
330
2EE
330
2F1
330
2F2
330
2F3
330
2F4
330
2F5
330
2F8
330
2F9
330
2FA
330
2FB
330
2FC
330
2FD
330
2FF
330
300
330
301
330
302
330
303
330
304
330
306
330
308
330
30A
330
30B
330
30C
330
30F
330
310
330
311
330
312
330
313
330
314
330
315
330
316
330
318
330
319
330
31A
330
31B
330
31C
330
31D
330
31E
330
31F
330
320
330
321
330
322
330
323
330
324
330
325
330
326
330
327
330
328
330
329
330
32A
330
32B
330
32C
330
32D
330
32E
330
32F
330
330
330
331
330
332
330
333
330
335
330
336
330
338
330
339
330
33A
330
33E
330
33F
330
341
330
342
330
344
330
345
330
346
330
347
330
348
330
349
330
34A
330
34F
330
350
330
351
330
352
330
353
330
354
330
355
330
356
330
357
330
358
330
359
330
35A
330
35B
330
35C
330
35D
330
35E
330
35F
330
360
330
361
330
362
330
363
330
364
330
365
330
366
330
367
330
368
330
36C
330
36D
330
36E
330
370
330
371
330
372
330
373
330
374
330
375
330
376
330
377
330
378
330
379
330
37E
330
37F
330
380
330
381
330
382
330
383
330
385
330
386
330
387
330
389
330
38A
330
38B
330
38C
330
38D
330
38E
330
38F
330
390
330
393
330
394
330
395
330
398
330
399
330
39A
330
39B
330
39C
330
39D
330
39E
330
39F
330
3A0
330
3A1
330
3A2
330
3A4
330
3A7
330
3A8
330
3A9
330
3AA
330
3AB
330
3AC
330
3AD
330
3AE
330
3B1
330
3B2
330
3B3
330
3B4
330
3B5
330
3B7
330
3B8
330
3B9
330
3BB
330
3BC
330
3BD
330
3BE
330
3C0
330
3C1
330
3C6
330
3C7
330
3C8
330
3C9
330
3CD
330
3CE
330
3CF
330
3D0
330
3D1
330
3D2
330
3D3
330
3D4
330
3D5
330
3D6
330
3D7
330
3D8
330
3D9
330
3DA
330
3DE
330
3DF
330
3E0
330
3E1
330
3E2
330
3E3
330
3E4
330
3E5
330
3E7
330
3E9
330
3EA
330
3EB
330
3EC
330
3ED
330
3EE
330
3EF
330
3F0
330
3F5
330
3F6
330
3F7
330
3F8
330
3FA
330
3FB
330
3FE
330
3FF
330
400
330
401
330
402
330
405
330
406
330
407
330
408
330
409
330
40A
330
40C
330
40D
330
40E
330
40F
330
410
330
411
330
413
330
415
330
417
330
418
330
419
330
41C
330
41D
330
41E
330
41F
330
420
330
421
330
422
330
423
330
425
330
426
330
427
330
428
330
429
330
42A
330
42B
330
42C
330
42D
330
42E
330
42F
330
430
330
431
330
432
330
433
330
434
330
435
330
436
330
437
330
438
330
439
330
43A
330
43B
330
43C
330
43D
330
43E
330
43F
330
440
330
3A
330
42
330
43
330
44
330
45
330
46
330
47
330
48
330
49
330
4A
330
4B
330
4C
330
4D
330
4E
330
4F
330
50
330
51
330
52
330
53
330
54
330
55
330
56
330
57
330
58
330
59
330
5A
330
5B
330
5C
330
5D
330
5E
330
5F
330
60
330
61
330
62
330
63
330
64
330
65
330
66
330
67
330
68
330
69
330
6A
330
6B
330
6C
330
6D
330
6E
330
6F
330
70
330
71
330
72
330
73
330
74
330
75
330
76
330
77
330
78
330
79
330
7A
330
7B
330
7C
330
7D
330
7E
330
7F
330
80
330
81
330
82
330
83
330
84
330
85
330
86
330
87
330
88
330
89
330
8A
330
8B
330
8C
330
8D
330
8E
330
8F
330
90
330
91
330
92
330
93
330
94
330
95
330
96
330
97
330
98
330
99
330
9A
330
9B
330
9C
330
9D
330
9E
330
9F
330
A0
330
A1
330
A2
330
A3
330
A4
330
A5
330
A6
330
A7
330
A8
330
A9
330
AE
330
B0
330
B1
330
B2
330
B3
330
B4
330
B5
330
B6
330
B7
330
B8
330
B9
330
BA
330
BB
330
BC
330
BD
330
BE
330
BF
330
C0
330
C1
330
C2
330
C3
330
C4
330
C5
330
C6
330
C7
330
C8
330
C9
330
CA
330
CB
330
CC
330
CD
330
CE
330
CF
330
D0
330
D1
330
D2
330
D3
330
D4
330
D5
330
D6
330
D8
330
D9
330
DA
330
DB
330
DC
330
DD
330
DE
330
DF
330
E0
330
E1
330
E2
330
E3
330
E4
330
E5
330
E6
330
E7
330
E8
330
E9
330
EA
330
EB
330
EC
330
ED
330
EE
330
EF
330
F0
330
F1
330
F2
330
F3
330
F4
330
F5
330
F6
330
F7
330
F8
330
F9
330
FA
330
FB
330
FC
330
FD
330
FE
330
FF
330
100
330
101
330
102
330
103
330
104
330
105
330
106
330
107
330
108
330
109
330
10A
330
10B
330
10C
330
10D
330
10E
330
10F
330
110
330
111
330
112
330
113
330
114
330
115
330
117
330
118
330
119
330
11A
330
11C
330
11D
330
11E
330
11F
330
120
330
121
330
122
330
123
330
124
330
125
330
126
330
127
330
128
330
129
330
12A
330
12B
330
12C
330
12D
330
12E
330
12F
330
130
330
131
330
132
330
133
330
134
330
135
330
136
330
137
330
138
330
139
330
13A
330
13B
330
13C
330
13D
330
13E
330
13F
330
140
330
141
330
142
330
143
330
144
330
145
330
146
330
147
330
148
330
149
330
14A
330
14B
330
14C
330
14E
330
14F
330
151
330
152
330
153
330
154
330
155
330
156
330
157
330
158
330
159
330
15A
330
15B
330
15C
330
15D
330
15E
330
15F
330
160
330
161
330
162
330
163
330
164
330
165
330
166
330
167
330
168
330
169
330
16A
330
16B
330
16C
330
16D
330
16E
330
16F
330
170
330
171
330
172
330
173
330
174
330
175
330
176
330
177
330
178
330
179
330
17A
330
17B
330
17C
330
17D
330
17E
330
17F
330
180
330
181
330
182
330
183
330
184
330
1A2
330
1A3
330
1A4
330
1A6
330
1A7
330
1A8
330
1A9
330
1AA
330
1AB
330
1B0
330
1B1
330
1B2
330
1B3
330
1B7
330
1B8
330
1B9
330
1BA
330
1BB
330
1BC
330
1BD
330
1BE
330
1BF
330
1C0
330
1C1
330
1C5
330
1C6
330
1C7
330
1C8
330
1C9
330
1CA
330
1CB
330
1CC
330
1CE
330
1D0
330
1D1
330
1D2
330
1D3
330
1D4
330
1D5
330
1D6
330
1D7
330
1DC
330
1DD
330
1DE
330
1DF
330
1E1
330
1E2
330
1E5
330
1E6
330
1E7
330
1E8
330
1E9
330
1EC
330
1ED
330
1EE
330
1EF
330
1F0
330
1F1
330
1F3
330
1F4
330
1F5
330
1F6
330
1F7
330
1F9
330
1FB
330
1FD
330
1FE
330
1FF
330
202
330
203
330
204
330
205
330
206
330
207
330
208
330
209
330
20B
330
20C
330
20D
330
20E
330
20F
330
210
330
211
330
212
330
213
330
214
330
215
330
216
330
217
330
218
330
219
330
21A
330
21B
330
21C
330
21D
330
21E
330
21F
330
220
330
221
330
222
330
223
330
224
330
225
330
226
330
228
330
229
330
22B
330
22C
330
22D
330
231
330
232
330
234
330
235
330
237
330
238
330
239
330
23A
330
23B
330
23C
330
23D
330
242
330
243
330
244
330
245
330
246
330
247
330
248
330
249
330
24A
330
24B
330
24C
330
24D
330
24E
330
24F
330
250
330
251
330
252
330
253
330
254
330
255
330
256
330
257
330
258
330
259
330
25A
330
25B
330
25F
330
260
330
261
330
263
330
264
330
265
330
266
330
267
330
268
330
269
330
26A
330
26B
330
26C
330
271
330
272
330
273
330
274
330
275
330
276
330
278
330
279
330
27A
330
27C
330
27D
330
27E
330
27F
330
280
330
281
330
282
330
283
330
286
330
287
330
288
330
28B
330
28C
330
28D
  0
IDBUFFER
  5
557
330
0
100
AcDbIdBuffer
330
343
330
3BA
330
3BF
330
41
330
AA
330
AF
330
D7
330
116
330
11B
330
150
330
185
330
1A5
330
227
330
233
330
236
330
2AD
330
2B2
330
334
330
340
  0
IDBUFFER
  5
558
330
0
100
AcDbIdBuffer
330
34C
330
34D
330
34E
330
369
330
36A
330
36B
330
36F
330
37A
330
37B
330
37C
330
37D
330
384
330
388
330
391
330
392
330
396
330
397
330
3A3
330
3A5
330
3A6
330
3AF
330
3B0
330
3B6
330
3C2
330
3C3
330
3C4
330
3C5
330
3CB
330
3CC
330
3DB
330
3DC
330
3DD
330
3E6
330
3E8
330
3F1
330
3F2
330
3F3
330
3F4
330
3F9
330
3FC
330
3FD
330
403
330
404
330
40B
330
412
330
414
330
416
330
41A
330
41B
330
424
330
186
330
187
330
188
330
189
330
18A
330
18B
330
18C
330
18D
330
18E
330
18F
330
190
330
191
330
192
330
193
330
194
330
195
330
196
330
197
330
198
330
199
330
19A
330
19B
330
19C
330
19D
330
19E
330
19F
330
1A0
330
1AC
330
1AD
330
1AE
330
1AF
330
1B5
330
1B6
330
1C2
330
1C3
330
1C4
330
1CD
330
1CF
330
1D8
330
1D9
330
1DA
330
1DB
330
1E0
330
1E3
330
1E4
330
1EA
330
1EB
330
1F2
330
1F8
330
1FA
330
1FC
330
200
330
201
330
20A
330
22A
330
22E
330
22F
330
23E
330
23F
330
240
330
241
330
25C
330
25D
330
25E
330
262
330
26D
330
26E
330
26F
330
270
330
277
330
27B
330
284
330
285
330
289
330
28A
330
296
330
298
330
299
330
2A2
330
2A3
330
2A9
330
2B5
330
2B6
330
2B7
330
2B8
330
2BE
330
2BF
330
2CE
330
2CF
330
2D0
330
2D9
330
2DB
330
2E4
330
2E5
330
2E6
330
2E7
330
2EC
330
2EF
330
2F0
330
2F6
330
2F7
330
2FE
330
305
330
307
330
309
330
30D
330
30E
330
317
330
337
330
33B
330
33C
330
34B
  0
IDBUFFER
  5
559
330
0
100
AcDbIdBuffer
330
AD
330
14D
330
1A1
330
1B4
330
230
330
2BD
330
33D
330
3CA
330
2D
330
2E
330
2F
330
30
330
31
330
32
330
33
330
34
330
35
330
36
330
37
330
38
330
39
330
40
330
AB
330
AC
  0
IDBUFFER
  5
55A
330
0
100
AcDbIdBuffer
  0
ENDSEC
  0
EOF
