  0
SECTION
  2
HEADER
  9
$ACADVER
  1
AC1015
  9
$ACADMAINTVER
 70
    13
  9
$DWGCODEPAGE
  3
ANSI_932
  9
$INSBASE
 10
0.0
 20
0.0
 30
0.0
  9
$EXTMIN
 10
-6.800841872987575
 20
-0.1775751057510189
 30
0.0
  9
$EXTMAX
 10
857.3758220826134
 20
626.9902798847197
 30
0.0
  9
$LIMMIN
 10
0.0
 20
0.0
  9
$LIMMAX
 10
600.0
 20
450.0
  9
$ORTHOMODE
 70
     1
  9
$REGENMODE
 70
     1
  9
$FILLMODE
 70
     1
  9
$QTEXTMODE
 70
     0
  9
$MIRRTEXT
 70
     1
  9
$LTSCALE
 40
1.0
  9
$ATTMODE
 70
     1
  9
$TEXTSIZE
 40
6.0
  9
$TRACEWID
 40
0.05
  9
$TEXTSTYLE
  7
EXTFONT
  9
$CLAYER
  8
0
  9
$CELTYPE
  6
ByLayer
  9
$CECOLOR
 62
   256
  9
$CELTSCALE
 40
1.0
  9
$DISPSILH
 70
     0
  9
$DIMSCALE
 40
1.0
  9
$DIMASZ
 40
0.18
  9
$DIMEXO
 40
0.0625
  9
$DIMDLI
 40
0.38
  9
$DIMRND
 40
0.0
  9
$DIMDLE
 40
0.0
  9
$DIMEXE
 40
0.18
  9
$DIMTP
 40
0.0
  9
$DIMTM
 40
0.0
  9
$DIMTXT
 40
0.18
  9
$DIMCEN
 40
0.09
  9
$DIMTSZ
 40
0.0
  9
$DIMTOL
 70
     0
  9
$DIMLIM
 70
     0
  9
$DIMTIH
 70
     1
  9
$DIMTOH
 70
     1
  9
$DIMSE1
 70
     0
  9
$DIMSE2
 70
     0
  9
$DIMTAD
 70
     0
  9
$DIMZIN
 70
     0
  9
$DIMBLK
  1

  9
$DIMASO
 70
     1
  9
$DIMSHO
 70
     1
  9
$DIMPOST
  1

  9
$DIMAPOST
  1

  9
$DIMALT
 70
     0
  9
$DIMALTD
 70
     2
  9
$DIMALTF
 40
25.4
  9
$DIMLFAC
 40
1.0
  9
$DIMTOFL
 70
     0
  9
$DIMTVP
 40
0.0
  9
$DIMTIX
 70
     0
  9
$DIMSOXD
 70
     0
  9
$DIMSAH
 70
     0
  9
$DIMBLK1
  1

  9
$DIMBLK2
  1

  9
$DIMSTYLE
  2
STANDARD
  9
$DIMCLRD
 70
     0
  9
$DIMCLRE
 70
     0
  9
$DIMCLRT
 70
     0
  9
$DIMTFAC
 40
1.0
  9
$DIMGAP
 40
0.09
  9
$DIMJUST
 70
     0
  9
$DIMSD1
 70
     0
  9
$DIMSD2
 70
     0
  9
$DIMTOLJ
 70
     1
  9
$DIMTZIN
 70
     0
  9
$DIMALTZ
 70
     0
  9
$DIMALTTZ
 70
     0
  9
$DIMUPT
 70
     0
  9
$DIMDEC
 70
     4
  9
$DIMTDEC
 70
     4
  9
$DIMALTU
 70
     2
  9
$DIMALTTD
 70
     2
  9
$DIMTXSTY
  7
STANDARD
  9
$DIMAUNIT
 70
     0
  9
$DIMADEC
 70
     0
  9
$DIMALTRND
 40
0.0
  9
$DIMAZIN
 70
     0
  9
$DIMDSEP
 70
    46
  9
$DIMATFIT
 70
     3
  9
$DIMFRAC
 70
     0
  9
$DIMLDRBLK
  1

  9
$DIMLUNIT
 70
     2
  9
$DIMLWD
 70
    -2
  9
$DIMLWE
 70
    -2
  9
$DIMTMOVE
 70
     0
  9
$LUNITS
 70
     2
  9
$LUPREC
 70
     4
  9
$SKETCHINC
 40
0.1
  9
$FILLETRAD
 40
0.0
  9
$AUNITS
 70
     0
  9
$AUPREC
 70
     0
  9
$MENU
  1
acad
  9
$ELEVATION
 40
0.0
  9
$PELEVATION
 40
0.0
  9
$THICKNESS
 40
0.0
  9
$LIMCHECK
 70
     0
  9
$CHAMFERA
 40
0.0
  9
$CHAMFERB
 40
0.0
  9
$CHAMFERC
 40
0.0
  9
$CHAMFERD
 40
0.0
  9
$SKPOLY
 70
     0
  9
$TDCREATE
 40
2450686.781261574
  9
$TDUCREATE
 40
2450686.406261574
  9
$TDUPDATE
 40
2456525.609590382
  9
$TDUUPDATE
 40
2456525.234590382
  9
$TDINDWG
 40
0.0062480208
  9
$TDUSRTIMER
 40
0.0062480208
  9
$USRTIMER
 70
     1
  9
$ANGBASE
 50
0.0
  9
$ANGDIR
 70
     0
  9
$PDMODE
 70
     0
  9
$PDSIZE
 40
0.0
  9
$PLINEWID
 40
0.0
  9
$SPLFRAME
 70
     0
  9
$SPLINETYPE
 70
     6
  9
$SPLINESEGS
 70
     8
  9
$HANDSEED
  5
C0F
  9
$SURFTAB1
 70
     6
  9
$SURFTAB2
 70
     6
  9
$SURFTYPE
 70
     6
  9
$SURFU
 70
     6
  9
$SURFV
 70
     6
  9
$UCSBASE
  2

  9
$UCSNAME
  2

  9
$UCSORG
 10
0.0
 20
0.0
 30
0.0
  9
$UCSXDIR
 10
1.0
 20
0.0
 30
0.0
  9
$UCSYDIR
 10
0.0
 20
1.0
 30
0.0
  9
$UCSORTHOREF
  2

  9
$UCSORTHOVIEW
 70
     0
  9
$UCSORGTOP
 10
0.0
 20
0.0
 30
0.0
  9
$UCSORGBOTTOM
 10
0.0
 20
0.0
 30
0.0
  9
$UCSORGLEFT
 10
0.0
 20
0.0
 30
0.0
  9
$UCSORGRIGHT
 10
0.0
 20
0.0
 30
0.0
  9
$UCSORGFRONT
 10
0.0
 20
0.0
 30
0.0
  9
$UCSORGBACK
 10
0.0
 20
0.0
 30
0.0
  9
$PUCSBASE
  2

  9
$PUCSNAME
  2

  9
$PUCSORG
 10
0.0
 20
0.0
 30
0.0
  9
$PUCSXDIR
 10
1.0
 20
0.0
 30
0.0
  9
$PUCSYDIR
 10
0.0
 20
1.0
 30
0.0
  9
$PUCSORTHOREF
  2

  9
$PUCSORTHOVIEW
 70
     0
  9
$PUCSORGTOP
 10
0.0
 20
0.0
 30
0.0
  9
$PUCSORGBOTTOM
 10
0.0
 20
0.0
 30
0.0
  9
$PUCSORGLEFT
 10
0.0
 20
0.0
 30
0.0
  9
$PUCSORGRIGHT
 10
0.0
 20
0.0
 30
0.0
  9
$PUCSORGFRONT
 10
0.0
 20
0.0
 30
0.0
  9
$PUCSORGBACK
 10
0.0
 20
0.0
 30
0.0
  9
$USERI1
 70
     0
  9
$USERI2
 70
     0
  9
$USERI3
 70
     0
  9
$USERI4
 70
     0
  9
$USERI5
 70
     0
  9
$USERR1
 40
0.0
  9
$USERR2
 40
0.0
  9
$USERR3
 40
0.0
  9
$USERR4
 40
0.0
  9
$USERR5
 40
0.0
  9
$WORLDVIEW
 70
     1
  9
$SHADEDGE
 70
     3
  9
$SHADEDIF
 70
    70
  9
$TILEMODE
 70
     1
  9
$MAXACTVP
 70
    16
  9
$PINSBASE
 10
0.0
 20
0.0
 30
0.0
  9
$PLIMCHECK
 70
     0
  9
$PEXTMIN
 10
1.000000000000000E+20
 20
1.000000000000000E+20
 30
1.000000000000000E+20
  9
$PEXTMAX
 10
-1.000000000000000E+20
 20
-1.000000000000000E+20
 30
-1.000000000000000E+20
  9
$PLIMMIN
 10
0.0
 20
0.0
  9
$PLIMMAX
 10
12.0
 20
9.0
  9
$UNITMODE
 70
     0
  9
$VISRETAIN
 70
     0
  9
$PLINEGEN
 70
     0
  9
$PSLTSCALE
 70
     1
  9
$TREEDEPTH
 70
  3020
  9
$CMLSTYLE
  2
Standard
  9
$CMLJUST
 70
     0
  9
$CMLSCALE
 40
1.0
  9
$PROXYGRAPHICS
 70
     1
  9
$MEASUREMENT
 70
     0
  9
$CELWEIGHT
370
    -1
  9
$ENDCAPS
280
     0
  9
$JOINSTYLE
280
     0
  9
$LWDISPLAY
290
     0
  9
$INSUNITS
 70
     0
  9
$HYPERLINKBASE
  1

  9
$STYLESHEET
  1

  9
$XEDIT
290
     1
  9
$CEPSNTYPE
380
     0
  9
$PSTYLEMODE
290
     1
  9
$FINGERPRINTGUID
  2
{2E944AF2-18B1-4A2B-BCAA-F4DA0E17B369}
  9
$VERSIONGUID
  2
{A1B3BBB3-5BE2-4D6E-95D5-01B069BCFF71}
  9
$EXTNAMES
290
     1
  9
$PSVPSCALE
 40
0.0
  9
$OLESTARTUP
290
     0
  0
ENDSEC
  0
SECTION
  2
CLASSES
  0
CLASS
  1
ACDBDICTIONARYWDFLT
  2
AcDbDictionaryWithDefault
  3
AutoCAD 2000
 90
        0
280
     0
281
     0
  0
CLASS
  1
ACDBPLACEHOLDER
  2
AcDbPlaceHolder
  3
AutoCAD 2000
 90
        0
280
     0
281
     0
  0
CLASS
  1
LAYOUT
  2
AcDbLayout
  3
AutoCAD 2000
 90
        0
280
     0
281
     0
  0
CLASS
  1
AMGSETTINGSOBJ
  2
AmgSettingsObj
  3
"AcadM|Product Description: AutoCAD Mechanical 2000|Company: Autodesk"
 90
        0
280
     0
281
     0
  0
CLASS
  1
ACME_DOCUMENT
  2
AcMeDbDoc
  3
AcMeServices
 90
        0
280
     0
281
     0
  0
CLASS
  1
ACMESCOPE
  2
AcMeScope
  3
AcMeServices
 90
        0
280
     0
281
     0
  0
CLASS
  1
ACMECOMMANDHISTORY
  2
AcMeCommandHistory
  3
AcMeServices
 90
        0
280
     0
281
     0
  0
CLASS
  1
ACIMSYSVARMAN
  2
AcImSysVarManager
  3
AcMeServices
 90
        0
280
     0
281
     0
  0
CLASS
  1
ACIMREALSYSVAR
  2
AcImRealSysVar
  3
AcMeServices
 90
        0
280
     0
281
     0
  0
CLASS
  1
ACIMINTSYSVAR
  2
AcImIntSysVar
  3
AcMeServices
 90
        0
280
     0
281
     0
  0
CLASS
  1
ACMEDRAWINGMAN
  2
AcMeDrawingMan
  3
AcMeServices
 90
        0
280
     0
281
     0
  0
CLASS
  1
ACMEVIEW
  2
AcMeView
  3
AcMeServices
 90
        0
280
     0
281
     0
  0
CLASS
  1
ACDBENTITYCACHE
  2
AcMeEntityCache
  3
AcMeServices
 90
        0
280
     0
281
     0
  0
CLASS
  1
GSMANAGER
  2
AcMeGSManager
  3
AcMeServices
 90
        0
280
     0
281
     0
  0
CLASS
  1
AMDTINTERNALREACTOR
  2
AmdtInternalReactor
  3
AcMeServices
 90
        0
280
     0
281
     0
  0
CLASS
  1
ACMESTATEMGR
  2
AcMeStateMgr
  3
AcMeServices
 90
        0
280
     0
281
     0
  0
CLASS
  1
ACGREFMASTER
  2
AcGrefMaster
  3
AcAttribServices
 90
        0
280
     0
281
     0
  0
CLASS
  1
AM_DRAWING_MGR
  2
AcDmDwgMgr
  3
AcMechDwgViewMgmt
 90
        0
280
     0
281
     0
  0
CLASS
  1
AM_DWG_DOCUMENT
  2
AcDmDwgDocument
  3
AcMechDwgViewMgmt
 90
        0
280
     0
281
     0
  0
CLASS
  1
AM_DWG_SHEET
  2
AcDmSheet
  3
AcMechDwgViewMgmt
 90
        0
280
     0
281
     0
  0
CLASS
  1
AM_VIEWDIMPARMAP
  2
AcDmViewDimParMap
  3
AcMechDwgViewMgmt
 90
        0
280
     0
281
     0
  0
CLASS
  1
AM_DWGMGR_NAME
  2
AcDmDwgMgrName
  3
AcMechDwgViewMgmt
 90
        0
280
     0
281
     0
  0
CLASS
  1
ACME_DATABASE
  2
AcMeDbDatabase
  3
AcMeServices
 90
        0
280
     0
281
     0
  0
CLASS
  1
ACRFINSADJUSTERMGR
  2
AcRfInsAdjusterMgr
  3
AcMeServices
 90
        0
280
     0
281
     0
  0
CLASS
  1
ACGREFACADMASTER
  2
AcGrefacadMaster
  3
AcGrefServices
 90
        0
280
     0
281
     0
  0
CLASS
  1
AMDTMENUSTATEMGR
  2
AmdtMenuStateMgr
  3
McadcomServices
 90
        0
280
     0
281
     0
  0
CLASS
  1
AMDTMCOMMENUSTATE
  2
AmdtMcomMenuState
  3
McadcomServices
 90
        0
280
     0
281
     0
  0
CLASS
  1
AMIMASTER
  2
AmiMaster
  3
AmiServices
 90
        0
280
     0
281
     0
  0
CLASS
  1
ASAPP
  2
AcAsAppObject
  3
AutoSurfServices
 90
        0
280
     0
281
     0
  0
CLASS
  1
IM_STATIC_MAN
  2
AcImStaticVarManager
  3
AcMeServices
 90
        0
280
     0
281
     0
  0
CLASS
  1
ACIMSTRSYSVAR
  2
AcImStrSysVar
  3
AcMeServices
 90
        0
280
     0
281
     0
  0
CLASS
  1
ACIMDBLSTATICVAR
  2
AcImDblStaticVar
  3
AcMeServices
 90
        0
280
     0
281
     0
  0
CLASS
  1
ACIMSTRSTATICVAR
  2
AcImStrStaticVar
  3
AcMeServices
 90
        0
280
     0
281
     0
  0
CLASS
  1
ACIMINTSTATICVAR
  2
AcImIntStaticVar
  3
AcMeServices
 90
        0
280
     0
281
     0
  0
CLASS
  1
ACASGREFMASTER
  2
AcAsGrefMaster
  3
AutoSurfResolverServices
 90
        0
280
     0
281
     0
  0
CLASS
  1
ACADGREFMODULE
  2
AcAdGrefModule
  3
AdGrefServices
 90
        0
280
     0
281
     0
  0
CLASS
  1
AMDTMAPISURFMOUDULE
  2
AmdtMApiSurfModule
  3
MApiSurfServices
 90
        0
280
     0
281
     0
  0
CLASS
  1
MAPIAMMOUDLE
  2
MApiAmModule
  3
MApiAmServices
 90
        0
280
     0
281
     0
  0
CLASS
  1
AMDTADMENUSTATE
  2
AmdtAdMenuState
  3
DesignerServices
 90
        0
280
     0
281
     0
  0
CLASS
  1
ADAPPL
  2
AcAdAppl
  3
DesignerServices
 90
        0
280
     0
281
     0
  0
CLASS
  1
DEPMGR
  2
AcAdDepMgr
  3
DesignerServices
 90
        0
280
     0
281
     0
  0
CLASS
  1
PARAMMGR
  2
AcAdParamMgr
  3
DesignerServices
 90
        0
280
     0
281
     0
  0
CLASS
  1
PARAMSCOPE
  2
AcAdParamScope
  3
DesignerServices
 90
        0
280
     0
281
     0
  0
CLASS
  1
NAMEDAPPL
  2
AcAdNamedAppl
  3
DesignerServices
 90
        0
280
     0
281
     0
  0
CLASS
  1
AMDTDMMENUSTATE
  2
AmdtDmMenuState
  3
AcMechDwgViewMgmt
 90
        0
280
     0
281
     0
  0
CLASS
  1
MAPIADMODULE
  2
MApiAdModule
  3
MApiAdServices
 90
        0
280
     0
281
     0
  0
CLASS
  1
AMDTAMMENUSTATE
  2
AmdtAmMenuState
  3
DesignerAssemblies
 90
        0
280
     0
281
     0
  0
CLASS
  1
ACAMPROJECT
  2
AcAmProject
  3
DesignerAssemblies
 90
        0
280
     0
281
     0
  0
CLASS
  1
ACAMGRCOMPDEF
  2
AcAmGrCompDef
  3
DesignerAssemblies
 90
        0
280
     0
281
     0
  0
CLASS
  1
ACCMCONTEXT
  2
AcCmContext
  3
DesignerAssemblies
 90
        0
280
     0
281
     0
  0
CLASS
  1
ACAMCOMPDEF
  2
AcAmCompDef
  3
DesignerAssemblies
 90
        0
280
     0
281
     0
  0
CLASS
  1
ACAMCOMPDEFMGR
  2
AcAmCompDefMgr
  3
DesignerAssemblies
 90
        0
280
     0
281
     0
  0
CLASS
  1
AMCONTEXTMGR
  2
AcAmContextMgr
  3
DesignerAssemblies
 90
        0
280
     0
281
     0
  0
CLASS
  1
ACAMCONTEXTMODELER
  2
AcAmContextModeler
  3
DesignerAssemblies
 90
        0
280
     0
281
     0
  0
CLASS
  1
ACMDATADICTIONARY
  2
AcmDataDictionary
  3
"AcmSymBB|Product Description: AutoCAD Mechanical 2000|Company: Autodesk"
 90
        0
280
     0
281
     0
  0
CLASS
  1
ACMDATAENTRYBLOCK
  2
AcmDataEntryBlock
  3
"AcmSymBB|Product Description: AutoCAD Mechanical 2000|Company: Autodesk"
 90
        0
280
     0
281
     0
  0
CLASS
  1
CATALOGSTATE
  2
AcAmCatalogState
  3
DesignerAssemblies
 90
        0
280
     0
281
     0
  0
CLASS
  1
ACAMGRCOMPDEFSET
  2
AcAmGrCompDefSet
  3
DesignerAssemblies
 90
        0
280
     0
281
     0
  0
CLASS
  1
AMDTBROWSERDBTAB
  2
AmdtBrowserDbTab
  3
McadcomServices
 90
        0
280
     0
281
     0
  0
CLASS
  1
CBROWSERAPPOBJECT
  2
CBrowserAppObject
  3
McadcomServices
 90
        0
280
     0
281
     0
  0
CLASS
  1
DM_PLACEHOLDER
  2
AcDmSelsetPlaceholder
  3
AcMechDwgViewMgmt
 90
        0
280
     0
281
     0
  0
CLASS
  1
AMGOBJPROPCFG
  2
AmgObjPropCfg
  3
"AmgLay|Product Description: AutoCAD Mechanical 2000|Company: Autodesk"
 90
        1
280
     0
281
     0
  0
CLASS
  1
ACAMGFILTERDAT
  2
AcAmgFilterDat
  3
"AcadM|Product Description: AutoCAD Mechanical 2000|Company: Autodesk"
 90
        0
280
     0
281
     0
  0
CLASS
  1
AMDTFORMULAUPDATEDISPATCHER
  2
AmdtFormulaUpdateDispatcher
  3
AcMeServices
 90
        0
280
     0
281
     0
  0
CLASS
  1
LAYER_INDEX
  2
AcDbLayerIndex
  3
AutoCAD 2000
 90
        0
280
     0
281
     0
  0
CLASS
  1
IDBUFFER
  2
AcDbIdBuffer
  3
AutoCAD 2000
 90
        0
280
     0
281
     0
  0
CLASS
  1
DICTIONARYVAR
  2
AcDbDictionaryVar
  3
AutoCAD 2000
 90
        0
280
     0
281
     0
  0
ENDSEC
  0
SECTION
  2
TABLES
  0
TABLE
  2
VPORT
  5
8
330
0
100
AcDbSymbolTable
 70
     5
  0
VPORT
  5
C0E
330
8
100
AcDbSymbolTableRecord
100
AcDbViewportTableRecord
  2
*Active
 70
     0
 10
0.0
 20
0.0
 11
1.0
 21
1.0
 12
0.0
 22
0.0
 13
0.0
 23
0.0
 14
0.5
 24
0.5
 15
1.0
 25
1.0
 16
0.0
 26
0.0
 36
1.0
 17
349.0850670118277
 27
234.1514430913119
 37
0.0
 40
937.3160727882517
 41
1.489721886336154
 42
50.0
 43
0.0
 44
0.0
 50
0.0
 51
0.0
 71
     0
 72
 20000
 73
     1
 74
     1
 75
     0
 76
     0
 77
     0
 78
     0
281
     0
 65
     0
110
0.0
120
0.0
130
0.0
111
1.0
121
0.0
131
0.0
112
0.0
122
1.0
132
0.0
 79
     0
146
0.0
  0
ENDTAB
  0
TABLE
  2
LTYPE
  5
5
330
0
100
AcDbSymbolTable
 70
    19
  0
LTYPE
  5
13
330
5
100
AcDbSymbolTableRecord
100
AcDbLinetypeTableRecord
  2
ByBlock
 70
     0
  3

 72
    65
 73
     0
 40
0.0
  0
LTYPE
  5
14
330
5
100
AcDbSymbolTableRecord
100
AcDbLinetypeTableRecord
  2
ByLayer
 70
     0
  3

 72
    65
 73
     0
 40
0.0
  0
LTYPE
  5
15
330
5
100
AcDbSymbolTableRecord
100
AcDbLinetypeTableRecord
  2
CONTINUOUS
 70
     0
  3
Solid line
 72
    65
 73
     0
 40
0.0
  0
LTYPE
  5
23
330
5
100
AcDbSymbolTableRecord
100
AcDbLinetypeTableRecord
  2
BYLAYER
 70
     0
  3

 72
    65
 73
     0
 40
0.0
  0
LTYPE
  5
24
330
5
100
AcDbSymbolTableRecord
100
AcDbLinetypeTableRecord
  2
ITTEN1
 70
     0
  3

 72
    65
 73
     4
 40
8.199999999999997
 49
5.0
 74
     0
 49
-1.0
 74
     0
 49
1.199999999999999
 74
     0
 49
-1.0
 74
     0
  0
LTYPE
  5
25
330
5
100
AcDbSymbolTableRecord
100
AcDbLinetypeTableRecord
  2
TENSEN2
 70
     0
  3

 72
    65
 73
     2
 40
2.1
 49
1.5
 74
     0
 49
-0.6
 74
     0
  0
LTYPE
  5
1F6
330
5
100
AcDbSymbolTableRecord
100
AcDbLinetypeTableRecord
  2
HIDDEN
 70
     0
  3
Hidden __ __ __ __ __ __ __ __ __ __ __ __ __ _
 72
    65
 73
     2
 40
0.375
 49
0.25
 74
     0
 49
-0.125
 74
     0
  0
LTYPE
  5
1F7
330
5
100
AcDbSymbolTableRecord
100
AcDbLinetypeTableRecord
  2
PHANTOM2
 70
     0
  3
Phantom (.5x) ___ _ _ ___ _ _ ___ _ _ ___ _ _
 72
    65
 73
     6
 40
1.25
 49
0.625
 74
     0
 49
-0.125
 74
     0
 49
0.125
 74
     0
 49
-0.125
 74
     0
 49
0.125
 74
     0
 49
-0.125
 74
     0
  0
LTYPE
  5
1F8
330
5
100
AcDbSymbolTableRecord
100
AcDbLinetypeTableRecord
  2
CENTER
 70
     0
  3
Center ____ _ ____ _ ____ _ ____ _ ____ _ ____
 72
    65
 73
     4
 40
2.0
 49
1.25
 74
     0
 49
-0.25
 74
     0
 49
0.25
 74
     0
 49
-0.25
 74
     0
  0
LTYPE
  5
25A
330
5
100
AcDbSymbolTableRecord
100
AcDbLinetypeTableRecord
  2
ASULTYPE
 70
     0
  3
実線
 72
    65
 73
     2
 40
3.0
 49
2.5
 74
     0
 49
0.5
 74
     0
  0
LTYPE
  5
25B
330
5
100
AcDbSymbolTableRecord
100
AcDbLinetypeTableRecord
  2
ASVLTYPE
 70
     0
  3
__ __ __ __ __ __ __ __ __ __ __ __ __ __ __ __ __ __ __ __ __
 72
    65
 73
     2
 40
0.75
 49
0.5
 74
     0
 49
-0.25
 74
     0
  0
LTYPE
  5
29C
330
5
100
AcDbSymbolTableRecord
100
AcDbLinetypeTableRecord
  2
AM_ISO02W050
 70
     0
  3
__ __ __ __ __ __ __ __ __ __ __ __ __ __ __
 72
    65
 73
     2
 40
7.5
 49
6.0
 74
     0
 49
-1.5
 74
     0
  0
LTYPE
  5
29D
330
5
100
AcDbSymbolTableRecord
100
AcDbLinetypeTableRecord
  2
AM_ISO08W050
 70
     0
  3
____ . ____ . ____ . ____ . ____ . ____ . ____
 72
    65
 73
     4
 40
18.0
 49
12.0
 74
     0
 49
-1.5
 74
     0
 49
3.0
 74
     0
 49
-1.5
 74
     0
  0
LTYPE
  5
29E
330
5
100
AcDbSymbolTableRecord
100
AcDbLinetypeTableRecord
  2
AM_ISO09W050
 70
     0
  3
_____ . . _____ . . _____ . . ____ .. ____
 72
    65
 73
     6
 40
22.5
 49
12.0
 74
     0
 49
-1.5
 74
     0
 49
3.0
 74
     0
 49
-1.5
 74
     0
 49
3.0
 74
     0
 49
-1.5
 74
     0
  0
LTYPE
  5
29F
330
5
100
AcDbSymbolTableRecord
100
AcDbLinetypeTableRecord
  2
Amconstr
 70
     0
  3
_______________________
 72
    65
 73
     2
 40
9999.0
 49
9999.0
 74
     0
 49
0.0
 74
     0
  0
LTYPE
  5
2A0
330
5
100
AcDbSymbolTableRecord
100
AcDbLinetypeTableRecord
  2
AM_ISO08W050x2
 70
     0
  3
__ . __ . __ . __ . __ . __
 72
    65
 73
     4
 40
9.0
 49
6.0
 74
     0
 49
-0.75
 74
     0
 49
1.5
 74
     0
 49
-0.75
 74
     0
  0
LTYPE
  5
2A1
330
5
100
AcDbSymbolTableRecord
100
AcDbLinetypeTableRecord
  2
AM_ISO02W050x2
 70
     0
  3
 _ _ _ _ _ _ _ _ _ _ _ _
 72
    65
 73
     2
 40
3.75
 49
3.0
 74
     0
 49
-0.75
 74
     0
  0
LTYPE
  5
2A4
330
5
100
AcDbSymbolTableRecord
100
AcDbLinetypeTableRecord
  2
Amzigzag
 70
     0
  3
/\/-/\/-/\/-/\/-/\/-/\/
 72
    65
 73
     2
 40
11.00009999999999
 49
0.0001
 74
     4
 75
   135
340
2A3
 46
0.04
 50
0.0
 44
0.0
 45
0.0
 49
-11.0
 74
     0
  0
LTYPE
  5
2A5
330
5
100
AcDbSymbolTableRecord
100
AcDbLinetypeTableRecord
  2
CENTER2
 70
     0
  3
Center (.5x) ___ _ ___ _ ___ _ ___ _ ___ _ ___
 72
    65
 73
     4
 40
1.125
 49
0.75
 74
     0
 49
-0.125
 74
     0
 49
0.125
 74
     0
 49
-0.125
 74
     0
  0
LTYPE
  5
2A6
330
5
100
AcDbSymbolTableRecord
100
AcDbLinetypeTableRecord
  2
HIDDEN2
 70
     0
  3
Hidden (.5x) _ _ _ _ _ _ _ _ _ _ _ _ _ _ _ _ _
 72
    65
 73
     2
 40
0.1875
 49
0.125
 74
     0
 49
-0.0625
 74
     0
  0
LTYPE
  5
2A7
330
5
100
AcDbSymbolTableRecord
100
AcDbLinetypeTableRecord
  2
Amzigzag2
 70
     0
  3
/\/-/\/-/\/-/\/-/\/-/\/
 72
    65
 73
     2
 40
0.4401
 49
0.0001
 74
     4
 75
   135
340
2A3
 46
0.0016
 50
0.0
 44
0.0
 45
0.0
 49
-0.4400000000000001
 74
     0
  0
ENDTAB
  0
TABLE
  2
LAYER
  5
2
330
0
100
AcDbSymbolTable
 70
     6
  0
LAYER
  5
10
330
2
100
AcDbSymbolTableRecord
100
AcDbLayerTableRecord
  2
0
 70
     0
 62
     7
  6
CONTINUOUS
370
    -3
390
F
  0
LAYER
  5
26
330
2
100
AcDbSymbolTableRecord
100
AcDbLayerTableRecord
  2
1
 70
     0
 62
     1
  6
ITTEN1
370
    -3
390
F
  0
LAYER
  5
27
330
2
100
AcDbSymbolTableRecord
100
AcDbLayerTableRecord
  2
2
 70
     0
 62
     2
  6
TENSEN2
370
    -3
390
F
  0
LAYER
  5
28
330
2
100
AcDbSymbolTableRecord
100
AcDbLayerTableRecord
  2
3
 70
     0
 62
     3
  6
CONTINUOUS
370
    -3
390
F
  0
LAYER
  5
29
330
2
100
AcDbSymbolTableRecord
100
AcDbLayerTableRecord
  2
5
 70
     0
 62
     6
  6
TENSEN2
370
    -3
390
F
  0
LAYER
  5
2B2
330
2
100
AcDbSymbolTableRecord
100
AcDbLayerTableRecord
  2
4
 70
     0
 62
     6
  6
CONTINUOUS
370
    -3
390
F
  0
ENDTAB
  0
TABLE
  2
STYLE
  5
3
330
0
100
AcDbSymbolTable
 70
     4
  0
STYLE
  5
11
330
3
100
AcDbSymbolTableRecord
100
AcDbTextStyleTableRecord
  2
STANDARD
 70
     0
 40
0.0
 41
1.0
 50
0.0
 71
     0
 42
0.2
  3
txt
  4

  0
STYLE
  5
22
330
3
100
AcDbSymbolTableRecord
100
AcDbTextStyleTableRecord
  2
BIGFONT
 70
     0
 40
6.0
 41
0.8
 50
0.0
 71
     0
 42
6.0
  3

  4
bigfont
  0
STYLE
  5
2A
330
3
100
AcDbSymbolTableRecord
100
AcDbTextStyleTableRecord
  2
EXTFONT
 70
     0
 40
6.0
 41
0.8
 50
0.0
 71
     0
 42
6.0
  3
txt.shx
  4
extfont.shx
  0
STYLE
  5
2A3
330
3
100
AcDbSymbolTableRecord
100
AcDbTextStyleTableRecord
  2

 70
     1
 40
0.0
 41
1.0
 50
0.0
 71
     0
 42
6.0
  3
ltypeshp.shx
  4

  0
ENDTAB
  0
TABLE
  2
VIEW
  5
6
330
0
100
AcDbSymbolTable
 70
     0
  0
ENDTAB
  0
TABLE
  2
UCS
  5
7
330
0
100
AcDbSymbolTable
 70
     0
  0
ENDTAB
  0
TABLE
  2
APPID
  5
9
330
0
100
AcDbSymbolTable
 70
    12
  0
APPID
  5
12
330
9
100
AcDbSymbolTableRecord
100
AcDbRegAppTableRecord
  2
ACAD
 70
     0
  0
APPID
  5
1D5
330
9
100
AcDbSymbolTableRecord
100
AcDbRegAppTableRecord
  2
GENIUS_GENDIM_13
 70
     0
  0
APPID
  5
1D6
330
9
100
AcDbSymbolTableRecord
100
AcDbRegAppTableRecord
  2
GENIUS_GENDTOL_13
 70
     0
  0
APPID
  5
1D7
330
9
100
AcDbSymbolTableRecord
100
AcDbRegAppTableRecord
  2
GENIUS_GE3DTOL_13
 70
     0
  0
APPID
  5
1D9
330
9
100
AcDbSymbolTableRecord
100
AcDbRegAppTableRecord
  2
MCAD_NO_VIS
 70
     0
  0
APPID
  5
1DA
330
9
100
AcDbSymbolTableRecord
100
AcDbRegAppTableRecord
  2
ACAD_TEMP_GRAPHIC
 70
     0
  0
APPID
  5
20D
330
9
100
AcDbSymbolTableRecord
100
AcDbRegAppTableRecord
  2
AD_DRAW
 70
     0
  0
APPID
  5
210
330
9
100
AcDbSymbolTableRecord
100
AcDbRegAppTableRecord
  2
ACATTRIBSERVICES
 70
     0
  0
APPID
  5
25C
330
9
100
AcDbSymbolTableRecord
100
AcDbRegAppTableRecord
  2
ASURF_PCURVE_APPNAME
 70
     0
  0
APPID
  5
28B
330
9
100
AcDbSymbolTableRecord
100
AcDbRegAppTableRecord
  2
DESIGNERASSEMBLIES
 70
     0
  0
APPID
  5
293
330
9
100
AcDbSymbolTableRecord
100
AcDbRegAppTableRecord
  2
ACADM_DIM_EDIT
 70
     0
  0
APPID
  5
294
330
9
100
AcDbSymbolTableRecord
100
AcDbRegAppTableRecord
  2
AMDT_DM_ADJ
 70
     0
  0
ENDTAB
  0
TABLE
  2
DIMSTYLE
  5
A
330
0
100
AcDbSymbolTable
 70
     1
100
AcDbDimStyleTable
 71
     0
  0
DIMSTYLE
105
2B
330
A
100
AcDbSymbolTableRecord
100
AcDbDimStyleTableRecord
  2
STANDARD
 70
     0
279
     2
340
22
  0
ENDTAB
  0
TABLE
  2
BLOCK_RECORD
  5
1
330
0
100
AcDbSymbolTable
 70
     3
  0
BLOCK_RECORD
  5
1E
102
{ACAD_XDICTIONARY
360
58D
102
}
330
1
100
AcDbSymbolTableRecord
100
AcDbBlockTableRecord
  2
*Model_Space
340
21
  0
BLOCK_RECORD
  5
1A
330
1
100
AcDbSymbolTableRecord
100
AcDbBlockTableRecord
  2
*Paper_Space
340
1D
  0
BLOCK_RECORD
  5
282
330
1
100
AcDbSymbolTableRecord
100
AcDbBlockTableRecord
  2
*U0
340
0
  0
ENDTAB
  0
ENDSEC
  0
SECTION
  2
BLOCKS
  0
BLOCK
  5
1F
330
1E
100
AcDbEntity
  8
0
100
AcDbBlockBegin
  2
*Model_Space
 70
     0
 10
0.0
 20
0.0
 30
0.0
  3
*Model_Space
  1

  0
ENDBLK
  5
20
330
1E
100
AcDbEntity
  8
0
100
AcDbBlockEnd
  0
BLOCK
  5
1B
330
1A
100
AcDbEntity
 67
     1
  8
0
100
AcDbBlockBegin
  2
*Paper_Space
 70
     0
 10
0.0
 20
0.0
 30
0.0
  3
*Paper_Space
  1

  0
ENDBLK
  5
1C
330
1A
100
AcDbEntity
 67
     1
  8
0
100
AcDbBlockEnd
  0
BLOCK
  5
283
330
282
100
AcDbEntity
  8
0
100
AcDbBlockBegin
  2
*U0
 70
     1
 10
0.0
 20
0.0
 30
0.0
  3
*U0
  1

  0
ENDBLK
  5
284
330
282
100
AcDbEntity
  8
0
100
AcDbBlockEnd
  0
ENDSEC
  0
SECTION
  2
ENTITIES
  0
ARC
  5
43
330
1E
100
AcDbEntity
  8
0
100
AcDbCircle
 10
49.19915812701238
 20
263.5
 30
0.0
 40
26.0
100
AcDbArc
 50
0.0
 51
180.0
  0
LINE
  5
44
330
1E
100
AcDbEntity
  8
0
100
AcDbLine
 10
105.1991581270123
 20
188.4999999999998
 30
0.0
 11
105.1991581270123
 21
203.5
 31
0.0
  0
LINE
  5
45
330
1E
100
AcDbEntity
  8
0
100
AcDbLine
 10
105.1991581270123
 20
203.5
 30
0.0
 11
102.1991581270123
 21
206.4999999999999
 31
0.0
  0
LINE
  5
46
330
1E
100
AcDbEntity
  8
0
100
AcDbLine
 10
102.1991581270123
 20
206.4999999999999
 30
0.0
 11
77.19915812701237
 21
206.4999999999999
 31
0.0
  0
LINE
  5
47
330
1E
100
AcDbEntity
  8
0
100
AcDbLine
 10
77.19915812701237
 20
206.4999999999999
 30
0.0
 11
75.19915812701237
 21
208.4999999999999
 31
0.0
  0
LINE
  5
48
330
1E
100
AcDbEntity
  8
0
100
AcDbLine
 10
75.19915812701237
 20
233.4999999999999
 30
0.0
 11
75.19915812701237
 21
263.5
 31
0.0
  0
LINE
  5
49
330
1E
100
AcDbEntity
  8
0
100
AcDbLine
 10
-3.800841872987575
 20
206.4999999999999
 30
0.0
 11
21.19915812701243
 21
206.4999999999999
 31
0.0
  0
LINE
  5
4A
330
1E
100
AcDbEntity
  8
0
100
AcDbLine
 10
21.19915812701243
 20
206.4999999999999
 30
0.0
 11
23.19915812701239
 21
208.4999999999999
 31
0.0
  0
LINE
  5
4B
330
1E
100
AcDbEntity
  8
0
100
AcDbLine
 10
23.19915812701239
 20
233.4999999999999
 30
0.0
 11
23.19915812701239
 21
263.5
 31
0.0
  0
LINE
  5
4C
330
1E
100
AcDbEntity
  8
0
100
AcDbLine
 10
105.1991581270123
 20
188.4999999999998
 30
0.0
 11
72.19915812701237
 21
188.4999999999998
 31
0.0
  0
LINE
  5
4D
330
1E
100
AcDbEntity
  8
0
100
AcDbLine
 10
-6.800841872987575
 20
188.4999999999998
 30
0.0
 11
-6.800841872987575
 21
203.5
 31
0.0
  0
LINE
  5
4E
330
1E
100
AcDbEntity
  8
0
100
AcDbLine
 10
-6.800841872987575
 20
203.5
 30
0.0
 11
-3.800841872987575
 21
206.4999999999999
 31
0.0
  0
LINE
  5
4F
330
1E
100
AcDbEntity
  8
0
100
AcDbLine
 10
72.19915812701237
 20
188.4999999999998
 30
0.0
 11
72.19915812701237
 21
203.5
 31
0.0
  0
LINE
  5
50
330
1E
100
AcDbEntity
  8
0
100
AcDbLine
 10
72.19915812701237
 20
203.5
 30
0.0
 11
73.19915812701236
 21
204.4999999999999
 31
0.0
  0
LINE
  5
51
330
1E
100
AcDbEntity
  8
0
100
AcDbLine
 10
73.19915812701236
 20
204.4999999999999
 30
0.0
 11
104.1991581270123
 21
204.4999999999999
 31
0.0
  0
LINE
  5
52
330
1E
100
AcDbEntity
  8
0
100
AcDbLine
 10
26.19915812701243
 20
188.4999999999998
 30
0.0
 11
26.19915812701243
 21
203.5
 31
0.0
  0
LINE
  5
53
330
1E
100
AcDbEntity
  8
0
100
AcDbLine
 10
26.19915812701243
 20
203.5
 30
0.0
 11
25.19915812701244
 21
204.4999999999999
 31
0.0
  0
LINE
  5
54
330
1E
100
AcDbEntity
  8
0
100
AcDbLine
 10
25.19915812701244
 20
204.4999999999999
 30
0.0
 11
-5.800841872987575
 21
204.4999999999999
 31
0.0
  0
CIRCLE
  5
55
330
1E
100
AcDbEntity
  8
0
100
AcDbCircle
 10
49.19915812701238
 20
263.5
 30
0.0
 40
10.0
  0
CIRCLE
  5
56
330
1E
100
AcDbEntity
  8
3
100
AcDbCircle
 10
49.19915812701238
 20
263.5
 30
0.0
 40
8.5
  0
LINE
  5
57
330
1E
100
AcDbEntity
  8
1
100
AcDbLine
 10
94.19915812701237
 20
181.4999999999998
 30
0.0
 11
94.19915812701237
 21
211.5
 31
0.0
  0
LINE
  5
58
330
1E
100
AcDbEntity
  8
1
100
AcDbLine
 10
4.199158127012424
 20
181.4999999999998
 30
0.0
 11
4.199158127012424
 21
211.5
 31
0.0
  0
LINE
  5
59
330
1E
100
AcDbEntity
  8
2
100
AcDbLine
 10
9.699158127012424
 20
188.4999999999998
 30
0.0
 11
9.699158127012424
 21
206.4999999999999
 31
0.0
  0
LINE
  5
5A
330
1E
100
AcDbEntity
  8
2
100
AcDbLine
 10
-1.300841872987575
 20
188.4999999999998
 30
0.0
 11
-1.300841872987575
 21
206.4999999999999
 31
0.0
  0
LINE
  5
5B
330
1E
100
AcDbEntity
  8
2
100
AcDbLine
 10
99.69915812701238
 20
188.4999999999998
 30
0.0
 11
99.69915812701238
 21
206.4999999999999
 31
0.0
  0
LINE
  5
5C
330
1E
100
AcDbEntity
  8
2
100
AcDbLine
 10
88.69915812701236
 20
188.4999999999998
 30
0.0
 11
88.69915812701236
 21
206.4999999999999
 31
0.0
  0
LINE
  5
5D
330
1E
100
AcDbEntity
  8
0
100
AcDbLine
 10
72.19915812701237
 20
188.4999999999998
 30
0.0
 11
70.19915812701238
 21
191.5
 31
0.0
  0
LINE
  5
5E
330
1E
100
AcDbEntity
  8
0
100
AcDbLine
 10
70.19915812701238
 20
191.5
 30
0.0
 11
28.19915812701238
 21
191.5
 31
0.0
  0
LINE
  5
5F
330
1E
100
AcDbEntity
  8
0
100
AcDbLine
 10
28.19915812701238
 20
191.5
 30
0.0
 11
26.19915812701243
 21
188.4999999999998
 31
0.0
  0
LINE
  5
60
330
1E
100
AcDbEntity
  8
0
100
AcDbLine
 10
26.19915812701243
 20
188.4999999999998
 30
0.0
 11
-6.800841872987575
 21
188.4999999999998
 31
0.0
  0
LINE
  5
61
330
1E
100
AcDbEntity
  8
0
100
AcDbLine
 10
49.19915812701238
 20
199.5
 30
0.0
 11
66.19915812701238
 21
199.5
 31
0.0
  0
LINE
  5
62
330
1E
100
AcDbEntity
  8
0
100
AcDbLine
 10
49.19915812701238
 20
199.5
 30
0.0
 11
32.19915812701238
 21
199.5
 31
0.0
  0
LINE
  5
63
330
1E
100
AcDbEntity
  8
0
100
AcDbLine
 10
69.19915812701238
 20
227.4999999999999
 30
0.0
 11
69.19915812701238
 21
239.5
 31
0.0
  0
LINE
  5
64
330
1E
100
AcDbEntity
  8
0
100
AcDbLine
 10
29.19915812701244
 20
227.4999999999999
 30
0.0
 11
29.19915812701244
 21
239.5
 31
0.0
  0
ARC
  5
65
330
1E
100
AcDbEntity
  8
0
100
AcDbCircle
 10
49.19915812701238
 20
262.5
 30
0.0
 40
25.0
100
AcDbArc
 50
233.1301023541559
 51
306.8698976458438
  0
ARC
  5
66
330
1E
100
AcDbEntity
  8
0
100
AcDbCircle
 10
66.19915812701238
 20
240.1666666666665
 30
0.0
 40
3.073181485764292
100
AcDbArc
 50
347.4711922908485
 51
130.6012946450042
  0
ARC
  5
67
330
1E
100
AcDbEntity
  8
0
100
AcDbCircle
 10
32.44915812701243
 20
239.7499999999999
 30
0.0
 40
3.259601202601324
100
AcDbArc
 50
57.52880770915155
 51
184.3987053549955
  0
ARC
  5
68
330
1E
100
AcDbEntity
  8
0
100
AcDbCircle
 10
32.69915812701244
 20
203.0
 30
0.0
 40
3.535533905932736
100
AcDbArc
 50
188.130102354156
 51
261.869897645844
  0
ARC
  5
69
330
1E
100
AcDbEntity
  8
0
100
AcDbCircle
 10
65.69915812701238
 20
203.0
 30
0.0
 40
3.535533905932736
100
AcDbArc
 50
278.130102354156
 51
351.8698976458438
  0
ARC
  5
6B
330
1E
100
AcDbEntity
  8
0
100
AcDbCircle
 10
481.1054652627133
 20
239.7499999999999
 30
0.0
 40
3.259601202601324
100
AcDbArc
 50
57.52880770915155
 51
184.3987053549955
  0
ARC
  5
6C
330
1E
100
AcDbEntity
  8
0
100
AcDbCircle
 10
514.8554652627132
 20
240.1666666666665
 30
0.0
 40
3.073181485764292
100
AcDbArc
 50
347.4711922908485
 51
130.6012946450042
  0
LINE
  5
6D
330
1E
100
AcDbEntity
  8
0
100
AcDbLine
 10
471.8554652627132
 20
233.4999999999999
 30
0.0
 11
471.8554652627132
 21
263.5
 31
0.0
  0
LINE
  5
6E
330
1E
100
AcDbEntity
  8
0
100
AcDbLine
 10
523.8554652627132
 20
233.4999999999999
 30
0.0
 11
523.8554652627132
 21
263.5
 31
0.0
  0
LINE
  5
6F
330
1E
100
AcDbEntity
  8
0
100
AcDbLine
 10
474.8554652627133
 20
188.4999999999998
 30
0.0
 11
441.8554652627133
 21
188.4999999999998
 31
0.0
  0
LINE
  5
70
330
1E
100
AcDbEntity
  8
0
100
AcDbLine
 10
473.8554652627132
 20
204.4999999999999
 30
0.0
 11
442.8554652627132
 21
204.4999999999999
 31
0.0
  0
LINE
  5
71
330
1E
100
AcDbEntity
  8
0
100
AcDbLine
 10
444.8554652627132
 20
206.4999999999999
 30
0.0
 11
469.8554652627132
 21
206.4999999999999
 31
0.0
  0
LINE
  5
72
330
1E
100
AcDbEntity
  8
1
100
AcDbLine
 10
452.8554652627132
 20
182.5
 30
0.0
 11
452.8554652627132
 21
212.5
 31
0.0
  0
LINE
  5
73
330
1E
100
AcDbEntity
  8
2
100
AcDbLine
 10
447.3554652627132
 20
188.4999999999998
 30
0.0
 11
447.3554652627132
 21
206.4999999999999
 31
0.0
  0
LINE
  5
74
330
1E
100
AcDbEntity
  8
2
100
AcDbLine
 10
458.3554652627133
 20
188.4999999999998
 30
0.0
 11
458.3554652627133
 21
206.4999999999999
 31
0.0
  0
LINE
  5
75
330
1E
100
AcDbEntity
  8
0
100
AcDbLine
 10
441.8554652627133
 20
188.4999999999998
 30
0.0
 11
441.8554652627133
 21
203.5
 31
0.0
  0
LINE
  5
76
330
1E
100
AcDbEntity
  8
0
100
AcDbLine
 10
441.8554652627133
 20
203.5
 30
0.0
 11
444.8554652627132
 21
206.4999999999999
 31
0.0
  0
ARC
  5
78
330
1E
100
AcDbEntity
  8
0
100
AcDbCircle
 10
497.8554652627132
 20
262.5
 30
0.0
 40
25.0
100
AcDbArc
 50
233.1301023541559
 51
306.8698976458438
  0
LINE
  5
79
330
1E
100
AcDbEntity
  8
0
100
AcDbLine
 10
497.8554652627132
 20
199.5
 30
0.0
 11
514.8554652627132
 21
199.5
 31
0.0
  0
LINE
  5
7A
330
1E
100
AcDbEntity
  8
0
100
AcDbLine
 10
518.8554652627131
 20
191.5
 30
0.0
 11
476.8554652627132
 21
191.5
 31
0.0
  0
LINE
  5
7B
330
1E
100
AcDbEntity
  8
0
100
AcDbLine
 10
497.8554652627132
 20
199.5
 30
0.0
 11
480.8554652627132
 21
199.5
 31
0.0
  0
ARC
  5
7C
330
1E
100
AcDbEntity
  8
0
100
AcDbCircle
 10
481.3554652627132
 20
203.0
 30
0.0
 40
3.535533905932736
100
AcDbArc
 50
188.130102354156
 51
261.869897645844
  0
LINE
  5
7D
330
1E
100
AcDbEntity
  8
0
100
AcDbLine
 10
474.8554652627133
 20
188.4999999999998
 30
0.0
 11
474.8554652627133
 21
203.5
 31
0.0
  0
LINE
  5
7E
330
1E
100
AcDbEntity
  8
0
100
AcDbLine
 10
476.8554652627132
 20
191.5
 30
0.0
 11
474.8554652627133
 21
188.4999999999998
 31
0.0
  0
LINE
  5
7F
330
1E
100
AcDbEntity
  8
0
100
AcDbLine
 10
469.8554652627132
 20
206.4999999999999
 30
0.0
 11
471.8554652627132
 21
208.4999999999999
 31
0.0
  0
LINE
  5
80
330
1E
100
AcDbEntity
  8
0
100
AcDbLine
 10
477.8554652627132
 20
227.4999999999999
 30
0.0
 11
477.8554652627132
 21
239.5
 31
0.0
  0
LINE
  5
81
330
1E
100
AcDbEntity
  8
0
100
AcDbLine
 10
474.8554652627133
 20
203.5
 30
0.0
 11
473.8554652627132
 21
204.4999999999999
 31
0.0
  0
LINE
  5
82
330
1E
100
AcDbEntity
  8
1
100
AcDbLine
 10
542.8554652627131
 20
182.5
 30
0.0
 11
542.8554652627131
 21
212.5
 31
0.0
  0
LINE
  5
83
330
1E
100
AcDbEntity
  8
0
100
AcDbLine
 10
553.8554652627132
 20
188.4999999999998
 30
0.0
 11
520.8554652627132
 21
188.4999999999998
 31
0.0
  0
LINE
  5
84
330
1E
100
AcDbEntity
  8
0
100
AcDbLine
 10
521.8554652627132
 20
204.4999999999999
 30
0.0
 11
552.8554652627132
 21
204.4999999999999
 31
0.0
  0
LINE
  5
85
330
1E
100
AcDbEntity
  8
0
100
AcDbLine
 10
550.8554652627132
 20
206.4999999999999
 30
0.0
 11
525.8554652627132
 21
206.4999999999999
 31
0.0
  0
ARC
  5
86
330
1E
100
AcDbEntity
  8
0
100
AcDbCircle
 10
514.3554652627131
 20
203.0
 30
0.0
 40
3.535533905932736
100
AcDbArc
 50
278.130102354156
 51
351.8698976458438
  0
LINE
  5
87
330
1E
100
AcDbEntity
  8
0
100
AcDbLine
 10
520.8554652627132
 20
188.4999999999998
 30
0.0
 11
520.8554652627132
 21
203.5
 31
0.0
  0
LINE
  5
88
330
1E
100
AcDbEntity
  8
0
100
AcDbLine
 10
520.8554652627132
 20
188.4999999999998
 30
0.0
 11
518.8554652627131
 21
191.5
 31
0.0
  0
LINE
  5
89
330
1E
100
AcDbEntity
  8
0
100
AcDbLine
 10
517.8554652627131
 20
227.4999999999999
 30
0.0
 11
517.8554652627131
 21
239.5
 31
0.0
  0
LINE
  5
8A
330
1E
100
AcDbEntity
  8
0
100
AcDbLine
 10
525.8554652627132
 20
206.4999999999999
 30
0.0
 11
523.8554652627132
 21
208.4999999999999
 31
0.0
  0
LINE
  5
8B
330
1E
100
AcDbEntity
  8
0
100
AcDbLine
 10
520.8554652627132
 20
203.5
 30
0.0
 11
521.8554652627132
 21
204.4999999999999
 31
0.0
  0
LINE
  5
8C
330
1E
100
AcDbEntity
  8
2
100
AcDbLine
 10
537.3554652627132
 20
188.4999999999998
 30
0.0
 11
537.3554652627132
 21
206.4999999999999
 31
0.0
  0
LINE
  5
8D
330
1E
100
AcDbEntity
  8
2
100
AcDbLine
 10
548.3554652627132
 20
188.4999999999998
 30
0.0
 11
548.3554652627132
 21
206.4999999999999
 31
0.0
  0
LINE
  5
8E
330
1E
100
AcDbEntity
  8
0
100
AcDbLine
 10
553.8554652627132
 20
188.4999999999998
 30
0.0
 11
553.8554652627132
 21
203.5
 31
0.0
  0
LINE
  5
8F
330
1E
100
AcDbEntity
  8
0
100
AcDbLine
 10
553.8554652627132
 20
203.5
 30
0.0
 11
550.8554652627132
 21
206.4999999999999
 31
0.0
  0
ARC
  5
90
330
1E
100
AcDbEntity
  8
0
100
AcDbCircle
 10
497.8554652627132
 20
263.5
 30
0.0
 40
26.0
100
AcDbArc
 50
0.0
 51
180.0
  0
LINE
  5
91
330
1E
100
AcDbEntity
  8
1
100
AcDbLine
 10
530.8554652627131
 20
263.5
 30
0.0
 11
464.8554652627132
 21
263.5
 31
0.0
  0
CIRCLE
  5
92
330
1E
100
AcDbEntity
  8
0
100
AcDbCircle
 10
497.8554652627132
 20
263.5
 30
0.0
 40
15.5
  0
CIRCLE
  5
93
330
1E
100
AcDbEntity
  8
0
100
AcDbCircle
 10
49.19915812701238
 20
263.5
 30
0.0
 40
25.0
  0
LINE
  5
94
330
1E
100
AcDbEntity
  8
1
100
AcDbLine
 10
84.19915812701237
 20
263.5
 30
0.0
 11
16.19915812701243
 21
263.5
 31
0.0
  0
LINE
  5
95
330
1E
100
AcDbEntity
  8
0
100
AcDbLine
 10
306.0551828188882
 20
188.4999999999998
 30
0.0
 11
286.0551828188883
 21
188.4999999999998
 31
0.0
  0
LINE
  5
96
330
1E
100
AcDbEntity
  8
0
100
AcDbLine
 10
286.0551828188883
 20
188.4999999999998
 30
0.0
 11
286.0551828188883
 21
203.5
 31
0.0
  0
LINE
  5
97
330
1E
100
AcDbEntity
  8
0
100
AcDbLine
 10
306.0551828188882
 20
188.4999999999998
 30
0.0
 11
326.0551828188883
 21
188.4999999999998
 31
0.0
  0
LINE
  5
98
330
1E
100
AcDbEntity
  8
0
100
AcDbLine
 10
326.0551828188883
 20
188.4999999999998
 30
0.0
 11
326.0551828188883
 21
203.5
 31
0.0
  0
LINE
  5
99
330
1E
100
AcDbEntity
  8
0
100
AcDbLine
 10
326.0551828188883
 20
203.5
 30
0.0
 11
325.0551828188882
 21
204.4999999999999
 31
0.0
  0
LINE
  5
9A
330
1E
100
AcDbEntity
  8
0
100
AcDbLine
 10
325.0551828188882
 20
204.4999999999999
 30
0.0
 11
287.0551828188882
 21
204.4999999999999
 31
0.0
  0
LINE
  5
9B
330
1E
100
AcDbEntity
  8
0
100
AcDbLine
 10
287.0551828188882
 20
204.4999999999999
 30
0.0
 11
286.0551828188883
 21
203.5
 31
0.0
  0
LINE
  5
9C
330
1E
100
AcDbEntity
  8
0
100
AcDbLine
 10
321.5551828188883
 20
204.4999999999999
 30
0.0
 11
320.5551828188882
 21
206.4999999999999
 31
0.0
  0
LINE
  5
9D
330
1E
100
AcDbEntity
  8
0
100
AcDbLine
 10
320.5551828188882
 20
206.4999999999999
 30
0.0
 11
291.5551828188882
 21
206.4999999999999
 31
0.0
  0
LINE
  5
9E
330
1E
100
AcDbEntity
  8
0
100
AcDbLine
 10
291.5551828188882
 20
206.4999999999999
 30
0.0
 11
290.5551828188883
 21
204.4999999999999
 31
0.0
  0
LINE
  5
9F
330
1E
100
AcDbEntity
  8
0
100
AcDbLine
 10
322.0551828188883
 20
229.4999999999999
 30
0.0
 11
322.0551828188883
 21
288.5
 31
0.0
  0
LINE
  5
A0
330
1E
100
AcDbEntity
  8
0
100
AcDbLine
 10
322.0551828188883
 20
288.5
 30
0.0
 11
321.0551828188882
 21
289.4999999999999
 31
0.0
  0
LINE
  5
A1
330
1E
100
AcDbEntity
  8
0
100
AcDbLine
 10
321.0551828188882
 20
289.4999999999999
 30
0.0
 11
288.0551828188883
 21
289.4999999999999
 31
0.0
  0
LINE
  5
A2
330
1E
100
AcDbEntity
  8
0
100
AcDbLine
 10
288.0551828188883
 20
289.4999999999999
 30
0.0
 11
287.0551828188882
 21
288.5
 31
0.0
  0
LINE
  5
A3
330
1E
100
AcDbEntity
  8
0
100
AcDbLine
 10
287.0551828188882
 20
288.5
 30
0.0
 11
287.0551828188882
 21
278.5
 31
0.0
  0
LINE
  5
A4
330
1E
100
AcDbEntity
  8
0
100
AcDbLine
 10
287.0551828188882
 20
278.5
 30
0.0
 11
283.0551828188883
 21
277.0
 31
0.0
  0
LINE
  5
A5
330
1E
100
AcDbEntity
  8
0
100
AcDbLine
 10
283.0551828188883
 20
277.0
 30
0.0
 11
283.0551828188883
 21
250.0
 31
0.0
  0
LINE
  5
A6
330
1E
100
AcDbEntity
  8
0
100
AcDbLine
 10
283.0551828188883
 20
250.0
 30
0.0
 11
287.0551828188882
 21
248.4999999999998
 31
0.0
  0
LINE
  5
A7
330
1E
100
AcDbEntity
  8
0
100
AcDbLine
 10
287.0551828188882
 20
248.4999999999998
 30
0.0
 11
287.0551828188882
 21
238.5
 31
0.0
  0
LINE
  5
A8
330
1E
100
AcDbEntity
  8
0
100
AcDbLine
 10
287.0551828188882
 20
238.5
 30
0.0
 11
290.0551828188883
 21
237.5
 31
0.0
  0
LINE
  5
A9
330
1E
100
AcDbEntity
  8
0
100
AcDbLine
 10
290.0551828188883
 20
237.5
 30
0.0
 11
290.0551828188883
 21
229.4999999999999
 31
0.0
  0
LINE
  5
AA
330
1E
100
AcDbEntity
  8
0
100
AcDbLine
 10
290.0551828188883
 20
237.5
 30
0.0
 11
290.0551828188883
 21
260.6752527843663
 31
0.0
  0
LINE
  5
AB
330
1E
100
AcDbEntity
  8
0
100
AcDbLine
 10
287.0551828188882
 20
248.4999999999998
 30
0.0
 11
287.0551828188882
 21
278.5
 31
0.0
  0
LINE
  5
AC
330
1E
100
AcDbEntity
  8
3
100
AcDbLine
 10
289.0551828188883
 20
289.4999999999999
 30
0.0
 11
289.0551828188883
 21
265.7149497242335
 31
0.0
  0
LINE
  5
AD
330
1E
100
AcDbEntity
  8
2
100
AcDbLine
 10
311.5551828188883
 20
188.4999999999998
 30
0.0
 11
311.5551828188883
 21
206.4999999999999
 31
0.0
  0
LINE
  5
AE
330
1E
100
AcDbEntity
  8
2
100
AcDbLine
 10
300.5551828188883
 20
188.4999999999998
 30
0.0
 11
300.5551828188883
 21
206.4999999999999
 31
0.0
  0
LINE
  5
AF
330
1E
100
AcDbEntity
  8
2
100
AcDbLine
 10
322.0551828188883
 20
204.4999999999999
 30
0.0
 11
322.0551828188883
 21
191.5
 31
0.0
  0
LINE
  5
B0
330
1E
100
AcDbEntity
  8
2
100
AcDbLine
 10
290.0551828188883
 20
204.4999999999999
 30
0.0
 11
290.0551828188883
 21
191.5
 31
0.0
  0
LINE
  5
B1
330
1E
100
AcDbEntity
  8
2
100
AcDbLine
 10
290.0551828188883
 20
237.5
 30
0.0
 11
297.5551828188882
 21
235.4999999999999
 31
0.0
  0
LINE
  5
B2
330
1E
100
AcDbEntity
  8
2
100
AcDbLine
 10
297.5551828188882
 20
210.4999999999999
 30
0.0
 11
297.5551828188882
 21
202.4999999999999
 31
0.0
  0
LINE
  5
B3
330
1E
100
AcDbEntity
  8
2
100
AcDbLine
 10
297.5551828188882
 20
202.4999999999999
 30
0.0
 11
290.0551828188883
 21
199.5
 31
0.0
  0
LINE
  5
B4
330
1E
100
AcDbEntity
  8
2
100
AcDbLine
 10
322.0551828188883
 20
237.5
 30
0.0
 11
314.5551828188882
 21
235.4999999999999
 31
0.0
  0
LINE
  5
B5
330
1E
100
AcDbEntity
  8
2
100
AcDbLine
 10
314.5551828188882
 20
210.4999999999999
 30
0.0
 11
314.5551828188882
 21
202.4999999999999
 31
0.0
  0
LINE
  5
B6
330
1E
100
AcDbEntity
  8
2
100
AcDbLine
 10
314.5551828188882
 20
202.4999999999999
 30
0.0
 11
322.0551828188883
 21
199.5
 31
0.0
  0
LINE
  5
B7
330
1E
100
AcDbEntity
  8
2
100
AcDbLine
 10
322.0551828188883
 20
279.0
 30
0.0
 11
303.0551828188883
 21
279.0
 31
0.0
  0
LINE
  5
B8
330
1E
100
AcDbEntity
  8
2
100
AcDbLine
 10
303.0551828188883
 20
279.0
 30
0.0
 11
303.0551828188883
 21
247.9999999999999
 31
0.0
  0
LINE
  5
B9
330
1E
100
AcDbEntity
  8
2
100
AcDbLine
 10
303.0551828188883
 20
247.9999999999999
 30
0.0
 11
322.0551828188883
 21
247.9999999999999
 31
0.0
  0
LINE
  5
BA
330
1E
100
AcDbEntity
  8
2
100
AcDbLine
 10
303.0551828188883
 20
273.4999999999998
 30
0.0
 11
283.0551828188883
 21
273.4999999999998
 31
0.0
  0
LINE
  5
BB
330
1E
100
AcDbEntity
  8
2
100
AcDbLine
 10
303.0551828188883
 20
253.5
 30
0.0
 11
283.0551828188883
 21
253.5
 31
0.0
  0
LINE
  5
BC
330
1E
100
AcDbEntity
  8
5
100
AcDbLine
 10
283.0551828188883
 20
271.4999999999998
 30
0.0
 11
303.0551828188883
 21
271.4999999999998
 31
0.0
  0
LINE
  5
BD
330
1E
100
AcDbEntity
  8
5
100
AcDbLine
 10
283.0551828188883
 20
255.5
 30
0.0
 11
303.0551828188883
 21
255.5
 31
0.0
  0
TEXT
  5
BE
330
1E
100
AcDbEntity
  8
3
100
AcDbText
 10
493.2899112049494
 20
35.47276159120364
 30
0.0
 40
8.399999999999998
  1
スタンド・スパンナー
 41
0.8
  7
BIGFONT
100
AcDbText
  0
LINE
  5
BF
330
1E
100
AcDbEntity
  8
1
100
AcDbLine
 10
291.0551828188883
 20
269.4999999999998
 30
0.0
 11
291.0551828188883
 21
257.5
 31
0.0
  0
CIRCLE
  5
C0
330
1E
100
AcDbEntity
  8
0
100
AcDbCircle
 10
291.0551828188883
 20
263.5
 30
0.0
 40
3.0
  0
CIRCLE
  5
C1
330
1E
100
AcDbEntity
  8
0
100
AcDbCircle
 10
291.0551828188883
 20
263.5
 30
0.0
 40
2.5
  0
POLYLINE
  5
C2
330
1E
100
AcDbEntity
  8
0
100
AcDb2dPolyline
 66
     1
 10
0.0
 20
0.0
 30
0.0
 70
     1
  0
VERTEX
  5
C3
330
C2
100
AcDbEntity
  8
0
100
AcDbVertex
100
AcDb2dVertex
 10
291.0551828188883
 20
264.9999999999999
 30
0.0
  0
VERTEX
  5
C4
330
C2
100
AcDbEntity
  8
0
100
AcDbVertex
100
AcDb2dVertex
 10
289.7561447132116
 20
264.25
 30
0.0
  0
VERTEX
  5
C5
330
C2
100
AcDbEntity
  8
0
100
AcDbVertex
100
AcDb2dVertex
 10
289.7561447132116
 20
262.7499999999999
 30
0.0
  0
VERTEX
  5
C6
330
C2
100
AcDbEntity
  8
0
100
AcDbVertex
100
AcDb2dVertex
 10
291.0551828188883
 20
262.0
 30
0.0
  0
VERTEX
  5
C7
330
C2
100
AcDbEntity
  8
0
100
AcDbVertex
100
AcDb2dVertex
 10
292.354220924565
 20
262.7499999999999
 30
0.0
  0
VERTEX
  5
C8
330
C2
100
AcDbEntity
  8
0
100
AcDbVertex
100
AcDb2dVertex
 10
292.354220924565
 20
264.25
 30
0.0
  0
SEQEND
  5
C9
330
C2
100
AcDbEntity
  8
0
  0
LINE
  5
CA
330
1E
100
AcDbEntity
  8
3
100
AcDbLine
 10
289.0551828188883
 20
261.3010971423621
 30
0.0
 11
289.0551828188883
 21
237.9999999999999
 31
0.0
  0
LINE
  5
CB
330
1E
100
AcDbEntity
  8
2
100
AcDbLine
 10
74.69915812701237
 20
266.5
 30
0.0
 11
64.69915812701238
 21
266.5
 31
0.0
  0
LINE
  5
CC
330
1E
100
AcDbEntity
  8
2
100
AcDbLine
 10
74.69915812701237
 20
266.0
 30
0.0
 11
64.69915812701238
 21
266.0
 31
0.0
  0
LINE
  5
CD
330
1E
100
AcDbEntity
  8
2
100
AcDbLine
 10
74.69915812701237
 20
260.9999999999998
 30
0.0
 11
64.69915812701238
 21
260.9999999999998
 31
0.0
  0
LINE
  5
CE
330
1E
100
AcDbEntity
  8
2
100
AcDbLine
 10
74.69915812701237
 20
260.4999999999999
 30
0.0
 11
64.69915812701238
 21
260.4999999999999
 31
0.0
  0
LINE
  5
CF
330
1E
100
AcDbEntity
  8
2
100
AcDbLine
 10
64.69915812701238
 20
266.0
 30
0.0
 11
64.69915812701238
 21
260.9999999999998
 31
0.0
  0
LINE
  5
D0
330
1E
100
AcDbEntity
  8
2
100
AcDbLine
 10
64.69915812701238
 20
260.9999999999998
 30
0.0
 11
65.19915812701238
 21
260.4999999999999
 31
0.0
  0
LINE
  5
D1
330
1E
100
AcDbEntity
  8
2
100
AcDbLine
 10
65.19915812701238
 20
260.4999999999999
 30
0.0
 11
65.19915812701238
 21
266.5
 31
0.0
  0
LINE
  5
D2
330
1E
100
AcDbEntity
  8
2
100
AcDbLine
 10
65.19915812701238
 20
266.5
 30
0.0
 11
64.69915812701238
 21
266.0
 31
0.0
  0
LINE
  5
D3
330
1E
100
AcDbEntity
  8
2
100
AcDbLine
 10
70.69915812701236
 20
266.5
 30
0.0
 11
70.69915812701236
 21
264.9999999999999
 31
0.0
  0
LINE
  5
D4
330
1E
100
AcDbEntity
  8
2
100
AcDbLine
 10
70.69915812701236
 20
264.9999999999999
 30
0.0
 11
70.19915812701238
 21
264.9999999999999
 31
0.0
  0
LINE
  5
D5
330
1E
100
AcDbEntity
  8
2
100
AcDbLine
 10
70.19915812701238
 20
264.9999999999999
 30
0.0
 11
70.19915812701238
 21
262.0
 31
0.0
  0
LINE
  5
D6
330
1E
100
AcDbEntity
  8
2
100
AcDbLine
 10
70.19915812701238
 20
262.0
 30
0.0
 11
70.69915812701236
 21
262.0
 31
0.0
  0
LINE
  5
D7
330
1E
100
AcDbEntity
  8
2
100
AcDbLine
 10
70.69915812701236
 20
262.0
 30
0.0
 11
70.69915812701236
 21
260.4999999999999
 31
0.0
  0
LINE
  5
D8
330
1E
100
AcDbEntity
  8
2
100
AcDbLine
 10
70.69915812701236
 20
260.4999999999999
 30
0.0
 11
71.19915812701236
 21
260.9999999999998
 31
0.0
  0
LINE
  5
D9
330
1E
100
AcDbEntity
  8
2
100
AcDbLine
 10
71.19915812701236
 20
260.9999999999998
 30
0.0
 11
71.19915812701236
 21
262.0
 31
0.0
  0
LINE
  5
DA
330
1E
100
AcDbEntity
  8
2
100
AcDbLine
 10
71.19915812701236
 20
262.0
 30
0.0
 11
70.69915812701236
 21
262.0
 31
0.0
  0
LINE
  5
DB
330
1E
100
AcDbEntity
  8
2
100
AcDbLine
 10
70.69915812701236
 20
266.5
 30
0.0
 11
71.19915812701236
 21
266.0
 31
0.0
  0
LINE
  5
DC
330
1E
100
AcDbEntity
  8
2
100
AcDbLine
 10
71.19915812701236
 20
266.0
 30
0.0
 11
71.19915812701236
 21
264.9999999999999
 31
0.0
  0
LINE
  5
DD
330
1E
100
AcDbEntity
  8
2
100
AcDbLine
 10
71.19915812701236
 20
264.9999999999999
 30
0.0
 11
70.69915812701236
 21
264.9999999999999
 31
0.0
  0
LINE
  5
DE
330
1E
100
AcDbEntity
  8
2
100
AcDbLine
 10
71.19915812701236
 20
264.9999999999999
 30
0.0
 11
71.19915812701236
 21
262.0
 31
0.0
  0
LINE
  5
DF
330
1E
100
AcDbEntity
  8
2
100
AcDbLine
 10
71.19915812701236
 20
262.9999999999999
 30
0.0
 11
70.19915812701238
 21
262.9999999999999
 31
0.0
  0
LINE
  5
E0
330
1E
100
AcDbEntity
  8
2
100
AcDbLine
 10
472.3554652627132
 20
266.5
 30
0.0
 11
482.8554652627132
 21
266.5
 31
0.0
  0
LINE
  5
E1
330
1E
100
AcDbEntity
  8
2
100
AcDbLine
 10
472.3554652627132
 20
266.0
 30
0.0
 11
482.8554652627132
 21
266.0
 31
0.0
  0
LINE
  5
E2
330
1E
100
AcDbEntity
  8
2
100
AcDbLine
 10
472.3554652627132
 20
260.9999999999998
 30
0.0
 11
482.8554652627132
 21
260.9999999999998
 31
0.0
  0
LINE
  5
E3
330
1E
100
AcDbEntity
  8
2
100
AcDbLine
 10
472.3554652627132
 20
260.4999999999999
 30
0.0
 11
482.8554652627132
 21
260.4999999999999
 31
0.0
  0
LINE
  5
E4
330
1E
100
AcDbEntity
  8
2
100
AcDbLine
 10
482.3554652627132
 20
266.0
 30
0.0
 11
482.3554652627132
 21
260.9999999999998
 31
0.0
  0
LINE
  5
E5
330
1E
100
AcDbEntity
  8
2
100
AcDbLine
 10
482.3554652627132
 20
260.9999999999998
 30
0.0
 11
481.8554652627132
 21
260.4999999999999
 31
0.0
  0
LINE
  5
E6
330
1E
100
AcDbEntity
  8
2
100
AcDbLine
 10
481.8554652627132
 20
260.4999999999999
 30
0.0
 11
481.8554652627132
 21
266.5
 31
0.0
  0
LINE
  5
E7
330
1E
100
AcDbEntity
  8
2
100
AcDbLine
 10
481.8554652627132
 20
266.5
 30
0.0
 11
482.3554652627132
 21
266.0
 31
0.0
  0
LINE
  5
E8
330
1E
100
AcDbEntity
  8
2
100
AcDbLine
 10
476.8554652627132
 20
266.5
 30
0.0
 11
476.8554652627132
 21
264.9999999999999
 31
0.0
  0
LINE
  5
E9
330
1E
100
AcDbEntity
  8
2
100
AcDbLine
 10
476.8554652627132
 20
264.9999999999999
 30
0.0
 11
477.8554652627132
 21
264.9999999999999
 31
0.0
  0
LINE
  5
EA
330
1E
100
AcDbEntity
  8
2
100
AcDbLine
 10
477.8554652627132
 20
264.9999999999999
 30
0.0
 11
477.8554652627132
 21
262.0
 31
0.0
  0
LINE
  5
EB
330
1E
100
AcDbEntity
  8
2
100
AcDbLine
 10
477.8554652627132
 20
262.0
 30
0.0
 11
476.8554652627132
 21
262.0
 31
0.0
  0
LINE
  5
EC
330
1E
100
AcDbEntity
  8
2
100
AcDbLine
 10
476.8554652627132
 20
262.0
 30
0.0
 11
476.8554652627132
 21
260.4999999999999
 31
0.0
  0
LINE
  5
ED
330
1E
100
AcDbEntity
  8
2
100
AcDbLine
 10
476.8554652627132
 20
260.4999999999999
 30
0.0
 11
476.3554652627132
 21
260.9999999999998
 31
0.0
  0
LINE
  5
EE
330
1E
100
AcDbEntity
  8
2
100
AcDbLine
 10
476.3554652627132
 20
260.9999999999998
 30
0.0
 11
476.3554652627132
 21
262.0
 31
0.0
  0
LINE
  5
EF
330
1E
100
AcDbEntity
  8
2
100
AcDbLine
 10
476.3554652627132
 20
262.0
 30
0.0
 11
476.8554652627132
 21
262.0
 31
0.0
  0
LINE
  5
F0
330
1E
100
AcDbEntity
  8
2
100
AcDbLine
 10
476.3554652627132
 20
262.0
 30
0.0
 11
476.3554652627132
 21
266.0
 31
0.0
  0
LINE
  5
F1
330
1E
100
AcDbEntity
  8
2
100
AcDbLine
 10
476.3554652627132
 20
266.0
 30
0.0
 11
476.8554652627132
 21
266.5
 31
0.0
  0
LINE
  5
F2
330
1E
100
AcDbEntity
  8
2
100
AcDbLine
 10
476.8554652627132
 20
264.9999999999999
 30
0.0
 11
476.3554652627132
 21
264.9999999999999
 31
0.0
  0
LINE
  5
F3
330
1E
100
AcDbEntity
  8
2
100
AcDbLine
 10
476.3554652627132
 20
264.0
 30
0.0
 11
477.8554652627132
 21
264.0
 31
0.0
  0
LINE
  5
F4
330
1E
100
AcDbEntity
  8
2
100
AcDbLine
 10
476.3554652627132
 20
262.9999999999999
 30
0.0
 11
477.8554652627132
 21
262.9999999999999
 31
0.0
  0
LINE
  5
F5
330
1E
100
AcDbEntity
  8
1
100
AcDbLine
 10
306.0551828188882
 20
309.5
 30
0.0
 11
306.0551828188882
 21
437.9999999999999
 31
0.0
  0
LINE
  5
F6
330
1E
100
AcDbEntity
  8
3
100
AcDbLine
 10
289.0551828188883
 20
372.8010971423622
 30
0.0
 11
289.0551828188883
 21
350.0
 31
0.0
  0
LINE
  5
F7
330
1E
100
AcDbEntity
  8
0
100
AcDbLine
 10
287.0551828188882
 20
360.0
 30
0.0
 11
287.0551828188882
 21
351.0
 31
0.0
  0
LINE
  5
F8
330
1E
100
AcDbEntity
  8
2
100
AcDbLine
 10
322.0551828188883
 20
390.5
 30
0.0
 11
303.0551828188883
 21
390.5
 31
0.0
  0
LINE
  5
F9
330
1E
100
AcDbEntity
  8
0
100
AcDbLine
 10
321.0551828188882
 20
400.9999999999999
 30
0.0
 11
288.0551828188883
 21
400.9999999999999
 31
0.0
  0
LINE
  5
FA
330
1E
100
AcDbEntity
  8
2
100
AcDbLine
 10
303.0551828188883
 20
359.5
 30
0.0
 11
322.0551828188883
 21
359.5
 31
0.0
  0
LINE
  5
FB
330
1E
100
AcDbEntity
  8
3
100
AcDbLine
 10
289.0551828188883
 20
400.9999999999999
 30
0.0
 11
289.0551828188883
 21
377.2149497242334
 31
0.0
  0
LINE
  5
FC
330
1E
100
AcDbEntity
  8
0
100
AcDbLine
 10
287.0551828188882
 20
400.0
 30
0.0
 11
287.0551828188882
 21
390.0
 31
0.0
  0
LINE
  5
FD
330
1E
100
AcDbEntity
  8
2
100
AcDbLine
 10
303.0551828188883
 20
390.5
 30
0.0
 11
303.0551828188883
 21
359.5
 31
0.0
  0
LINE
  5
FE
330
1E
100
AcDbEntity
  8
5
100
AcDbLine
 10
283.0551828188883
 20
366.9999999999999
 30
0.0
 11
303.0551828188883
 21
366.9999999999999
 31
0.0
  0
LINE
  5
FF
330
1E
100
AcDbEntity
  8
5
100
AcDbLine
 10
283.0551828188883
 20
383.0
 30
0.0
 11
303.0551828188883
 21
383.0
 31
0.0
  0
LINE
  5
100
330
1E
100
AcDbEntity
  8
2
100
AcDbLine
 10
303.0551828188883
 20
364.9999999999999
 30
0.0
 11
283.0551828188883
 21
364.9999999999999
 31
0.0
  0
LINE
  5
101
330
1E
100
AcDbEntity
  8
2
100
AcDbLine
 10
303.0551828188883
 20
385.0
 30
0.0
 11
283.0551828188883
 21
385.0
 31
0.0
  0
LINE
  5
102
330
1E
100
AcDbEntity
  8
0
100
AcDbLine
 10
287.0551828188882
 20
390.0
 30
0.0
 11
283.0551828188883
 21
388.5
 31
0.0
  0
LINE
  5
103
330
1E
100
AcDbEntity
  8
0
100
AcDbLine
 10
283.0551828188883
 20
361.5
 30
0.0
 11
287.0551828188882
 21
360.0
 31
0.0
  0
LINE
  5
104
330
1E
100
AcDbEntity
  8
0
100
AcDbLine
 10
283.0551828188883
 20
388.5
 30
0.0
 11
283.0551828188883
 21
361.5
 31
0.0
  0
LINE
  5
105
330
1E
100
AcDbEntity
  8
0
100
AcDbLine
 10
287.0551828188882
 20
360.0
 30
0.0
 11
287.0551828188882
 21
390.0
 31
0.0
  0
LINE
  5
106
330
1E
100
AcDbEntity
  8
0
100
AcDbLine
 10
288.0551828188883
 20
400.9999999999999
 30
0.0
 11
287.0551828188882
 21
400.0
 31
0.0
  0
LINE
  5
107
330
1E
100
AcDbEntity
  8
0
100
AcDbLine
 10
322.0551828188883
 20
400.0
 30
0.0
 11
321.0551828188882
 21
400.9999999999999
 31
0.0
  0
LINE
  5
108
330
1E
100
AcDbEntity
  8
0
100
AcDbLine
 10
325.0551828188882
 20
431.0
 30
0.0
 11
287.0551828188882
 21
431.0
 31
0.0
  0
LINE
  5
109
330
1E
100
AcDbEntity
  8
0
100
AcDbLine
 10
287.0551828188882
 20
431.0
 30
0.0
 11
286.0551828188883
 21
429.9999999999999
 31
0.0
  0
LINE
  5
10A
330
1E
100
AcDbEntity
  8
0
100
AcDbLine
 10
325.0551828188882
 20
431.0
 30
0.0
 11
326.0551828188883
 21
429.9999999999999
 31
0.0
  0
LINE
  5
10B
330
1E
100
AcDbEntity
  8
0
100
AcDbLine
 10
322.0551828188883
 20
350.0
 30
0.0
 11
322.0551828188883
 21
400.0
 31
0.0
  0
LINE
  5
10C
330
1E
100
AcDbEntity
  8
0
100
AcDbLine
 10
322.0551828188883
 20
350.0
 30
0.0
 11
321.0551828188882
 21
349.0
 31
0.0
  0
LINE
  5
10D
330
1E
100
AcDbEntity
  8
0
100
AcDbLine
 10
321.0551828188882
 20
349.0
 30
0.0
 11
288.0551828188883
 21
349.0
 31
0.0
  0
LINE
  5
10E
330
1E
100
AcDbEntity
  8
0
100
AcDbLine
 10
288.0551828188883
 20
349.0
 30
0.0
 11
287.0551828188882
 21
350.0
 31
0.0
  0
LINE
  5
10F
330
1E
100
AcDbEntity
  8
0
100
AcDbLine
 10
287.0551828188882
 20
350.0
 30
0.0
 11
287.0551828188882
 21
351.5
 31
0.0
  0
LINE
  5
110
330
1E
100
AcDbEntity
  8
3
100
AcDbLine
 10
289.0551828188883
 20
350.0
 30
0.0
 11
289.0551828188883
 21
349.0
 31
0.0
  0
LINE
  5
111
330
1E
100
AcDbEntity
  8
0
100
AcDbLine
 10
326.0551828188883
 20
429.9999999999999
 30
0.0
 11
326.0551828188883
 21
399.0
 31
0.0
  0
LINE
  5
112
330
1E
100
AcDbEntity
  8
0
100
AcDbLine
 10
326.0551828188883
 20
399.0
 30
0.0
 11
325.0551828188882
 21
398.0
 31
0.0
  0
LINE
  5
113
330
1E
100
AcDbEntity
  8
0
100
AcDbLine
 10
325.0551828188882
 20
398.0
 30
0.0
 11
322.0551828188883
 21
398.0
 31
0.0
  0
LINE
  5
114
330
1E
100
AcDbEntity
  8
0
100
AcDbLine
 10
306.0551828188882
 20
318.9999999999999
 30
0.0
 11
325.0551828188882
 21
318.9999999999999
 31
0.0
  0
LINE
  5
115
330
1E
100
AcDbEntity
  8
0
100
AcDbLine
 10
325.0551828188882
 20
318.9999999999999
 30
0.0
 11
326.0551828188883
 21
320.0
 31
0.0
  0
LINE
  5
116
330
1E
100
AcDbEntity
  8
0
100
AcDbLine
 10
326.0551828188883
 20
320.0
 30
0.0
 11
326.0551828188883
 21
351.0
 31
0.0
  0
LINE
  5
117
330
1E
100
AcDbEntity
  8
0
100
AcDbLine
 10
326.0551828188883
 20
351.0
 30
0.0
 11
325.0551828188882
 21
352.0
 31
0.0
  0
LINE
  5
118
330
1E
100
AcDbEntity
  8
0
100
AcDbLine
 10
325.0551828188882
 20
352.0
 30
0.0
 11
322.0551828188883
 21
352.0
 31
0.0
  0
LINE
  5
119
330
1E
100
AcDbEntity
  8
0
100
AcDbLine
 10
286.0551828188883
 20
429.9999999999999
 30
0.0
 11
286.0551828188883
 21
399.0
 31
0.0
  0
LINE
  5
11A
330
1E
100
AcDbEntity
  8
0
100
AcDbLine
 10
286.0551828188883
 20
399.0
 30
0.0
 11
287.0551828188882
 21
398.0
 31
0.0
  0
LINE
  5
11B
330
1E
100
AcDbEntity
  8
0
100
AcDbLine
 10
306.0551828188882
 20
318.9999999999999
 30
0.0
 11
287.0551828188882
 21
318.9999999999999
 31
0.0
  0
LINE
  5
11C
330
1E
100
AcDbEntity
  8
0
100
AcDbLine
 10
287.0551828188882
 20
318.9999999999999
 30
0.0
 11
286.0551828188883
 21
320.0
 31
0.0
  0
LINE
  5
11D
330
1E
100
AcDbEntity
  8
0
100
AcDbLine
 10
286.0551828188883
 20
320.0
 30
0.0
 11
286.0551828188883
 21
351.0
 31
0.0
  0
LINE
  5
11E
330
1E
100
AcDbEntity
  8
0
100
AcDbLine
 10
286.0551828188883
 20
351.0
 30
0.0
 11
287.0551828188882
 21
352.0
 31
0.0
  0
ARC
  5
11F
330
1E
100
AcDbEntity
  8
0
100
AcDbCircle
 10
306.0551828188882
 20
335.4999999999999
 30
0.0
 40
15.5
100
AcDbArc
 50
180.0
 51
0.0
  0
ARC
  5
120
330
1E
100
AcDbEntity
  8
0
100
AcDbCircle
 10
306.0551828188882
 20
414.5
 30
0.0
 40
15.5
100
AcDbArc
 50
0.0
 51
180.0
  0
LINE
  5
121
330
1E
100
AcDbEntity
  8
0
100
AcDbLine
 10
321.5551828188883
 20
414.5
 30
0.0
 11
321.5551828188883
 21
400.9999999999999
 31
0.0
  0
LINE
  5
122
330
1E
100
AcDbEntity
  8
0
100
AcDbLine
 10
290.5551828188883
 20
414.5
 30
0.0
 11
290.5551828188883
 21
400.9999999999999
 31
0.0
  0
LINE
  5
123
330
1E
100
AcDbEntity
  8
0
100
AcDbLine
 10
321.5551828188883
 20
335.4999999999999
 30
0.0
 11
321.5551828188883
 21
349.0
 31
0.0
  0
LINE
  5
124
330
1E
100
AcDbEntity
  8
0
100
AcDbLine
 10
290.5551828188883
 20
335.4999999999999
 30
0.0
 11
290.5551828188883
 21
349.0
 31
0.0
  0
LINE
  5
125
330
1E
100
AcDbEntity
  8
1
100
AcDbLine
 10
294.5551828188883
 20
420.0
 30
0.0
 11
318.0551828188883
 21
420.0
 31
0.0
  0
LINE
  5
126
330
1E
100
AcDbEntity
  8
1
100
AcDbLine
 10
294.5551828188883
 20
330.0
 30
0.0
 11
318.0551828188883
 21
330.0
 31
0.0
  0
CIRCLE
  5
127
330
1E
100
AcDbEntity
  8
0
100
AcDbCircle
 10
306.0551828188882
 20
420.0
 30
0.0
 40
5.5
  0
CIRCLE
  5
128
330
1E
100
AcDbEntity
  8
0
100
AcDbCircle
 10
306.0551828188882
 20
330.0
 30
0.0
 40
5.5
  0
LINE
  5
129
330
1E
100
AcDbEntity
  8
1
100
AcDbLine
 10
295.0551828188882
 20
344.5
 30
0.0
 11
295.0551828188882
 21
369.5
 31
0.0
  0
LINE
  5
12A
330
1E
100
AcDbEntity
  8
2
100
AcDbLine
 10
298.0551828188882
 20
349.0
 30
0.0
 11
298.0551828188882
 21
364.9999999999999
 31
0.0
  0
LINE
  5
12B
330
1E
100
AcDbEntity
  8
2
100
AcDbLine
 10
297.5551828188882
 20
349.0
 30
0.0
 11
297.5551828188882
 21
364.9999999999999
 31
0.0
  0
LINE
  5
12C
330
1E
100
AcDbEntity
  8
2
100
AcDbLine
 10
292.5551828188883
 20
349.0
 30
0.0
 11
292.5551828188883
 21
364.9999999999999
 31
0.0
  0
LINE
  5
12D
330
1E
100
AcDbEntity
  8
2
100
AcDbLine
 10
292.0551828188882
 20
349.0
 30
0.0
 11
292.0551828188882
 21
364.9999999999999
 31
0.0
  0
LINE
  5
12E
330
1E
100
AcDbEntity
  8
2
100
AcDbLine
 10
297.5551828188882
 20
364.9999999999999
 30
0.0
 11
297.5551828188882
 21
364.5
 31
0.0
  0
LINE
  5
12F
330
1E
100
AcDbEntity
  8
2
100
AcDbLine
 10
297.5551828188882
 20
364.5
 30
0.0
 11
292.0551828188882
 21
364.5
 31
0.0
  0
LINE
  5
130
330
1E
100
AcDbEntity
  8
2
100
AcDbLine
 10
292.0551828188882
 20
364.5
 30
0.0
 11
292.5551828188883
 21
364.9999999999999
 31
0.0
  0
LINE
  5
131
330
1E
100
AcDbEntity
  8
2
100
AcDbLine
 10
297.5551828188882
 20
364.9999999999999
 30
0.0
 11
298.0551828188882
 21
364.5
 31
0.0
  0
LINE
  5
132
330
1E
100
AcDbEntity
  8
2
100
AcDbLine
 10
298.0551828188882
 20
364.5
 30
0.0
 11
297.0551828188883
 21
364.5
 31
0.0
  0
LINE
  5
133
330
1E
100
AcDbEntity
  8
2
100
AcDbLine
 10
298.0551828188882
 20
357.5
 30
0.0
 11
296.5551828188883
 21
357.5
 31
0.0
  0
LINE
  5
134
330
1E
100
AcDbEntity
  8
2
100
AcDbLine
 10
296.5551828188883
 20
357.5
 30
0.0
 11
296.5551828188883
 21
358.4999999999998
 31
0.0
  0
LINE
  5
135
330
1E
100
AcDbEntity
  8
2
100
AcDbLine
 10
296.5551828188883
 20
358.4999999999998
 30
0.0
 11
293.5551828188882
 21
358.4999999999998
 31
0.0
  0
LINE
  5
136
330
1E
100
AcDbEntity
  8
2
100
AcDbLine
 10
293.5551828188882
 20
358.4999999999998
 30
0.0
 11
293.5551828188882
 21
357.5
 31
0.0
  0
LINE
  5
137
330
1E
100
AcDbEntity
  8
2
100
AcDbLine
 10
293.5551828188882
 20
357.5
 30
0.0
 11
292.0551828188882
 21
357.5
 31
0.0
  0
LINE
  5
138
330
1E
100
AcDbEntity
  8
2
100
AcDbLine
 10
292.0551828188882
 20
357.5
 30
0.0
 11
292.5551828188883
 21
357.0
 31
0.0
  0
LINE
  5
139
330
1E
100
AcDbEntity
  8
2
100
AcDbLine
 10
292.5551828188883
 20
357.0
 30
0.0
 11
293.5551828188882
 21
357.0
 31
0.0
  0
LINE
  5
13A
330
1E
100
AcDbEntity
  8
2
100
AcDbLine
 10
293.5551828188882
 20
357.0
 30
0.0
 11
293.5551828188882
 21
357.5
 31
0.0
  0
LINE
  5
13B
330
1E
100
AcDbEntity
  8
2
100
AcDbLine
 10
296.5551828188883
 20
357.5
 30
0.0
 11
296.5551828188883
 21
357.0
 31
0.0
  0
LINE
  5
13C
330
1E
100
AcDbEntity
  8
2
100
AcDbLine
 10
296.5551828188883
 20
357.0
 30
0.0
 11
297.5551828188882
 21
357.0
 31
0.0
  0
LINE
  5
13D
330
1E
100
AcDbEntity
  8
2
100
AcDbLine
 10
297.5551828188882
 20
357.0
 30
0.0
 11
298.0551828188882
 21
357.5
 31
0.0
  0
LINE
  5
13E
330
1E
100
AcDbEntity
  8
0
100
AcDbLine
 10
287.0551828188882
 20
63.5
 30
0.0
 11
287.0551828188882
 21
93.49999999999999
 31
0.0
  0
LINE
  5
13F
330
1E
100
AcDbEntity
  8
0
100
AcDbLine
 10
283.0551828188883
 20
92.0
 30
0.0
 11
283.0551828188883
 21
65.0
 31
0.0
  0
LINE
  5
140
330
1E
100
AcDbEntity
  8
2
100
AcDbLine
 10
303.0551828188883
 20
94.0
 30
0.0
 11
303.0551828188883
 21
63.0
 31
0.0
  0
LINE
  5
141
330
1E
100
AcDbEntity
  8
3
100
AcDbLine
 10
289.0551828188883
 20
104.4999999999999
 30
0.0
 11
289.0551828188883
 21
80.7149497242335
 31
0.0
  0
LINE
  5
142
330
1E
100
AcDbEntity
  8
1
100
AcDbLine
 10
306.0551828188882
 20
13.0
 30
0.0
 11
306.0551828188882
 21
141.5
 31
0.0
  0
CIRCLE
  5
143
330
1E
100
AcDbEntity
  8
0
100
AcDbCircle
 10
306.0551828188882
 20
33.5
 30
0.0
 40
5.5
  0
LINE
  5
144
330
1E
100
AcDbEntity
  8
1
100
AcDbLine
 10
294.5551828188883
 20
33.5
 30
0.0
 11
318.0551828188883
 21
33.5
 31
0.0
  0
LINE
  5
145
330
1E
100
AcDbEntity
  8
0
100
AcDbLine
 10
306.0551828188882
 20
22.5
 30
0.0
 11
325.0551828188882
 21
22.5
 31
0.0
  0
LINE
  5
146
330
1E
100
AcDbEntity
  8
2
100
AcDbLine
 10
303.0551828188883
 20
63.0
 30
0.0
 11
322.0551828188883
 21
63.0
 31
0.0
  0
LINE
  5
147
330
1E
100
AcDbEntity
  8
1
100
AcDbLine
 10
295.0551828188882
 20
109.0
 30
0.0
 11
295.0551828188882
 21
84.0
 31
0.0
  0
LINE
  5
148
330
1E
100
AcDbEntity
  8
0
100
AcDbLine
 10
286.0551828188883
 20
23.5
 30
0.0
 11
286.0551828188883
 21
54.5
 31
0.0
  0
LINE
  5
149
330
1E
100
AcDbEntity
  8
0
100
AcDbLine
 10
306.0551828188882
 20
22.5
 30
0.0
 11
287.0551828188882
 21
22.5
 31
0.0
  0
LINE
  5
14A
330
1E
100
AcDbEntity
  8
0
100
AcDbLine
 10
287.0551828188882
 20
22.5
 30
0.0
 11
286.0551828188883
 21
23.5
 31
0.0
  0
LINE
  5
14B
330
1E
100
AcDbEntity
  8
0
100
AcDbLine
 10
283.0551828188883
 20
65.0
 30
0.0
 11
287.0551828188882
 21
63.5
 31
0.0
  0
LINE
  5
14C
330
1E
100
AcDbEntity
  8
2
100
AcDbLine
 10
303.0551828188883
 20
68.5
 30
0.0
 11
283.0551828188883
 21
68.5
 31
0.0
  0
LINE
  5
14D
330
1E
100
AcDbEntity
  8
5
100
AcDbLine
 10
283.0551828188883
 20
86.5
 30
0.0
 11
303.0551828188883
 21
86.5
 31
0.0
  0
LINE
  5
14E
330
1E
100
AcDbEntity
  8
5
100
AcDbLine
 10
283.0551828188883
 20
70.5
 30
0.0
 11
303.0551828188883
 21
70.5
 31
0.0
  0
LINE
  5
14F
330
1E
100
AcDbEntity
  8
3
100
AcDbLine
 10
289.0551828188883
 20
76.30109714236221
 30
0.0
 11
289.0551828188883
 21
53.5
 31
0.0
  0
LINE
  5
150
330
1E
100
AcDbEntity
  8
2
100
AcDbLine
 10
296.5551828188883
 20
96.5
 30
0.0
 11
297.5551828188882
 21
96.5
 31
0.0
  0
LINE
  5
151
330
1E
100
AcDbEntity
  8
2
100
AcDbLine
 10
298.0551828188882
 20
96.0
 30
0.0
 11
296.5551828188883
 21
96.0
 31
0.0
  0
LINE
  5
152
330
1E
100
AcDbEntity
  8
2
100
AcDbLine
 10
298.0551828188882
 20
89.0
 30
0.0
 11
297.0551828188883
 21
89.0
 31
0.0
  0
LINE
  5
153
330
1E
100
AcDbEntity
  8
2
100
AcDbLine
 10
297.5551828188882
 20
89.0
 30
0.0
 11
292.0551828188882
 21
89.0
 31
0.0
  0
LINE
  5
154
330
1E
100
AcDbEntity
  8
2
100
AcDbLine
 10
293.5551828188882
 20
95.0
 30
0.0
 11
293.5551828188882
 21
96.0
 31
0.0
  0
LINE
  5
155
330
1E
100
AcDbEntity
  8
2
100
AcDbLine
 10
296.5551828188883
 20
96.0
 30
0.0
 11
296.5551828188883
 21
95.0
 31
0.0
  0
LINE
  5
156
330
1E
100
AcDbEntity
  8
2
100
AcDbLine
 10
292.0551828188882
 20
104.4999999999999
 30
0.0
 11
292.0551828188882
 21
88.49999999999999
 31
0.0
  0
LINE
  5
157
330
1E
100
AcDbEntity
  8
2
100
AcDbLine
 10
292.5551828188883
 20
104.4999999999999
 30
0.0
 11
292.5551828188883
 21
88.49999999999999
 31
0.0
  0
LINE
  5
158
330
1E
100
AcDbEntity
  8
0
100
AcDbLine
 10
287.0551828188882
 20
63.5
 30
0.0
 11
287.0551828188882
 21
55.5
 31
0.0
  0
LINE
  5
159
330
1E
100
AcDbEntity
  8
0
100
AcDbLine
 10
286.0551828188883
 20
54.5
 30
0.0
 11
287.0551828188882
 21
55.5
 31
0.0
  0
LINE
  5
15A
330
1E
100
AcDbEntity
  8
3
100
AcDbLine
 10
289.0551828188883
 20
53.5
 30
0.0
 11
289.0551828188883
 21
52.5
 31
0.0
  0
LINE
  5
15B
330
1E
100
AcDbEntity
  8
2
100
AcDbLine
 10
296.5551828188883
 20
96.0
 30
0.0
 11
296.5551828188883
 21
96.5
 31
0.0
  0
LINE
  5
15C
330
1E
100
AcDbEntity
  8
2
100
AcDbLine
 10
293.5551828188882
 20
96.5
 30
0.0
 11
293.5551828188882
 21
96.0
 31
0.0
  0
LINE
  5
15D
330
1E
100
AcDbEntity
  8
2
100
AcDbLine
 10
292.5551828188883
 20
96.5
 30
0.0
 11
293.5551828188882
 21
96.5
 31
0.0
  0
LINE
  5
15E
330
1E
100
AcDbEntity
  8
2
100
AcDbLine
 10
292.0551828188882
 20
96.0
 30
0.0
 11
292.5551828188883
 21
96.5
 31
0.0
  0
LINE
  5
15F
330
1E
100
AcDbEntity
  8
2
100
AcDbLine
 10
293.5551828188882
 20
96.0
 30
0.0
 11
292.0551828188882
 21
96.0
 31
0.0
  0
LINE
  5
160
330
1E
100
AcDbEntity
  8
2
100
AcDbLine
 10
296.5551828188883
 20
95.0
 30
0.0
 11
293.5551828188882
 21
95.0
 31
0.0
  0
LINE
  5
161
330
1E
100
AcDbEntity
  8
2
100
AcDbLine
 10
292.0551828188882
 20
89.0
 30
0.0
 11
292.5551828188883
 21
88.49999999999999
 31
0.0
  0
LINE
  5
162
330
1E
100
AcDbEntity
  8
2
100
AcDbLine
 10
297.5551828188882
 20
104.4999999999999
 30
0.0
 11
297.5551828188882
 21
88.49999999999999
 31
0.0
  0
LINE
  5
163
330
1E
100
AcDbEntity
  8
2
100
AcDbLine
 10
298.0551828188882
 20
104.4999999999999
 30
0.0
 11
298.0551828188882
 21
88.49999999999999
 31
0.0
  0
LINE
  5
164
330
1E
100
AcDbEntity
  8
2
100
AcDbLine
 10
297.5551828188882
 20
96.5
 30
0.0
 11
298.0551828188882
 21
96.0
 31
0.0
  0
LINE
  5
165
330
1E
100
AcDbEntity
  8
2
100
AcDbLine
 10
297.5551828188882
 20
88.49999999999999
 30
0.0
 11
298.0551828188882
 21
89.0
 31
0.0
  0
LINE
  5
166
330
1E
100
AcDbEntity
  8
2
100
AcDbLine
 10
297.5551828188882
 20
88.49999999999999
 30
0.0
 11
297.5551828188882
 21
89.0
 31
0.0
  0
LINE
  5
167
330
1E
100
AcDbEntity
  8
0
100
AcDbLine
 10
326.0551828188883
 20
23.5
 30
0.0
 11
326.0551828188883
 21
54.5
 31
0.0
  0
LINE
  5
168
330
1E
100
AcDbEntity
  8
0
100
AcDbLine
 10
325.0551828188882
 20
22.5
 30
0.0
 11
326.0551828188883
 21
23.5
 31
0.0
  0
LINE
  5
169
330
1E
100
AcDbEntity
  8
0
100
AcDbLine
 10
325.0551828188882
 20
55.5
 30
0.0
 11
322.0551828188883
 21
55.5
 31
0.0
  0
LINE
  5
16A
330
1E
100
AcDbEntity
  8
0
100
AcDbLine
 10
326.0551828188883
 20
54.5
 30
0.0
 11
325.0551828188882
 21
55.5
 31
0.0
  0
CIRCLE
  5
16B
330
1E
100
AcDbEntity
  8
0
100
AcDbCircle
 10
306.0551828188882
 20
123.5
 30
0.0
 40
5.5
  0
LINE
  5
16C
330
1E
100
AcDbEntity
  8
1
100
AcDbLine
 10
294.5551828188883
 20
123.5
 30
0.0
 11
318.0551828188883
 21
123.5
 31
0.0
  0
LINE
  5
16D
330
1E
100
AcDbEntity
  8
0
100
AcDbLine
 10
325.0551828188882
 20
134.4999999999998
 30
0.0
 11
287.0551828188882
 21
134.4999999999998
 31
0.0
  0
LINE
  5
16E
330
1E
100
AcDbEntity
  8
2
100
AcDbLine
 10
322.0551828188883
 20
94.0
 30
0.0
 11
303.0551828188883
 21
94.0
 31
0.0
  0
LINE
  5
16F
330
1E
100
AcDbEntity
  8
0
100
AcDbLine
 10
286.0551828188883
 20
133.4999999999998
 30
0.0
 11
286.0551828188883
 21
102.4999999999999
 31
0.0
  0
LINE
  5
170
330
1E
100
AcDbEntity
  8
0
100
AcDbLine
 10
287.0551828188882
 20
93.49999999999999
 30
0.0
 11
283.0551828188883
 21
92.0
 31
0.0
  0
LINE
  5
171
330
1E
100
AcDbEntity
  8
2
100
AcDbLine
 10
303.0551828188883
 20
88.49999999999999
 30
0.0
 11
283.0551828188883
 21
88.49999999999999
 31
0.0
  0
LINE
  5
172
330
1E
100
AcDbEntity
  8
0
100
AcDbLine
 10
286.0551828188883
 20
102.4999999999999
 30
0.0
 11
287.0551828188882
 21
101.5
 31
0.0
  0
LINE
  5
173
330
1E
100
AcDbEntity
  8
0
100
AcDbLine
 10
287.0551828188882
 20
134.4999999999998
 30
0.0
 11
286.0551828188883
 21
133.4999999999998
 31
0.0
  0
LINE
  5
174
330
1E
100
AcDbEntity
  8
0
100
AcDbLine
 10
326.0551828188883
 20
133.4999999999998
 30
0.0
 11
326.0551828188883
 21
102.4999999999999
 31
0.0
  0
LINE
  5
175
330
1E
100
AcDbEntity
  8
0
100
AcDbLine
 10
325.0551828188882
 20
101.5
 30
0.0
 11
322.0551828188883
 21
101.5
 31
0.0
  0
LINE
  5
176
330
1E
100
AcDbEntity
  8
0
100
AcDbLine
 10
326.0551828188883
 20
102.4999999999999
 30
0.0
 11
325.0551828188882
 21
101.5
 31
0.0
  0
LINE
  5
177
330
1E
100
AcDbEntity
  8
0
100
AcDbLine
 10
325.0551828188882
 20
134.4999999999998
 30
0.0
 11
326.0551828188883
 21
133.4999999999998
 31
0.0
  0
LINE
  5
178
330
1E
100
AcDbEntity
  8
2
100
AcDbLine
 10
321.0551828188882
 20
104.4999999999999
 30
0.0
 11
288.0551828188883
 21
104.4999999999999
 31
0.0
  0
LINE
  5
179
330
1E
100
AcDbEntity
  8
2
100
AcDbLine
 10
321.0551828188882
 20
52.5
 30
0.0
 11
288.0551828188883
 21
52.5
 31
0.0
  0
LINE
  5
17A
330
1E
100
AcDbEntity
  8
2
100
AcDbLine
 10
321.0551828188882
 20
104.4999999999999
 30
0.0
 11
322.0551828188883
 21
103.4999999999999
 31
0.0
  0
LINE
  5
17B
330
1E
100
AcDbEntity
  8
2
100
AcDbLine
 10
288.0551828188883
 20
104.4999999999999
 30
0.0
 11
287.0551828188882
 21
103.4999999999999
 31
0.0
  0
LINE
  5
17C
330
1E
100
AcDbEntity
  8
2
100
AcDbLine
 10
288.0551828188883
 20
52.5
 30
0.0
 11
287.0551828188882
 21
53.5
 31
0.0
  0
LINE
  5
17D
330
1E
100
AcDbEntity
  8
2
100
AcDbLine
 10
321.0551828188882
 20
52.5
 30
0.0
 11
322.0551828188883
 21
53.5
 31
0.0
  0
LINE
  5
17E
330
1E
100
AcDbEntity
  8
0
100
AcDbLine
 10
322.0551828188883
 20
55.5
 30
0.0
 11
322.0551828188883
 21
101.5
 31
0.0
  0
LINE
  5
17F
330
1E
100
AcDbEntity
  8
0
100
AcDbLine
 10
287.0551828188882
 20
101.5
 30
0.0
 11
287.0551828188882
 21
93.49999999999999
 31
0.0
  0
LINE
  5
180
330
1E
100
AcDbEntity
  8
2
100
AcDbLine
 10
322.0551828188883
 20
103.4999999999999
 30
0.0
 11
322.0551828188883
 21
101.5
 31
0.0
  0
LINE
  5
181
330
1E
100
AcDbEntity
  8
2
100
AcDbLine
 10
287.0551828188882
 20
103.4999999999999
 30
0.0
 11
287.0551828188882
 21
101.5
 31
0.0
  0
LINE
  5
182
330
1E
100
AcDbEntity
  8
2
100
AcDbLine
 10
287.0551828188882
 20
53.5
 30
0.0
 11
287.0551828188882
 21
55.5
 31
0.0
  0
LINE
  5
183
330
1E
100
AcDbEntity
  8
2
100
AcDbLine
 10
322.0551828188883
 20
53.5
 30
0.0
 11
322.0551828188883
 21
55.5
 31
0.0
  0
LINE
  5
184
330
1E
100
AcDbEntity
  8
0
100
AcDbLine
 10
322.0551828188883
 20
101.5
 30
0.0
 11
287.0551828188882
 21
101.5
 31
0.0
  0
LINE
  5
185
330
1E
100
AcDbEntity
  8
0
100
AcDbLine
 10
322.0551828188883
 20
55.5
 30
0.0
 11
287.0551828188882
 21
55.5
 31
0.0
  0
LINE
  5
186
330
1E
100
AcDbEntity
  8
1
100
AcDbLine
 10
334.5551828188883
 20
78.5
 30
0.0
 11
267.5500254499443
 21
78.5
 31
0.0
  0
LINE
  5
187
330
1E
100
AcDbEntity
  8
1
100
AcDbLine
 10
330.0551828188883
 20
263.5
 30
0.0
 11
269.8614957999815
 21
263.5
 31
0.0
  0
LINE
  5
188
330
1E
100
AcDbEntity
  8
1
100
AcDbLine
 10
332.5551828188883
 20
375.0
 30
0.0
 11
266.9947524528125
 21
375.0
 31
0.0
  0
LINE
  5
189
330
1E
100
AcDbEntity
  8
0
100
AcDbLine
 10
75.19915812701237
 20
208.4999999999999
 30
0.0
 11
75.19915812701237
 21
233.9999999999998
 31
0.0
  0
LINE
  5
18A
330
1E
100
AcDbEntity
  8
0
100
AcDbLine
 10
23.19915812701239
 20
208.4999999999999
 30
0.0
 11
23.19915812701239
 21
234.5
 31
0.0
  0
LINE
  5
18B
330
1E
100
AcDbEntity
  8
0
100
AcDbLine
 10
69.19915812701238
 20
202.4999999999999
 30
0.0
 11
69.19915812701238
 21
228.0
 31
0.0
  0
LINE
  5
18C
330
1E
100
AcDbEntity
  8
0
100
AcDbLine
 10
29.19915812701244
 20
202.4999999999999
 30
0.0
 11
29.19915812701244
 21
229.0
 31
0.0
  0
LINE
  5
18D
330
1E
100
AcDbEntity
  8
0
100
AcDbLine
 10
322.0551828188883
 20
229.4999999999999
 30
0.0
 11
322.0551828188883
 21
204.4999999999999
 31
0.0
  0
LINE
  5
18E
330
1E
100
AcDbEntity
  8
0
100
AcDbLine
 10
290.0551828188883
 20
230.0
 30
0.0
 11
290.0551828188883
 21
204.4999999999999
 31
0.0
  0
LINE
  5
18F
330
1E
100
AcDbEntity
  8
2
100
AcDbLine
 10
314.5551828188882
 20
210.4999999999999
 30
0.0
 11
314.5551828188882
 21
235.4999999999999
 31
0.0
  0
LINE
  5
190
330
1E
100
AcDbEntity
  8
2
100
AcDbLine
 10
297.5551828188882
 20
210.4999999999999
 30
0.0
 11
297.5551828188882
 21
235.4999999999999
 31
0.0
  0
LINE
  5
191
330
1E
100
AcDbEntity
  8
1
100
AcDbLine
 10
306.0551828188882
 20
295.9999999999999
 30
0.0
 11
306.0551828188882
 21
181.4999999999998
 31
0.0
  0
LINE
  5
192
330
1E
100
AcDbEntity
  8
1
100
AcDbLine
 10
49.19915812701238
 20
263.5
 30
0.0
 11
49.19915812701238
 21
248.7775681356644
 31
0.0
  0
LINE
  5
193
330
1E
100
AcDbEntity
  8
1
100
AcDbLine
 10
497.8554652627132
 20
295.5
 30
0.0
 11
497.8554652627132
 21
182.5
 31
0.0
  0
LINE
  5
194
330
1E
100
AcDbEntity
  8
0
100
AcDbLine
 10
523.8554652627132
 20
233.9999999999998
 30
0.0
 11
523.8554652627132
 21
208.4999999999999
 31
0.0
  0
LINE
  5
195
330
1E
100
AcDbEntity
  8
0
100
AcDbLine
 10
517.8554652627131
 20
202.4999999999999
 30
0.0
 11
517.8554652627131
 21
228.0
 31
0.0
  0
LINE
  5
196
330
1E
100
AcDbEntity
  8
0
100
AcDbLine
 10
477.8554652627132
 20
202.4999999999999
 30
0.0
 11
477.8554652627132
 21
228.0
 31
0.0
  0
LINE
  5
197
330
1E
100
AcDbEntity
  8
0
100
AcDbLine
 10
471.8554652627132
 20
208.4999999999999
 30
0.0
 11
471.8554652627132
 21
233.9999999999998
 31
0.0
  0
LINE
  5
198
330
1E
100
AcDbEntity
  8
2
100
AcDbLine
 10
322.0551828188883
 20
191.5
 30
0.0
 11
290.0551828188883
 21
191.5
 31
0.0
  0
LINE
  5
199
330
1E
100
AcDbEntity
  8
0
100
AcDbLine
 10
290.0551828188883
 20
55.5
 30
0.0
 11
290.0551828188883
 21
101.0
 31
0.0
  0
LINE
  5
19E
330
1E
100
AcDbEntity
  8
0
100
AcDbLine
 10
49.19915812701238
 20
280.4999999999995
 30
0.0
 11
49.19915812701238
 21
288.5
 31
0.0
  0
LINE
  5
19F
330
1E
100
AcDbEntity
  8
0
100
AcDbLine
 10
47.11916511510167
 20
279.2991154746603
 30
0.0
 11
45.93600332151109
 21
288.2861215343452
 31
0.0
  0
LINE
  5
1A0
330
1E
100
AcDbEntity
  8
0
100
AcDbLine
 10
45.25429439834154
 20
278.222431864335
 30
0.0
 11
42.72868199944937
 21
287.6481456572266
 31
0.0
  0
LINE
  5
1A1
330
1E
100
AcDbEntity
  8
0
100
AcDbLine
 10
43.51675405833387
 20
277.2185369694876
 30
0.0
 11
39.63207231788514
 21
286.596988312782
 31
0.0
  0
LINE
  5
1A2
330
1E
100
AcDbEntity
  8
0
100
AcDbLine
 10
41.7747394194142
 20
276.3594704182248
 30
0.0
 11
36.69915812701244
 21
285.150635094611
 31
0.0
  0
LINE
  5
1A3
330
1E
100
AcDbEntity
  8
0
100
AcDbLine
 10
40.15975864301928
 20
275.2803747627875
 30
0.0
 11
33.98012240179443
 21
283.3338335072808
 31
0.0
  0
LINE
  5
1A4
330
1E
100
AcDbEntity
  8
0
100
AcDbLine
 10
38.42158999134807
 20
274.2775681356642
 30
0.0
 11
31.52148859734876
 21
281.1776695296635
 31
0.0
  0
LINE
  5
1A5
330
1E
100
AcDbEntity
  8
0
100
AcDbLine
 10
36.55671927458807
 20
273.2008845253389
 30
0.0
 11
29.3653246197315
 21
278.719035725218
 31
0.0
  0
LINE
  5
1A6
330
1E
100
AcDbEntity
  8
0
100
AcDbLine
 10
34.47672626267686
 20
271.9999999999999
 30
0.0
 11
27.54852303240143
 21
276.0
 31
0.0
  0
LINE
  5
1A7
330
1E
100
AcDbEntity
  8
0
100
AcDbLine
 10
34.47672626267687
 20
269.5982309493215
 30
0.0
 11
26.10216981423024
 21
273.0670858091272
 31
0.0
  0
LINE
  5
1A8
330
1E
100
AcDbEntity
  8
0
100
AcDbLine
 10
34.47672626267686
 20
267.4448637286709
 30
0.0
 11
25.05101246978566
 21
269.970476127563
 31
0.0
  0
LINE
  5
1A9
330
1E
100
AcDbEntity
  8
0
100
AcDbLine
 10
34.47735457434079
 20
265.4381622067001
 30
0.0
 11
24.41303659266719
 21
266.7631548055013
 31
0.0
  0
LINE
  5
1AA
330
1E
100
AcDbEntity
  8
0
100
AcDbLine
 10
34.35032071181604
 20
263.5
 30
0.0
 11
24.19915812701244
 21
263.5
 31
0.0
  0
LINE
  5
1AB
330
1E
100
AcDbEntity
  8
0
100
AcDbLine
 10
34.47735457434083
 20
261.5618377932996
 30
0.0
 11
24.41303659266719
 21
260.2368451944987
 31
0.0
  0
LINE
  5
1AC
330
1E
100
AcDbEntity
  8
0
100
AcDbLine
 10
34.47672626267686
 20
259.5551362713288
 30
0.0
 11
25.05101246978574
 21
257.0295238724369
 31
0.0
  0
LINE
  5
1AD
330
1E
100
AcDbEntity
  8
0
100
AcDbLine
 10
34.47672626267687
 20
257.4017690506784
 30
0.0
 11
26.10216981423031
 21
253.9329141908727
 31
0.0
  0
LINE
  5
1AE
330
1E
100
AcDbEntity
  8
0
100
AcDbLine
 10
34.4767262626767
 20
254.9999999999998
 30
0.0
 11
27.54852303240147
 21
251.0
 31
0.0
  0
LINE
  5
1AF
330
1E
100
AcDbEntity
  8
0
100
AcDbLine
 10
36.55671927458765
 20
253.7991154746606
 30
0.0
 11
29.36532461973154
 21
248.2809642747818
 31
0.0
  0
LINE
  5
1B0
330
1E
100
AcDbEntity
  8
0
100
AcDbLine
 10
38.42158999134781
 20
252.7224318643352
 30
0.0
 11
31.52148859734876
 21
245.8223304703361
 31
0.0
  0
LINE
  5
1B1
330
1E
100
AcDbEntity
  8
0
100
AcDbLine
 10
40.15975864301928
 20
251.7196252372123
 30
0.0
 11
33.98012240179443
 21
243.6661664927189
 31
0.0
  0
LINE
  5
1B2
330
1E
100
AcDbEntity
  8
0
100
AcDbLine
 10
41.7747394194142
 20
250.6405295817751
 30
0.0
 11
36.69915812701244
 21
241.8493649053889
 31
0.0
  0
LINE
  5
1B3
330
1E
100
AcDbEntity
  8
0
100
AcDbLine
 10
43.51675405833387
 20
249.7814630305121
 30
0.0
 11
39.63207231788516
 21
240.4030116872178
 31
0.0
  0
LINE
  5
1B4
330
1E
100
AcDbEntity
  8
0
100
AcDbLine
 10
45.2542943983414
 20
248.7775681356644
 30
0.0
 11
42.72868199944928
 21
239.3518543427731
 31
0.0
  0
LINE
  5
1B5
330
1E
100
AcDbEntity
  8
0
100
AcDbLine
 10
47.11916511510158
 20
247.7008845253389
 30
0.0
 11
45.93600332151109
 21
238.7138784656547
 31
0.0
  0
LINE
  5
1B6
330
1E
100
AcDbEntity
  8
0
100
AcDbLine
 10
49.19915812701238
 20
246.4999999999998
 30
0.0
 11
49.19915812701238
 21
238.5
 31
0.0
  0
LINE
  5
1B7
330
1E
100
AcDbEntity
  8
0
100
AcDbLine
 10
51.27915113892317
 20
247.700884525339
 30
0.0
 11
52.46231293251366
 21
238.7138784656547
 31
0.0
  0
LINE
  5
1B8
330
1E
100
AcDbEntity
  8
0
100
AcDbLine
 10
53.14402185568332
 20
248.7775681356643
 30
0.0
 11
55.66963425457538
 21
239.3518543427731
 31
0.0
  0
LINE
  5
1B9
330
1E
100
AcDbEntity
  8
0
100
AcDbLine
 10
54.88156219569088
 20
249.7814630305121
 30
0.0
 11
58.76624393613957
 21
240.4030116872176
 31
0.0
  0
LINE
  5
1BA
330
1E
100
AcDbEntity
  8
0
100
AcDbLine
 10
56.62357683461057
 20
250.640529581775
 30
0.0
 11
61.69915812701238
 21
241.8493649053889
 31
0.0
  0
LINE
  5
1BB
330
1E
100
AcDbEntity
  8
0
100
AcDbLine
 10
58.23855761100549
 20
251.7196252372123
 30
0.0
 11
64.41819385223038
 21
243.666166492719
 31
0.0
  0
LINE
  5
1BC
330
1E
100
AcDbEntity
  8
0
100
AcDbLine
 10
59.97672626267697
 20
252.7224318643352
 30
0.0
 11
66.87682765667607
 21
245.8223304703361
 31
0.0
  0
LINE
  5
1BD
330
1E
100
AcDbEntity
  8
0
100
AcDbLine
 10
61.84159697943719
 20
253.7991154746606
 30
0.0
 11
69.03299163429316
 21
248.2809642747819
 31
0.0
  0
LINE
  5
1BE
330
1E
100
AcDbEntity
  8
0
100
AcDbLine
 10
63.92158999134768
 20
255.0000000000001
 30
0.0
 11
70.84979322162329
 21
251.0
 31
0.0
  0
LINE
  5
1BF
330
1E
100
AcDbEntity
  8
0
100
AcDbLine
 10
63.92158999134768
 20
257.4017690506784
 30
0.0
 11
72.29614643979449
 21
253.9329141908725
 31
0.0
  0
LINE
  5
1C0
330
1E
100
AcDbEntity
  8
0
100
AcDbLine
 10
63.92158999134766
 20
259.555136271329
 30
0.0
 11
73.34730378423907
 21
257.0295238724368
 31
0.0
  0
LINE
  5
1C1
330
1E
100
AcDbEntity
  8
0
100
AcDbLine
 10
63.92096167968398
 20
261.5618377932996
 30
0.0
 11
73.98527966135771
 21
260.2368451944986
 31
0.0
  0
LINE
  5
1C2
330
1E
100
AcDbEntity
  8
0
100
AcDbLine
 10
64.04799554220878
 20
263.4999999999998
 30
0.0
 11
74.19915812701237
 21
263.4999999999997
 31
0.0
  0
LINE
  5
1C3
330
1E
100
AcDbEntity
  8
0
100
AcDbLine
 10
63.92096167968398
 20
265.4381622067001
 30
0.0
 11
73.98527966135771
 21
266.7631548055012
 31
0.0
  0
LINE
  5
1C4
330
1E
100
AcDbEntity
  8
0
100
AcDbLine
 10
63.92158999134766
 20
267.4448637286706
 30
0.0
 11
73.34730378423907
 21
269.9704761275629
 31
0.0
  0
LINE
  5
1C5
330
1E
100
AcDbEntity
  8
0
100
AcDbLine
 10
63.92158999134768
 20
269.5982309493214
 30
0.0
 11
72.29614643979457
 21
273.067085809127
 31
0.0
  0
LINE
  5
1C6
330
1E
100
AcDbEntity
  8
0
100
AcDbLine
 10
63.92158999134752
 20
271.9999999999996
 30
0.0
 11
70.84979322162337
 21
275.9999999999998
 31
0.0
  0
LINE
  5
1C7
330
1E
100
AcDbEntity
  8
0
100
AcDbLine
 10
61.84159697943676
 20
273.2008845253389
 30
0.0
 11
69.0329916342933
 21
278.7190357252179
 31
0.0
  0
LINE
  5
1C8
330
1E
100
AcDbEntity
  8
0
100
AcDbLine
 10
59.97672626267661
 20
274.2775681356641
 30
0.0
 11
66.87682765667616
 21
281.1776695296634
 31
0.0
  0
LINE
  5
1C9
330
1E
100
AcDbEntity
  8
0
100
AcDbLine
 10
58.23855761100549
 20
275.2803747627873
 30
0.0
 11
64.41819385223048
 21
283.3338335072808
 31
0.0
  0
LINE
  5
1CA
330
1E
100
AcDbEntity
  8
0
100
AcDbLine
 10
56.62357683461066
 20
276.3594704182248
 30
0.0
 11
61.69915812701249
 21
285.1506350946109
 31
0.0
  0
LINE
  5
1CB
330
1E
100
AcDbEntity
  8
0
100
AcDbLine
 10
54.88156219569098
 20
277.2185369694876
 30
0.0
 11
58.76624393613967
 21
286.596988312782
 31
0.0
  0
LINE
  5
1CC
330
1E
100
AcDbEntity
  8
0
100
AcDbLine
 10
53.14402185568326
 20
278.2224318643349
 30
0.0
 11
55.66963425457547
 21
287.6481456572266
 31
0.0
  0
LINE
  5
1CD
330
1E
100
AcDbEntity
  8
0
100
AcDbLine
 10
51.27915113892314
 20
279.2991154746602
 30
0.0
 11
52.46231293251378
 21
288.2861215343452
 31
0.0
  0
LINE
  5
1CE
330
1E
100
AcDbEntity
  8
1
100
AcDbLine
 10
49.19915812701238
 20
263.5
 30
0.0
 11
49.19915812701238
 21
278.2224318643354
 31
0.0
  0
TEXT
  5
58B
330
1E
100
AcDbEntity
  8
0
100
AcDbText
 10
35.70674467095699
 20
213.7685172660862
 30
0.0
 40
6.0
  1
MIYOSHI
 41
0.8
  7
EXTFONT
100
AcDbText
  0
TEXT
  5
58C
330
1E
100
AcDbEntity
  8
0
100
AcDbText
 10
484.1663932467059
 20
213.7685172660862
 30
0.0
 40
6.0
  1
MIYOSHI
 41
0.8
  7
EXTFONT
100
AcDbText
  0
POLYLINE
  5
B4E
330
1E
100
AcDbEntity
  8
4
100
AcDb2dPolyline
 66
     1
 10
0.0
 20
0.0
 30
0.0
 70
     1
  0
VERTEX
  5
B4F
330
B4E
100
AcDbEntity
  8
4
100
AcDbVertex
100
AcDb2dVertex
 10
49.19915812701238
 20
280.4999999999995
 30
0.0
  0
VERTEX
  5
B50
330
B4E
100
AcDbEntity
  8
4
100
AcDbVertex
100
AcDb2dVertex
 10
34.47672626267687
 20
271.9999999999995
 30
0.0
  0
VERTEX
  5
B51
330
B4E
100
AcDbEntity
  8
4
100
AcDbVertex
100
AcDb2dVertex
 10
34.47672626267687
 20
254.9999999999997
 30
0.0
  0
VERTEX
  5
B52
330
B4E
100
AcDbEntity
  8
4
100
AcDbVertex
100
AcDb2dVertex
 10
49.19915812701238
 20
246.4999999999997
 30
0.0
  0
VERTEX
  5
B53
330
B4E
100
AcDbEntity
  8
4
100
AcDbVertex
100
AcDb2dVertex
 10
63.92158999134768
 20
254.9999999999997
 30
0.0
  0
VERTEX
  5
B54
330
B4E
100
AcDbEntity
  8
4
100
AcDbVertex
100
AcDb2dVertex
 10
63.92158999134768
 20
271.9999999999995
 30
0.0
  0
SEQEND
  5
B55
330
B4E
100
AcDbEntity
  8
4
  0
CIRCLE
  5
B56
330
1E
100
AcDbEntity
  8
4
100
AcDbCircle
 10
49.19915812701238
 20
263.5
 30
0.0
 40
14.7224318643355
  0
LINE
  5
B57
330
1E
100
AcDbEntity
  8
1
100
AcDbLine
 10
49.1991581270124
 20
280.4999999999995
 30
0.0
 11
49.19915812701238
 21
293.804177008244
 31
0.0
  0
LINE
  5
B58
330
1E
100
AcDbEntity
  8
1
100
AcDbLine
 10
49.19915812701238
 20
246.4999999999997
 30
0.0
 11
49.19915812701238
 21
180.0
 31
0.0
  0
LINE
  5
B59
330
1E
100
AcDbEntity
  8
1
100
AcDbLine
 10
318.0551828188884
 20
375.0
 30
0.0
 11
164.0551828188884
 21
375.0
 31
0.0
  0
LINE
  5
B5A
330
1E
100
AcDbEntity
  8
4
100
AcDbLine
 10
211.0551828188885
 20
385.0000000000002
 30
0.0
 11
199.0551828188885
 21
385.0000000000002
 31
0.0
  0
LINE
  5
B5B
330
1E
100
AcDbEntity
  8
4
100
AcDbLine
 10
199.0551828188885
 20
383.0000000000002
 30
0.0
 11
211.0551828188885
 21
383.0000000000002
 31
0.0
  0
LINE
  5
B5C
330
1E
100
AcDbEntity
  8
4
100
AcDbLine
 10
211.0551828188885
 20
365.0
 30
0.0
 11
199.0551828188885
 21
365.0
 31
0.0
  0
LINE
  5
B5D
330
1E
100
AcDbEntity
  8
4
100
AcDbLine
 10
199.0551828188885
 20
367.0
 30
0.0
 11
211.0551828188885
 21
367.0
 31
0.0
  0
ARC
  5
B5E
330
1E
100
AcDbEntity
  8
4
100
AcDbCircle
 10
204.0551828188885
 20
375.0
 30
0.0
 40
17.0
100
AcDbArc
 50
151.9275130641455
 51
208.0724869358545
  0
ARC
  5
B5F
330
1E
100
AcDbEntity
  8
4
100
AcDbCircle
 10
182.0551828188884
 20
375.0
 30
0.0
 40
17.0
100
AcDbArc
 50
331.9275130641455
 51
28.07248693585449
  0
LINE
  5
B60
330
1E
100
AcDbEntity
  8
4
100
AcDbLine
 10
173.0551828188885
 20
383.0000000000002
 30
0.0
 11
173.0551828188885
 21
367.0
 31
0.0
  0
LINE
  5
B61
330
1E
100
AcDbEntity
  8
4
100
AcDbLine
 10
175.0551828188885
 20
365.0
 30
0.0
 11
175.0551828188885
 21
385.0000000000002
 31
0.0
  0
LINE
  5
B62
330
1E
100
AcDbEntity
  8
4
100
AcDbLine
 10
187.0551828188883
 20
360.0000000000002
 30
0.0
 11
187.0551828188883
 21
390.0
 31
0.0
  0
LINE
  5
B63
330
1E
100
AcDbEntity
  8
4
100
AcDbLine
 10
199.0551828188885
 20
390.0
 30
0.0
 11
199.0551828188885
 21
360.0000000000002
 31
0.0
  0
LINE
  5
B64
330
1E
100
AcDbEntity
  8
4
100
AcDbLine
 10
173.0551828188885
 20
367.0
 30
0.0
 11
187.0551828188883
 21
367.0
 31
0.0
  0
LINE
  5
B65
330
1E
100
AcDbEntity
  8
4
100
AcDbLine
 10
187.0551828188883
 20
365.0
 30
0.0
 11
175.0551828188885
 21
365.0
 31
0.0
  0
LINE
  5
B66
330
1E
100
AcDbEntity
  8
4
100
AcDbLine
 10
173.0551828188885
 20
367.0
 30
0.0
 11
175.0551828188885
 21
365.0
 31
0.0
  0
LINE
  5
B67
330
1E
100
AcDbEntity
  8
4
100
AcDbLine
 10
189.0551828188883
 20
367.0
 30
0.0
 11
197.0551828188885
 21
367.0
 31
0.0
  0
LINE
  5
B68
330
1E
100
AcDbEntity
  8
4
100
AcDbLine
 10
197.0551828188885
 20
358.0000000000002
 30
0.0
 11
189.0551828188883
 21
358.0000000000002
 31
0.0
  0
LINE
  5
B69
330
1E
100
AcDbEntity
  8
4
100
AcDbLine
 10
189.0551828188883
 20
358.0000000000002
 30
0.0
 11
187.0551828188883
 21
360.0000000000002
 31
0.0
  0
ARC
  5
B6A
330
1E
100
AcDbEntity
  8
4
100
AcDbCircle
 10
193.1176828188885
 20
362.5
 30
0.0
 40
6.0625
100
AcDbArc
 50
132.0750220508426
 51
227.9249779491573
  0
LINE
  5
B6B
330
1E
100
AcDbEntity
  8
4
100
AcDbLine
 10
199.0551828188885
 20
360.0000000000002
 30
0.0
 11
197.0551828188885
 21
358.0000000000002
 31
0.0
  0
ARC
  5
B6C
330
1E
100
AcDbEntity
  8
4
100
AcDbCircle
 10
192.9926828188884
 20
362.5
 30
0.0
 40
6.0625
100
AcDbArc
 50
312.075022050842
 51
47.9249779491573
  0
LINE
  5
B6D
330
1E
100
AcDbEntity
  8
4
100
AcDbLine
 10
173.0551828188885
 20
383.0000000000002
 30
0.0
 11
187.0551828188883
 21
383.0000000000002
 31
0.0
  0
LINE
  5
B6E
330
1E
100
AcDbEntity
  8
4
100
AcDbLine
 10
187.0551828188883
 20
385.0000000000002
 30
0.0
 11
175.0551828188885
 21
385.0000000000002
 31
0.0
  0
LINE
  5
B6F
330
1E
100
AcDbEntity
  8
4
100
AcDbLine
 10
175.0551828188885
 20
385.0000000000002
 30
0.0
 11
173.0551828188885
 21
383.0000000000002
 31
0.0
  0
ARC
  5
B70
330
1E
100
AcDbEntity
  8
4
100
AcDbCircle
 10
192.9926828188884
 20
387.5
 30
0.0
 40
6.0625
100
AcDbArc
 50
312.075022050842
 51
47.9249779491573
  0
ARC
  5
B71
330
1E
100
AcDbEntity
  8
4
100
AcDbCircle
 10
193.1176828188885
 20
387.5
 30
0.0
 40
6.0625
100
AcDbArc
 50
132.0750220508426
 51
227.9249779491573
  0
LINE
  5
B72
330
1E
100
AcDbEntity
  8
4
100
AcDbLine
 10
189.0551828188883
 20
383.0000000000002
 30
0.0
 11
197.0551828188885
 21
383.0000000000002
 31
0.0
  0
LINE
  5
B73
330
1E
100
AcDbEntity
  8
4
100
AcDbLine
 10
189.0551828188883
 20
392.0
 30
0.0
 11
197.0551828188885
 21
392.0
 31
0.0
  0
LINE
  5
B74
330
1E
100
AcDbEntity
  8
4
100
AcDbLine
 10
187.0551828188883
 20
390.0
 30
0.0
 11
189.0551828188883
 21
392.0
 31
0.0
  0
LINE
  5
B75
330
1E
100
AcDbEntity
  8
4
100
AcDbLine
 10
197.0551828188885
 20
392.0
 30
0.0
 11
199.0551828188885
 21
390.0
 31
0.0
  0
ARC
  5
B76
330
1E
100
AcDbEntity
  8
4
100
AcDbCircle
 10
206.0551828188883
 20
375.0
 30
0.0
 40
17.0
100
AcDbArc
 50
331.9275130641455
 51
28.07248693585449
  0
ARC
  5
B77
330
1E
100
AcDbEntity
  8
4
100
AcDbCircle
 10
228.0551828188885
 20
375.0
 30
0.0
 40
17.0
100
AcDbArc
 50
151.9275130641455
 51
208.0724869358545
  0
LINE
  5
B78
330
1E
100
AcDbEntity
  8
4
100
AcDbLine
 10
211.0551828188885
 20
360.0000000000002
 30
0.0
 11
211.0551828188885
 21
390.0
 31
0.0
  0
LINE
  5
B79
330
1E
100
AcDbEntity
  8
4
100
AcDbLine
 10
223.0551828188883
 20
390.0
 30
0.0
 11
223.0551828188883
 21
360.0000000000002
 31
0.0
  0
LINE
  5
B7A
330
1E
100
AcDbEntity
  8
4
100
AcDbLine
 10
283.0551828188883
 20
367.0
 30
0.0
 11
223.0551828188883
 21
367.0
 31
0.0
  0
LINE
  5
B7B
330
1E
100
AcDbEntity
  8
4
100
AcDbLine
 10
283.0551828188883
 20
365.0
 30
0.0
 11
222.5551828188883
 21
365.0
 31
0.0
  0
LINE
  5
B7C
330
1E
100
AcDbEntity
  8
4
100
AcDbLine
 10
213.0551828188885
 20
367.0
 30
0.0
 11
221.0551828188885
 21
367.0
 31
0.0
  0
LINE
  5
B7D
330
1E
100
AcDbEntity
  8
4
100
AcDbLine
 10
221.0551828188885
 20
358.0000000000002
 30
0.0
 11
213.0551828188885
 21
358.0000000000002
 31
0.0
  0
LINE
  5
B7E
330
1E
100
AcDbEntity
  8
4
100
AcDbLine
 10
213.0551828188885
 20
358.0000000000002
 30
0.0
 11
211.0551828188885
 21
360.0000000000002
 31
0.0
  0
ARC
  5
B7F
330
1E
100
AcDbEntity
  8
4
100
AcDbCircle
 10
217.1176828188885
 20
362.5
 30
0.0
 40
6.0625
100
AcDbArc
 50
132.0750220508426
 51
227.9249779491573
  0
LINE
  5
B80
330
1E
100
AcDbEntity
  8
4
100
AcDbLine
 10
223.0551828188883
 20
360.0000000000002
 30
0.0
 11
221.0551828188885
 21
358.0000000000002
 31
0.0
  0
ARC
  5
B81
330
1E
100
AcDbEntity
  8
4
100
AcDbCircle
 10
216.9926828188885
 20
362.5
 30
0.0
 40
6.0625
100
AcDbArc
 50
312.075022050842
 51
47.9249779491573
  0
LINE
  5
B82
330
1E
100
AcDbEntity
  8
4
100
AcDbLine
 10
224.0551828188884
 20
367.0
 30
0.0
 11
223.0551828188883
 21
367.0
 31
0.0
  0
LINE
  5
B83
330
1E
100
AcDbEntity
  8
4
100
AcDbLine
 10
224.5551828188885
 20
365.0
 30
0.0
 11
223.0551828188883
 21
365.0
 31
0.0
  0
LINE
  5
B84
330
1E
100
AcDbEntity
  8
4
100
AcDbLine
 10
283.0551828188883
 20
385.0000000000002
 30
0.0
 11
223.0551828188883
 21
385.0000000000002
 31
0.0
  0
LINE
  5
B85
330
1E
100
AcDbEntity
  8
4
100
AcDbLine
 10
283.0551828188883
 20
383.0000000000002
 30
0.0
 11
223.0551828188883
 21
383.0000000000002
 31
0.0
  0
ARC
  5
B86
330
1E
100
AcDbEntity
  8
4
100
AcDbCircle
 10
216.9926828188885
 20
387.5
 30
0.0
 40
6.0625
100
AcDbArc
 50
312.075022050842
 51
47.9249779491573
  0
ARC
  5
B87
330
1E
100
AcDbEntity
  8
4
100
AcDbCircle
 10
217.1176828188885
 20
387.5
 30
0.0
 40
6.0625
100
AcDbArc
 50
132.0750220508426
 51
227.9249779491573
  0
LINE
  5
B88
330
1E
100
AcDbEntity
  8
4
100
AcDbLine
 10
213.0551828188885
 20
383.0000000000002
 30
0.0
 11
221.0551828188885
 21
383.0000000000002
 31
0.0
  0
LINE
  5
B89
330
1E
100
AcDbEntity
  8
4
100
AcDbLine
 10
224.0551828188884
 20
383.0000000000002
 30
0.0
 11
223.0551828188883
 21
383.0000000000002
 31
0.0
  0
LINE
  5
B8A
330
1E
100
AcDbEntity
  8
4
100
AcDbLine
 10
213.0551828188885
 20
392.0
 30
0.0
 11
221.0551828188885
 21
392.0
 31
0.0
  0
LINE
  5
B8B
330
1E
100
AcDbEntity
  8
4
100
AcDbLine
 10
211.0551828188885
 20
390.0
 30
0.0
 11
213.0551828188885
 21
392.0
 31
0.0
  0
LINE
  5
B8C
330
1E
100
AcDbEntity
  8
4
100
AcDbLine
 10
221.0551828188885
 20
392.0
 30
0.0
 11
223.0551828188883
 21
390.0
 31
0.0
  0
LINE
  5
B8D
330
1E
100
AcDbEntity
  8
4
100
AcDbLine
 10
311.5551828188883
 20
389.0000000000002
 30
0.0
 11
311.5551828188883
 21
361.0000000000002
 31
0.0
  0
LINE
  5
B8E
330
1E
100
AcDbEntity
  8
4
100
AcDbLine
 10
310.5551828188884
 20
390.0
 30
0.0
 11
311.5551828188883
 21
389.0000000000002
 31
0.0
  0
LINE
  5
B8F
330
1E
100
AcDbEntity
  8
4
100
AcDbLine
 10
309.5551828188884
 20
390.0
 30
0.0
 11
310.5551828188884
 21
390.0
 31
0.0
  0
LINE
  5
B90
330
1E
100
AcDbEntity
  8
4
100
AcDbLine
 10
311.5551828188883
 20
361.0000000000002
 30
0.0
 11
310.5551828188884
 21
360.0000000000002
 31
0.0
  0
LINE
  5
B91
330
1E
100
AcDbEntity
  8
4
100
AcDbLine
 10
310.5551828188884
 20
360.0000000000002
 30
0.0
 11
309.5551828188884
 21
360.0000000000002
 31
0.0
  0
LINE
  5
B92
330
1E
100
AcDbEntity
  8
5
100
AcDbLine
 10
297.5551828188884
 20
360.0000000000002
 30
0.0
 11
309.5551828188884
 21
360.0000000000002
 31
0.0
  0
LINE
  5
B93
330
1E
100
AcDbEntity
  8
5
100
AcDbLine
 10
297.5551828188884
 20
390.0
 30
0.0
 11
309.5551828188884
 21
390.0
 31
0.0
  0
LINE
  5
B94
330
1E
100
AcDbEntity
  8
1
100
AcDbLine
 10
318.0551828188884
 20
263.5
 30
0.0
 11
164.0551828188884
 21
263.5
 31
0.0
  0
ARC
  5
B95
330
1E
100
AcDbEntity
  8
4
100
AcDbCircle
 10
216.9926828188885
 20
251.0
 30
0.0
 40
6.0625
100
AcDbArc
 50
312.075022050842
 51
47.9249779491573
  0
ARC
  5
B96
330
1E
100
AcDbEntity
  8
4
100
AcDbCircle
 10
217.1176828188885
 20
251.0
 30
0.0
 40
6.0625
100
AcDbArc
 50
132.0750220508426
 51
227.9249779491573
  0
LINE
  5
B97
330
1E
100
AcDbEntity
  8
4
100
AcDbLine
 10
223.0551828188883
 20
278.5
 30
0.0
 11
223.0551828188883
 21
248.5000000000002
 31
0.0
  0
LINE
  5
B98
330
1E
100
AcDbEntity
  8
4
100
AcDbLine
 10
211.0551828188885
 20
248.5000000000002
 30
0.0
 11
211.0551828188885
 21
278.5
 31
0.0
  0
ARC
  5
B99
330
1E
100
AcDbEntity
  8
4
100
AcDbCircle
 10
192.9926828188884
 20
251.0
 30
0.0
 40
6.0625
100
AcDbArc
 50
312.075022050842
 51
47.9249779491573
  0
ARC
  5
B9A
330
1E
100
AcDbEntity
  8
4
100
AcDbCircle
 10
193.1176828188885
 20
251.0
 30
0.0
 40
6.0625
100
AcDbArc
 50
132.0750220508426
 51
227.9249779491573
  0
LINE
  5
B9B
330
1E
100
AcDbEntity
  8
4
100
AcDbLine
 10
173.0551828188885
 20
255.5
 30
0.0
 11
175.0551828188885
 21
253.5
 31
0.0
  0
LINE
  5
B9C
330
1E
100
AcDbEntity
  8
4
100
AcDbLine
 10
199.0551828188885
 20
278.5
 30
0.0
 11
199.0551828188885
 21
248.5000000000002
 31
0.0
  0
LINE
  5
B9D
330
1E
100
AcDbEntity
  8
4
100
AcDbLine
 10
187.0551828188883
 20
248.5000000000002
 30
0.0
 11
187.0551828188883
 21
278.5
 31
0.0
  0
LINE
  5
B9E
330
1E
100
AcDbEntity
  8
4
100
AcDbLine
 10
175.0551828188885
 20
253.5
 30
0.0
 11
175.0551828188885
 21
273.5000000000002
 31
0.0
  0
LINE
  5
B9F
330
1E
100
AcDbEntity
  8
4
100
AcDbLine
 10
211.0551828188885
 20
253.5
 30
0.0
 11
199.0551828188885
 21
253.5
 31
0.0
  0
LINE
  5
BA0
330
1E
100
AcDbEntity
  8
4
100
AcDbLine
 10
187.0551828188883
 20
253.5
 30
0.0
 11
175.0551828188885
 21
253.5
 31
0.0
  0
LINE
  5
BA1
330
1E
100
AcDbEntity
  8
4
100
AcDbLine
 10
197.0551828188885
 20
246.5000000000002
 30
0.0
 11
189.0551828188883
 21
246.5000000000002
 31
0.0
  0
LINE
  5
BA2
330
1E
100
AcDbEntity
  8
4
100
AcDbLine
 10
189.0551828188883
 20
246.5000000000002
 30
0.0
 11
187.0551828188883
 21
248.5000000000002
 31
0.0
  0
LINE
  5
BA3
330
1E
100
AcDbEntity
  8
4
100
AcDbLine
 10
199.0551828188885
 20
248.5000000000002
 30
0.0
 11
197.0551828188885
 21
246.5000000000002
 31
0.0
  0
LINE
  5
BA4
330
1E
100
AcDbEntity
  8
4
100
AcDbLine
 10
283.0551828188883
 20
253.5
 30
0.0
 11
222.5551828188883
 21
253.5
 31
0.0
  0
LINE
  5
BA5
330
1E
100
AcDbEntity
  8
4
100
AcDbLine
 10
221.0551828188885
 20
246.5000000000002
 30
0.0
 11
213.0551828188885
 21
246.5000000000002
 31
0.0
  0
LINE
  5
BA6
330
1E
100
AcDbEntity
  8
4
100
AcDbLine
 10
213.0551828188885
 20
246.5000000000002
 30
0.0
 11
211.0551828188885
 21
248.5000000000002
 31
0.0
  0
LINE
  5
BA7
330
1E
100
AcDbEntity
  8
4
100
AcDbLine
 10
224.5551828188885
 20
253.5
 30
0.0
 11
223.0551828188883
 21
253.5
 31
0.0
  0
LINE
  5
BA8
330
1E
100
AcDbEntity
  8
4
100
AcDbLine
 10
223.0551828188883
 20
248.5000000000002
 30
0.0
 11
221.0551828188885
 21
246.5000000000002
 31
0.0
  0
LINE
  5
BA9
330
1E
100
AcDbEntity
  8
4
100
AcDbLine
 10
199.0551828188885
 20
255.5
 30
0.0
 11
211.0551828188885
 21
255.5
 31
0.0
  0
LINE
  5
BAA
330
1E
100
AcDbEntity
  8
4
100
AcDbLine
 10
199.0551828188885
 20
271.5000000000002
 30
0.0
 11
211.0551828188885
 21
271.5000000000002
 31
0.0
  0
LINE
  5
BAB
330
1E
100
AcDbEntity
  8
4
100
AcDbLine
 10
211.0551828188885
 20
273.5000000000002
 30
0.0
 11
199.0551828188885
 21
273.5000000000002
 31
0.0
  0
LINE
  5
BAC
330
1E
100
AcDbEntity
  8
4
100
AcDbLine
 10
187.0551828188883
 20
273.5000000000002
 30
0.0
 11
175.0551828188885
 21
273.5000000000002
 31
0.0
  0
LINE
  5
BAD
330
1E
100
AcDbEntity
  8
4
100
AcDbLine
 10
173.0551828188885
 20
271.5000000000002
 30
0.0
 11
187.0551828188883
 21
271.5000000000002
 31
0.0
  0
LINE
  5
BAE
330
1E
100
AcDbEntity
  8
4
100
AcDbLine
 10
173.0551828188885
 20
255.5
 30
0.0
 11
187.0551828188883
 21
255.5
 31
0.0
  0
LINE
  5
BAF
330
1E
100
AcDbEntity
  8
4
100
AcDbLine
 10
175.0551828188885
 20
273.5000000000002
 30
0.0
 11
173.0551828188885
 21
271.5000000000002
 31
0.0
  0
LINE
  5
BB0
330
1E
100
AcDbEntity
  8
4
100
AcDbLine
 10
173.0551828188885
 20
271.5000000000002
 30
0.0
 11
173.0551828188885
 21
255.5
 31
0.0
  0
ARC
  5
BB1
330
1E
100
AcDbEntity
  8
4
100
AcDbCircle
 10
193.1176828188885
 20
276.0
 30
0.0
 40
6.0625
100
AcDbArc
 50
132.0750220508426
 51
227.9249779491573
  0
ARC
  5
BB2
330
1E
100
AcDbEntity
  8
4
100
AcDbCircle
 10
192.9926828188884
 20
276.0
 30
0.0
 40
6.0625
100
AcDbArc
 50
312.075022050842
 51
47.9249779491573
  0
LINE
  5
BB3
330
1E
100
AcDbEntity
  8
4
100
AcDbLine
 10
189.0551828188883
 20
271.5000000000002
 30
0.0
 11
197.0551828188885
 21
271.5000000000002
 31
0.0
  0
LINE
  5
BB4
330
1E
100
AcDbEntity
  8
4
100
AcDbLine
 10
189.0551828188883
 20
255.5
 30
0.0
 11
197.0551828188885
 21
255.5
 31
0.0
  0
ARC
  5
BB5
330
1E
100
AcDbEntity
  8
4
100
AcDbCircle
 10
204.0551828188885
 20
263.5
 30
0.0
 40
17.0
100
AcDbArc
 50
151.9275130641455
 51
208.0724869358545
  0
ARC
  5
BB6
330
1E
100
AcDbEntity
  8
4
100
AcDbCircle
 10
182.0551828188884
 20
263.5
 30
0.0
 40
17.0
100
AcDbArc
 50
331.9275130641455
 51
28.07248693585449
  0
LINE
  5
BB7
330
1E
100
AcDbEntity
  8
4
100
AcDbLine
 10
189.0551828188883
 20
280.5
 30
0.0
 11
197.0551828188885
 21
280.5
 31
0.0
  0
LINE
  5
BB8
330
1E
100
AcDbEntity
  8
4
100
AcDbLine
 10
187.0551828188883
 20
278.5
 30
0.0
 11
189.0551828188883
 21
280.5
 31
0.0
  0
LINE
  5
BB9
330
1E
100
AcDbEntity
  8
4
100
AcDbLine
 10
197.0551828188885
 20
280.5
 30
0.0
 11
199.0551828188885
 21
278.5
 31
0.0
  0
LINE
  5
BBA
330
1E
100
AcDbEntity
  8
4
100
AcDbLine
 10
283.0551828188883
 20
271.5000000000002
 30
0.0
 11
223.0551828188883
 21
271.5000000000002
 31
0.0
  0
LINE
  5
BBB
330
1E
100
AcDbEntity
  8
4
100
AcDbLine
 10
283.0551828188883
 20
273.5000000000002
 30
0.0
 11
223.0551828188883
 21
273.5000000000002
 31
0.0
  0
LINE
  5
BBC
330
1E
100
AcDbEntity
  8
4
100
AcDbLine
 10
283.0551828188883
 20
255.5
 30
0.0
 11
223.0551828188883
 21
255.5
 31
0.0
  0
ARC
  5
BBD
330
1E
100
AcDbEntity
  8
4
100
AcDbCircle
 10
217.1176828188885
 20
276.0
 30
0.0
 40
6.0625
100
AcDbArc
 50
132.0750220508426
 51
227.9249779491573
  0
ARC
  5
BBE
330
1E
100
AcDbEntity
  8
4
100
AcDbCircle
 10
216.9926828188885
 20
276.0
 30
0.0
 40
6.0625
100
AcDbArc
 50
312.075022050842
 51
47.9249779491573
  0
LINE
  5
BBF
330
1E
100
AcDbEntity
  8
4
100
AcDbLine
 10
213.0551828188885
 20
271.5000000000002
 30
0.0
 11
221.0551828188885
 21
271.5000000000002
 31
0.0
  0
LINE
  5
BC0
330
1E
100
AcDbEntity
  8
4
100
AcDbLine
 10
213.0551828188885
 20
255.5
 30
0.0
 11
221.0551828188885
 21
255.5
 31
0.0
  0
ARC
  5
BC1
330
1E
100
AcDbEntity
  8
4
100
AcDbCircle
 10
228.0551828188885
 20
263.5
 30
0.0
 40
17.0
100
AcDbArc
 50
151.9275130641455
 51
208.0724869358545
  0
ARC
  5
BC2
330
1E
100
AcDbEntity
  8
4
100
AcDbCircle
 10
206.0551828188883
 20
263.5
 30
0.0
 40
17.0
100
AcDbArc
 50
331.9275130641455
 51
28.07248693585449
  0
LINE
  5
BC3
330
1E
100
AcDbEntity
  8
4
100
AcDbLine
 10
224.0551828188884
 20
255.5
 30
0.0
 11
223.0551828188883
 21
255.5
 31
0.0
  0
LINE
  5
BC4
330
1E
100
AcDbEntity
  8
4
100
AcDbLine
 10
224.0551828188884
 20
271.5000000000002
 30
0.0
 11
223.0551828188883
 21
271.5000000000002
 31
0.0
  0
LINE
  5
BC5
330
1E
100
AcDbEntity
  8
4
100
AcDbLine
 10
213.0551828188885
 20
280.5
 30
0.0
 11
221.0551828188885
 21
280.5
 31
0.0
  0
LINE
  5
BC6
330
1E
100
AcDbEntity
  8
4
100
AcDbLine
 10
211.0551828188885
 20
278.5
 30
0.0
 11
213.0551828188885
 21
280.5
 31
0.0
  0
LINE
  5
BC7
330
1E
100
AcDbEntity
  8
4
100
AcDbLine
 10
221.0551828188885
 20
280.5
 30
0.0
 11
223.0551828188883
 21
278.5
 31
0.0
  0
LINE
  5
BC8
330
1E
100
AcDbEntity
  8
5
100
AcDbLine
 10
297.5551828188884
 20
278.5
 30
0.0
 11
309.5551828188884
 21
278.5
 31
0.0
  0
LINE
  5
BC9
330
1E
100
AcDbEntity
  8
4
100
AcDbLine
 10
311.5551828188883
 20
277.5000000000002
 30
0.0
 11
311.5551828188883
 21
249.5000000000002
 31
0.0
  0
LINE
  5
BCA
330
1E
100
AcDbEntity
  8
4
100
AcDbLine
 10
309.5551828188884
 20
278.5
 30
0.0
 11
310.5551828188884
 21
278.5
 31
0.0
  0
LINE
  5
BCB
330
1E
100
AcDbEntity
  8
4
100
AcDbLine
 10
310.5551828188884
 20
278.5
 30
0.0
 11
311.5551828188883
 21
277.5000000000002
 31
0.0
  0
LINE
  5
BCC
330
1E
100
AcDbEntity
  8
5
100
AcDbLine
 10
297.5551828188884
 20
248.5000000000002
 30
0.0
 11
309.5551828188884
 21
248.5000000000002
 31
0.0
  0
LINE
  5
BCD
330
1E
100
AcDbEntity
  8
4
100
AcDbLine
 10
310.5551828188884
 20
248.5000000000002
 30
0.0
 11
309.5551828188884
 21
248.5000000000002
 31
0.0
  0
LINE
  5
BCE
330
1E
100
AcDbEntity
  8
4
100
AcDbLine
 10
311.5551828188883
 20
249.5000000000002
 30
0.0
 11
310.5551828188884
 21
248.5000000000002
 31
0.0
  0
LINE
  5
BCF
330
1E
100
AcDbEntity
  8
1
100
AcDbLine
 10
318.0551828188884
 20
78.5
 30
0.0
 11
164.0551828188884
 21
78.5
 31
0.0
  0
LINE
  5
BD0
330
1E
100
AcDbEntity
  8
4
100
AcDbLine
 10
211.0551828188885
 20
88.50000000000022
 30
0.0
 11
199.0551828188885
 21
88.50000000000022
 31
0.0
  0
LINE
  5
BD1
330
1E
100
AcDbEntity
  8
4
100
AcDbLine
 10
199.0551828188885
 20
86.50000000000023
 30
0.0
 11
211.0551828188885
 21
86.50000000000023
 31
0.0
  0
LINE
  5
BD2
330
1E
100
AcDbEntity
  8
4
100
AcDbLine
 10
199.0551828188885
 20
70.5
 30
0.0
 11
211.0551828188885
 21
70.5
 31
0.0
  0
LINE
  5
BD3
330
1E
100
AcDbEntity
  8
4
100
AcDbLine
 10
211.0551828188885
 20
68.5
 30
0.0
 11
199.0551828188885
 21
68.5
 31
0.0
  0
ARC
  5
BD4
330
1E
100
AcDbEntity
  8
4
100
AcDbCircle
 10
182.0551828188884
 20
78.5
 30
0.0
 40
17.0
100
AcDbArc
 50
331.9275130641455
 51
28.07248693585449
  0
ARC
  5
BD5
330
1E
100
AcDbEntity
  8
4
100
AcDbCircle
 10
204.0551828188885
 20
78.5
 30
0.0
 40
17.0
100
AcDbArc
 50
151.9275130641455
 51
208.0724869358545
  0
LINE
  5
BD6
330
1E
100
AcDbEntity
  8
4
100
AcDbLine
 10
173.0551828188885
 20
86.50000000000023
 30
0.0
 11
173.0551828188885
 21
70.5
 31
0.0
  0
LINE
  5
BD7
330
1E
100
AcDbEntity
  8
4
100
AcDbLine
 10
175.0551828188885
 20
68.5
 30
0.0
 11
175.0551828188885
 21
88.50000000000022
 31
0.0
  0
LINE
  5
BD8
330
1E
100
AcDbEntity
  8
4
100
AcDbLine
 10
187.0551828188883
 20
63.50000000000022
 30
0.0
 11
187.0551828188883
 21
93.49999999999999
 31
0.0
  0
LINE
  5
BD9
330
1E
100
AcDbEntity
  8
4
100
AcDbLine
 10
199.0551828188885
 20
93.49999999999999
 30
0.0
 11
199.0551828188885
 21
63.50000000000022
 31
0.0
  0
LINE
  5
BDA
330
1E
100
AcDbEntity
  8
4
100
AcDbLine
 10
173.0551828188885
 20
70.5
 30
0.0
 11
187.0551828188883
 21
70.5
 31
0.0
  0
LINE
  5
BDB
330
1E
100
AcDbEntity
  8
4
100
AcDbLine
 10
187.0551828188883
 20
68.5
 30
0.0
 11
175.0551828188885
 21
68.5
 31
0.0
  0
LINE
  5
BDC
330
1E
100
AcDbEntity
  8
4
100
AcDbLine
 10
173.0551828188885
 20
70.5
 30
0.0
 11
175.0551828188885
 21
68.5
 31
0.0
  0
LINE
  5
BDD
330
1E
100
AcDbEntity
  8
4
100
AcDbLine
 10
189.0551828188883
 20
70.5
 30
0.0
 11
197.0551828188885
 21
70.5
 31
0.0
  0
LINE
  5
BDE
330
1E
100
AcDbEntity
  8
4
100
AcDbLine
 10
197.0551828188885
 20
61.50000000000023
 30
0.0
 11
189.0551828188883
 21
61.50000000000023
 31
0.0
  0
ARC
  5
BDF
330
1E
100
AcDbEntity
  8
4
100
AcDbCircle
 10
193.1176828188885
 20
66.0
 30
0.0
 40
6.0625
100
AcDbArc
 50
132.0750220508426
 51
227.9249779491573
  0
LINE
  5
BE0
330
1E
100
AcDbEntity
  8
4
100
AcDbLine
 10
189.0551828188883
 20
61.50000000000023
 30
0.0
 11
187.0551828188883
 21
63.50000000000022
 31
0.0
  0
ARC
  5
BE1
330
1E
100
AcDbEntity
  8
4
100
AcDbCircle
 10
192.9926828188884
 20
66.0
 30
0.0
 40
6.0625
100
AcDbArc
 50
312.075022050842
 51
47.9249779491573
  0
LINE
  5
BE2
330
1E
100
AcDbEntity
  8
4
100
AcDbLine
 10
199.0551828188885
 20
63.50000000000022
 30
0.0
 11
197.0551828188885
 21
61.50000000000023
 31
0.0
  0
LINE
  5
BE3
330
1E
100
AcDbEntity
  8
4
100
AcDbLine
 10
173.0551828188885
 20
86.50000000000023
 30
0.0
 11
187.0551828188883
 21
86.50000000000023
 31
0.0
  0
LINE
  5
BE4
330
1E
100
AcDbEntity
  8
4
100
AcDbLine
 10
187.0551828188883
 20
88.50000000000022
 30
0.0
 11
175.0551828188885
 21
88.50000000000022
 31
0.0
  0
LINE
  5
BE5
330
1E
100
AcDbEntity
  8
4
100
AcDbLine
 10
175.0551828188885
 20
88.50000000000022
 30
0.0
 11
173.0551828188885
 21
86.50000000000023
 31
0.0
  0
ARC
  5
BE6
330
1E
100
AcDbEntity
  8
4
100
AcDbCircle
 10
192.9926828188884
 20
91.0
 30
0.0
 40
6.0625
100
AcDbArc
 50
312.075022050842
 51
47.9249779491573
  0
ARC
  5
BE7
330
1E
100
AcDbEntity
  8
4
100
AcDbCircle
 10
193.1176828188885
 20
91.0
 30
0.0
 40
6.0625
100
AcDbArc
 50
132.0750220508426
 51
227.9249779491573
  0
LINE
  5
BE8
330
1E
100
AcDbEntity
  8
4
100
AcDbLine
 10
189.0551828188883
 20
86.50000000000023
 30
0.0
 11
197.0551828188885
 21
86.50000000000023
 31
0.0
  0
LINE
  5
BE9
330
1E
100
AcDbEntity
  8
4
100
AcDbLine
 10
189.0551828188883
 20
95.5
 30
0.0
 11
197.0551828188885
 21
95.5
 31
0.0
  0
LINE
  5
BEA
330
1E
100
AcDbEntity
  8
4
100
AcDbLine
 10
187.0551828188883
 20
93.49999999999999
 30
0.0
 11
189.0551828188883
 21
95.5
 31
0.0
  0
LINE
  5
BEB
330
1E
100
AcDbEntity
  8
4
100
AcDbLine
 10
197.0551828188885
 20
95.5
 30
0.0
 11
199.0551828188885
 21
93.49999999999999
 31
0.0
  0
LINE
  5
BEC
330
1E
100
AcDbEntity
  8
4
100
AcDbLine
 10
283.0551828188883
 20
68.5
 30
0.0
 11
222.5551828188883
 21
68.5
 31
0.0
  0
LINE
  5
BED
330
1E
100
AcDbEntity
  8
4
100
AcDbLine
 10
283.0551828188883
 20
70.5
 30
0.0
 11
223.0551828188883
 21
70.5
 31
0.0
  0
LINE
  5
BEE
330
1E
100
AcDbEntity
  8
4
100
AcDbLine
 10
283.0551828188883
 20
88.50000000000022
 30
0.0
 11
223.0551828188883
 21
88.50000000000022
 31
0.0
  0
LINE
  5
BEF
330
1E
100
AcDbEntity
  8
4
100
AcDbLine
 10
283.0551828188883
 20
86.50000000000023
 30
0.0
 11
223.0551828188883
 21
86.50000000000023
 31
0.0
  0
LINE
  5
BF0
330
1E
100
AcDbEntity
  8
4
100
AcDbLine
 10
211.0551828188885
 20
63.50000000000022
 30
0.0
 11
211.0551828188885
 21
93.49999999999999
 31
0.0
  0
LINE
  5
BF1
330
1E
100
AcDbEntity
  8
4
100
AcDbLine
 10
223.0551828188883
 20
93.49999999999999
 30
0.0
 11
223.0551828188883
 21
63.50000000000022
 31
0.0
  0
ARC
  5
BF2
330
1E
100
AcDbEntity
  8
4
100
AcDbCircle
 10
206.0551828188883
 20
78.5
 30
0.0
 40
17.0
100
AcDbArc
 50
331.9275130641455
 51
28.07248693585449
  0
ARC
  5
BF3
330
1E
100
AcDbEntity
  8
4
100
AcDbCircle
 10
228.0551828188885
 20
78.5
 30
0.0
 40
17.0
100
AcDbArc
 50
151.9275130641455
 51
208.0724869358545
  0
LINE
  5
BF4
330
1E
100
AcDbEntity
  8
4
100
AcDbLine
 10
221.0551828188885
 20
61.50000000000023
 30
0.0
 11
213.0551828188885
 21
61.50000000000023
 31
0.0
  0
LINE
  5
BF5
330
1E
100
AcDbEntity
  8
4
100
AcDbLine
 10
213.0551828188885
 20
70.5
 30
0.0
 11
221.0551828188885
 21
70.5
 31
0.0
  0
ARC
  5
BF6
330
1E
100
AcDbEntity
  8
4
100
AcDbCircle
 10
217.1176828188885
 20
66.0
 30
0.0
 40
6.0625
100
AcDbArc
 50
132.0750220508426
 51
227.9249779491573
  0
LINE
  5
BF7
330
1E
100
AcDbEntity
  8
4
100
AcDbLine
 10
213.0551828188885
 20
61.50000000000023
 30
0.0
 11
211.0551828188885
 21
63.50000000000022
 31
0.0
  0
ARC
  5
BF8
330
1E
100
AcDbEntity
  8
4
100
AcDbCircle
 10
216.9926828188885
 20
66.0
 30
0.0
 40
6.0625
100
AcDbArc
 50
312.075022050842
 51
47.9249779491573
  0
LINE
  5
BF9
330
1E
100
AcDbEntity
  8
4
100
AcDbLine
 10
223.0551828188883
 20
63.50000000000022
 30
0.0
 11
221.0551828188885
 21
61.50000000000023
 31
0.0
  0
LINE
  5
BFA
330
1E
100
AcDbEntity
  8
4
100
AcDbLine
 10
224.5551828188885
 20
68.5
 30
0.0
 11
223.0551828188883
 21
68.5
 31
0.0
  0
LINE
  5
BFB
330
1E
100
AcDbEntity
  8
4
100
AcDbLine
 10
224.0551828188884
 20
70.5
 30
0.0
 11
223.0551828188883
 21
70.5
 31
0.0
  0
ARC
  5
BFC
330
1E
100
AcDbEntity
  8
4
100
AcDbCircle
 10
216.9926828188885
 20
91.0
 30
0.0
 40
6.0625
100
AcDbArc
 50
312.075022050842
 51
47.9249779491573
  0
ARC
  5
BFD
330
1E
100
AcDbEntity
  8
4
100
AcDbCircle
 10
217.1176828188885
 20
91.0
 30
0.0
 40
6.0625
100
AcDbArc
 50
132.0750220508426
 51
227.9249779491573
  0
LINE
  5
BFE
330
1E
100
AcDbEntity
  8
4
100
AcDbLine
 10
213.0551828188885
 20
86.50000000000023
 30
0.0
 11
221.0551828188885
 21
86.50000000000023
 31
0.0
  0
LINE
  5
BFF
330
1E
100
AcDbEntity
  8
4
100
AcDbLine
 10
224.0551828188884
 20
86.50000000000023
 30
0.0
 11
223.0551828188883
 21
86.50000000000023
 31
0.0
  0
LINE
  5
C00
330
1E
100
AcDbEntity
  8
4
100
AcDbLine
 10
213.0551828188885
 20
95.5
 30
0.0
 11
221.0551828188885
 21
95.5
 31
0.0
  0
LINE
  5
C01
330
1E
100
AcDbEntity
  8
4
100
AcDbLine
 10
211.0551828188885
 20
93.49999999999999
 30
0.0
 11
213.0551828188885
 21
95.5
 31
0.0
  0
LINE
  5
C02
330
1E
100
AcDbEntity
  8
4
100
AcDbLine
 10
221.0551828188885
 20
95.5
 30
0.0
 11
223.0551828188883
 21
93.49999999999999
 31
0.0
  0
LINE
  5
C03
330
1E
100
AcDbEntity
  8
5
100
AcDbLine
 10
297.5551828188884
 20
93.49999999999999
 30
0.0
 11
309.5551828188884
 21
93.49999999999999
 31
0.0
  0
LINE
  5
C04
330
1E
100
AcDbEntity
  8
4
100
AcDbLine
 10
311.5551828188883
 20
92.50000000000023
 30
0.0
 11
311.5551828188883
 21
64.50000000000023
 31
0.0
  0
LINE
  5
C05
330
1E
100
AcDbEntity
  8
4
100
AcDbLine
 10
310.5551828188884
 20
93.49999999999999
 30
0.0
 11
311.5551828188883
 21
92.50000000000023
 31
0.0
  0
LINE
  5
C06
330
1E
100
AcDbEntity
  8
4
100
AcDbLine
 10
309.5551828188884
 20
93.49999999999999
 30
0.0
 11
310.5551828188884
 21
93.49999999999999
 31
0.0
  0
LINE
  5
C07
330
1E
100
AcDbEntity
  8
5
100
AcDbLine
 10
297.5551828188884
 20
63.50000000000022
 30
0.0
 11
309.5551828188884
 21
63.50000000000022
 31
0.0
  0
LINE
  5
C08
330
1E
100
AcDbEntity
  8
4
100
AcDbLine
 10
311.5551828188883
 20
64.50000000000023
 30
0.0
 11
310.5551828188884
 21
63.50000000000022
 31
0.0
  0
LINE
  5
C09
330
1E
100
AcDbEntity
  8
4
100
AcDbLine
 10
310.5551828188884
 20
63.50000000000022
 30
0.0
 11
309.5551828188884
 21
63.50000000000022
 31
0.0
  0
LINE
  5
C0A
330
1E
100
AcDbEntity
  8
4
100
AcDbLine
 10
498.8554652627132
 20
278.4666295470956
 30
0.0
 11
498.8554652627132
 21
248.5333704529041
 31
0.0
  0
LINE
  5
C0B
330
1E
100
AcDbEntity
  8
4
100
AcDbLine
 10
496.8554652627132
 20
248.5333704529041
 30
0.0
 11
496.8554652627132
 21
278.4666295470956
 31
0.0
  0
CIRCLE
  5
C0C
330
1E
100
AcDbEntity
  8
4
100
AcDbCircle
 10
497.8554652627132
 20
263.4999999999997
 30
0.0
 40
15.0
  0
TEXT
  5
C0D
330
1E
100
AcDbEntity
  8
0
100
AcDbText
 10
490.6443002844217
 20
2.65248530123398
 30
0.0
 40
6.0
  1
ST-75-S-130
 41
0.8
  7
EXTFONT
100
AcDbText
  0
ENDSEC
  0
SECTION
  2
OBJECTS
  0
DICTIONARY
  5
C
330
0
100
AcDbDictionary
281
     1
  3
ACAD_GROUP
350
D
  3
ACAD_LAYOUT
350
19
  3
ACAD_MLINESTYLE
350
16
  3
ACAD_PLOTSETTINGS
350
18
  3
ACAD_PLOTSTYLENAME
350
E
  3
AcDbVariableDictionary
350
596
  3
AcmDictionary
350
28C
  3
AMG
350
1D2
  3
AMGSNAPSETTINGS
350
2A9
  3
DWGPROPS
350
875
  3
MAPISURF_MODULE
350
25F
  0
DICTIONARY
  5
58D
330
1E
100
AcDbDictionary
280
     1
281
     1
  3
ACAD_INDEX
360
58E
  0
DICTIONARY
  5
D
102
{ACAD_REACTORS
330
C
102
}
330
C
100
AcDbDictionary
281
     1
  0
DICTIONARY
  5
19
102
{ACAD_REACTORS
330
C
102
}
330
C
100
AcDbDictionary
281
     1
  3
Model
350
21
  3
ﾚｲｱｳﾄ1
350
1D
  0
DICTIONARY
  5
16
102
{ACAD_REACTORS
330
C
102
}
330
C
100
AcDbDictionary
281
     1
  3
Standard
350
17
  0
DICTIONARY
  5
18
102
{ACAD_REACTORS
330
C
102
}
330
C
100
AcDbDictionary
281
     1
  0
ACDBDICTIONARYWDFLT
  5
E
102
{ACAD_REACTORS
330
C
102
}
330
C
100
AcDbDictionary
281
     1
  3
Normal
350
F
100
AcDbDictionaryWithDefault
340
F
  0
DICTIONARY
  5
596
102
{ACAD_REACTORS
330
C
102
}
330
C
100
AcDbDictionary
281
     1
  3
DIMASSOC
350
598
  3
INDEXCTL
350
597
  0
DICTIONARY
  5
28C
102
{ACAD_REACTORS
330
C
102
}
330
C
100
AcDbDictionary
281
     1
  3
AcmBOMDATA
350
28D
  0
DICTIONARY
  5
1D2
102
{ACAD_REACTORS
330
C
102
}
330
C
100
AcDbDictionary
281
     1
  3
AcMgSettings
350
1D3
  3
AMGLAYCFG
350
299
  0
DICTIONARY
  5
2A9
102
{ACAD_REACTORS
330
C
102
}
330
C
100
AcDbDictionary
281
     1
  3
DIMENSION
350
2AE
  3
FEA
350
2AD
  3
HATCH (1)
350
2AA
  3
HATCH (2)
350
2AB
  3
SIMPLE WELD
350
2AF
  3
SYMBOLS
350
2AC
  0
XRECORD
  5
875
102
{ACAD_REACTORS
330
C
102
}
330
C
100
AcDbXrecord
280
     1
  1
DWGPROPS COOKIE
  2

  3

  4

  6

  7

  8

  9

300
AmdtFileType=84
301
=
302
=
303
=
304
=
305
=
306
=
307
=
308
=
309
=
 40
0.0013210763888889
 41
2450686.781261574
 42
2456525.604521123
  1

 90
        1
  0
DICTIONARY
  5
58E
102
{ACAD_REACTORS
330
58D
102
}
330
58D
100
AcDbDictionary
281
     1
  3
*A1
350
58F
  0
LAYOUT
  5
21
102
{ACAD_REACTORS
330
19
102
}
330
19
100
AcDbPlotSettings
  1

  2
\\KONISHIDENXP\SHARP MX-2700FG
  4

  6

 40
0.0
 41
0.0
 42
0.0
 43
0.0
 44
0.0
 45
0.0
 46
0.0
 47
0.0
 48
0.0
 49
0.0
140
0.0
141
0.0
142
1.0
143
1.0
 70
  1712
 72
     0
 73
     0
 74
     0
  7

 75
     0
147
1.0
148
0.0
149
0.0
100
AcDbLayout
  1
Model
 70
     1
 71
     0
 10
0.0
 20
0.0
 11
12.0
 21
9.0
 12
0.0
 22
0.0
 32
0.0
 14
0.0
 24
0.0
 34
0.0
 15
0.0
 25
0.0
 35
0.0
146
0.0
 13
0.0
 23
0.0
 33
0.0
 16
1.0
 26
0.0
 36
0.0
 17
0.0
 27
1.0
 37
0.0
 76
     0
330
1E
  0
LAYOUT
  5
1D
102
{ACAD_REACTORS
330
19
102
}
330
19
100
AcDbPlotSettings
  1

  2
\\KONISHIDENXP\SHARP MX-2700FG
  4

  6

 40
0.0
 41
0.0
 42
0.0
 43
0.0
 44
0.0
 45
0.0
 46
0.0
 47
0.0
 48
0.0
 49
0.0
140
0.0
141
0.0
142
1.0
143
1.0
 70
   688
 72
     0
 73
     0
 74
     5
  7

 75
    16
147
1.0
148
0.0
149
0.0
100
AcDbLayout
  1
ﾚｲｱｳﾄ1
 70
     1
 71
     1
 10
0.0
 20
0.0
 11
12.0
 21
9.0
 12
0.0
 22
0.0
 32
0.0
 14
1.000000000000000E+20
 24
1.000000000000000E+20
 34
1.000000000000000E+20
 15
-1.000000000000000E+20
 25
-1.000000000000000E+20
 35
-1.000000000000000E+20
146
0.0
 13
0.0
 23
0.0
 33
0.0
 16
1.0
 26
0.0
 36
0.0
 17
0.0
 27
1.0
 37
0.0
 76
     0
330
1A
  0
MLINESTYLE
  5
17
102
{ACAD_REACTORS
330
16
102
}
330
16
100
AcDbMlineStyle
  2
STANDARD
 70
     0
  3

 62
   256
 51
90.0
 52
90.0
 71
     2
 49
0.5
 62
   256
  6
BYLAYER
 49
-0.5
 62
   256
  6
BYLAYER
  0
ACDBPLACEHOLDER
  5
F
102
{ACAD_REACTORS
330
E
102
}
330
E
  0
DICTIONARYVAR
  5
598
102
{ACAD_REACTORS
330
596
102
}
330
596
100
DictionaryVariables
280
     0
  1
1
  0
DICTIONARYVAR
  5
597
102
{ACAD_REACTORS
330
596
102
}
330
596
100
DictionaryVariables
280
     0
  1
1
  0
ACMDATADICTIONARY
  5
28D
102
{ACAD_REACTORS
330
28C
102
}
330
28C
100
AcDbDictionary
281
     1
  3
*A1
350
28E
100
AcmDataDictionary
  0
DICTIONARY
  5
1D3
102
{ACAD_REACTORS
330
1D2
102
}
330
1D2
100
AcDbDictionary
281
     1
  3
DWGSETTINGS
350
1D4
  0
ACAMGFILTERDAT
  5
2AE
102
{ACAD_REACTORS
330
2A9
102
}
330
2A9
100
AcAmgFilterDat
 70
    15
  1
DIMENSION,AMDT_*_DIM
  2
*
  3
*
  4
*
  5
*
290
     1
  0
ACAMGFILTERDAT
  5
2AD
102
{ACAD_REACTORS
330
2A9
102
}
330
2A9
100
AcAmgFilterDat
 70
    15
  1
*
  2
AM_FEA-AM_*
  3
*
  4
*
  5
*
290
     1
  0
ACAMGFILTERDAT
  5
2AA
102
{ACAD_REACTORS
330
2A9
102
}
330
2A9
100
AcAmgFilterDat
 70
    15
  1
HATCH
  2
*
  3
*
  4
*
  5
*
290
     1
  0
ACAMGFILTERDAT
  5
2AB
102
{ACAD_REACTORS
330
2A9
102
}
330
2A9
100
AcAmgFilterDat
 70
    15
  1
LINE
  2
8,8N,*-8,*-8N,AM_8,AM_8N,*-AM_8,*-AM_8N
  3
*
  4
*
  5
INSERT,STDPART2D
290
     1
  0
ACAMGFILTERDAT
  5
2AF
102
{ACAD_REACTORS
330
2A9
102
}
330
2A9
100
AcAmgFilterDat
 70
    15
  1
ARC
  2
AM_5
  3
*
  4
2
  5
INSERT
290
     0
  0
ACAMGFILTERDAT
  5
2AC
102
{ACAD_REACTORS
330
2A9
102
}
330
2A9
100
AcAmgFilterDat
 70
    15
  1
ACMFCFRAME,ACMDATUMTARGET,ACMDATUMID,ACMWELDSYM,ACMSURFSYM,ACMFEATID,ACMPARTREF,ACMBALLOON,AMDTEDGESYM,AMGSCREWCALCTABLE
  2
*
  3
*
  4
*
  5
*
290
     1
  0
LAYER_INDEX
  5
58F
102
{ACAD_REACTORS
330
58E
102
}
330
58E
100
AcDbIndex
 40
2456525.609590382
100
AcDbLayerIndex
  8
0
360
590
 90
      220
  8
1
360
591
 90
       27
  8
2
360
592
 90
      128
  8
3
360
593
 90
       10
  8
5
360
594
 90
       12
  8
4
360
595
 90
      173
  0
ACMDATAENTRYBLOCK
  5
28E
102
{ACAD_REACTORS
330
28D
102
}
330
28D
100
AcmDataEntry
100
AcmDataEntryBlock
  0
IDBUFFER
  5
590
330
0
100
AcDbIdBuffer
330
43
330
44
330
45
330
46
330
47
330
48
330
49
330
4A
330
4B
330
4C
330
4D
330
4E
330
4F
330
50
330
51
330
52
330
53
330
54
330
55
330
5D
330
5E
330
5F
330
60
330
61
330
62
330
63
330
64
330
65
330
66
330
67
330
68
330
69
330
6B
330
6C
330
6D
330
6E
330
6F
330
70
330
71
330
75
330
76
330
78
330
79
330
7A
330
7B
330
7C
330
7D
330
7E
330
7F
330
80
330
81
330
83
330
84
330
85
330
86
330
87
330
88
330
89
330
8A
330
8B
330
8E
330
8F
330
90
330
92
330
93
330
95
330
96
330
97
330
98
330
99
330
9A
330
9B
330
9C
330
9D
330
9E
330
9F
330
A0
330
A1
330
A2
330
A3
330
A4
330
A5
330
A6
330
A7
330
A8
330
A9
330
AA
330
AB
330
C0
330
C1
330
C2
330
F7
330
F9
330
FC
330
102
330
103
330
104
330
105
330
106
330
107
330
108
330
109
330
10A
330
10B
330
10C
330
10D
330
10E
330
10F
330
111
330
112
330
113
330
114
330
115
330
116
330
117
330
118
330
119
330
11A
330
11B
330
11C
330
11D
330
11E
330
11F
330
120
330
121
330
122
330
123
330
124
330
127
330
128
330
13E
330
13F
330
143
330
145
330
148
330
149
330
14A
330
14B
330
158
330
159
330
167
330
168
330
169
330
16A
330
16B
330
16D
330
16F
330
170
330
172
330
173
330
174
330
175
330
176
330
177
330
17E
330
17F
330
184
330
185
330
189
330
18A
330
18B
330
18C
330
18D
330
18E
330
194
330
195
330
196
330
197
330
199
330
19E
330
19F
330
1A0
330
1A1
330
1A2
330
1A3
330
1A4
330
1A5
330
1A6
330
1A7
330
1A8
330
1A9
330
1AA
330
1AB
330
1AC
330
1AD
330
1AE
330
1AF
330
1B0
330
1B1
330
1B2
330
1B3
330
1B4
330
1B5
330
1B6
330
1B7
330
1B8
330
1B9
330
1BA
330
1BB
330
1BC
330
1BD
330
1BE
330
1BF
330
1C0
330
1C1
330
1C2
330
1C3
330
1C4
330
1C5
330
1C6
330
1C7
330
1C8
330
1C9
330
1CA
330
1CB
330
1CC
330
1CD
330
58B
330
58C
330
C0D
  0
IDBUFFER
  5
591
330
0
100
AcDbIdBuffer
330
B57
330
B58
330
B59
330
B94
330
BCF
330
57
330
58
330
72
330
82
330
91
330
94
330
BF
330
F5
330
125
330
126
330
129
330
142
330
144
330
147
330
16C
330
186
330
187
330
188
330
191
330
192
330
193
330
1CE
  0
IDBUFFER
  5
592
330
0
100
AcDbIdBuffer
330
59
330
5A
330
5B
330
5C
330
73
330
74
330
8C
330
8D
330
AD
330
AE
330
AF
330
B0
330
B1
330
B2
330
B3
330
B4
330
B5
330
B6
330
B7
330
B8
330
B9
330
BA
330
BB
330
CB
330
CC
330
CD
330
CE
330
CF
330
D0
330
D1
330
D2
330
D3
330
D4
330
D5
330
D6
330
D7
330
D8
330
D9
330
DA
330
DB
330
DC
330
DD
330
DE
330
DF
330
E0
330
E1
330
E2
330
E3
330
E4
330
E5
330
E6
330
E7
330
E8
330
E9
330
EA
330
EB
330
EC
330
ED
330
EE
330
EF
330
F0
330
F1
330
F2
330
F3
330
F4
330
F8
330
FA
330
FD
330
100
330
101
330
12A
330
12B
330
12C
330
12D
330
12E
330
12F
330
130
330
131
330
132
330
133
330
134
330
135
330
136
330
137
330
138
330
139
330
13A
330
13B
330
13C
330
13D
330
140
330
146
330
14C
330
150
330
151
330
152
330
153
330
154
330
155
330
156
330
157
330
15B
330
15C
330
15D
330
15E
330
15F
330
160
330
161
330
162
330
163
330
164
330
165
330
166
330
16E
330
171
330
178
330
179
330
17A
330
17B
330
17C
330
17D
330
180
330
181
330
182
330
183
330
18F
330
190
330
198
  0
IDBUFFER
  5
593
330
0
100
AcDbIdBuffer
330
56
330
AC
330
BE
330
CA
330
F6
330
FB
330
110
330
141
330
14F
330
15A
  0
IDBUFFER
  5
594
330
0
100
AcDbIdBuffer
330
B92
330
B93
330
BC8
330
BCC
330
C03
330
C07
330
BC
330
BD
330
FE
330
FF
330
14D
330
14E
  0
IDBUFFER
  5
595
330
0
100
AcDbIdBuffer
330
BCD
330
BCE
330
BD0
330
BD1
330
BD2
330
BD3
330
BD4
330
BD5
330
BD6
330
BD7
330
BD8
330
BD9
330
BDA
330
BDB
330
BDC
330
BDD
330
BDE
330
BDF
330
BE0
330
BE1
330
BE2
330
BE3
330
BE4
330
BE5
330
BE6
330
BE7
330
BE8
330
BE9
330
BEA
330
BEB
330
BEC
330
BED
330
BEE
330
BEF
330
BF0
330
BF1
330
BF2
330
BF3
330
BF4
330
BF5
330
BF6
330
BF7
330
BF8
330
BF9
330
BFA
330
BFB
330
BFC
330
BFD
330
BFE
330
BFF
330
C00
330
C01
330
C02
330
C04
330
C05
330
C06
330
C08
330
C09
330
C0A
330
C0B
330
C0C
330
B4E
330
B56
330
B5A
330
B5B
330
B5C
330
B5D
330
B5E
330
B5F
330
B60
330
B61
330
B62
330
B63
330
B64
330
B65
330
B66
330
B67
330
B68
330
B69
330
B6A
330
B6B
330
B6C
330
B6D
330
B6E
330
B6F
330
B70
330
B71
330
B72
330
B73
330
B74
330
B75
330
B76
330
B77
330
B78
330
B79
330
B7A
330
B7B
330
B7C
330
B7D
330
B7E
330
B7F
330
B80
330
B81
330
B82
330
B83
330
B84
330
B85
330
B86
330
B87
330
B88
330
B89
330
B8A
330
B8B
330
B8C
330
B8D
330
B8E
330
B8F
330
B90
330
B91
330
B95
330
B96
330
B97
330
B98
330
B99
330
B9A
330
B9B
330
B9C
330
B9D
330
B9E
330
B9F
330
BA0
330
BA1
330
BA2
330
BA3
330
BA4
330
BA5
330
BA6
330
BA7
330
BA8
330
BA9
330
BAA
330
BAB
330
BAC
330
BAD
330
BAE
330
BAF
330
BB0
330
BB1
330
BB2
330
BB3
330
BB4
330
BB5
330
BB6
330
BB7
330
BB8
330
BB9
330
BBA
330
BBB
330
BBC
330
BBD
330
BBE
330
BBF
330
BC0
330
BC1
330
BC2
330
BC3
330
BC4
330
BC5
330
BC6
330
BC7
330
BC9
330
BCA
330
BCB
  0
ENDSEC
  0
EOF
