  0
SECTION
  2
HEADER
  9
$ACADVER
  1
AC1015
  9
$ACADMAINTVER
 70
    13
  9
$DWGCODEPAGE
  3
ANSI_932
  9
$INSBASE
 10
0.0
 20
0.0
 30
0.0
  9
$EXTMIN
 10
69.98389215469206
 20
-8.746850038012155
 30
-0.0015258207003583
  9
$EXTMAX
 10
854.2110635246475
 20
586.4191875271243
 30
0.0000000349246037
  9
$LIMMIN
 10
0.0
 20
0.0
  9
$LIMMAX
 10
600.0
 20
450.0
  9
$ORTHOMODE
 70
     1
  9
$REGENMODE
 70
     1
  9
$FILLMODE
 70
     1
  9
$QTEXTMODE
 70
     0
  9
$MIRRTEXT
 70
     1
  9
$LTSCALE
 40
1.0
  9
$ATTMODE
 70
     1
  9
$TEXTSIZE
 40
6.0
  9
$TRACEWID
 40
0.05
  9
$TEXTSTYLE
  7
EXTFONT
  9
$CLAYER
  8
0
  9
$CELTYPE
  6
ByLayer
  9
$CECOLOR
 62
   256
  9
$CELTSCALE
 40
1.0
  9
$DISPSILH
 70
     0
  9
$DIMSCALE
 40
1.0
  9
$DIMASZ
 40
0.18
  9
$DIMEXO
 40
0.0625
  9
$DIMDLI
 40
0.38
  9
$DIMRND
 40
0.0
  9
$DIMDLE
 40
0.0
  9
$DIMEXE
 40
0.18
  9
$DIMTP
 40
0.0
  9
$DIMTM
 40
0.0
  9
$DIMTXT
 40
0.18
  9
$DIMCEN
 40
0.09
  9
$DIMTSZ
 40
0.0
  9
$DIMTOL
 70
     0
  9
$DIMLIM
 70
     0
  9
$DIMTIH
 70
     1
  9
$DIMTOH
 70
     1
  9
$DIMSE1
 70
     0
  9
$DIMSE2
 70
     0
  9
$DIMTAD
 70
     0
  9
$DIMZIN
 70
     0
  9
$DIMBLK
  1

  9
$DIMASO
 70
     1
  9
$DIMSHO
 70
     1
  9
$DIMPOST
  1

  9
$DIMAPOST
  1

  9
$DIMALT
 70
     0
  9
$DIMALTD
 70
     2
  9
$DIMALTF
 40
25.4
  9
$DIMLFAC
 40
1.0
  9
$DIMTOFL
 70
     0
  9
$DIMTVP
 40
0.0
  9
$DIMTIX
 70
     0
  9
$DIMSOXD
 70
     0
  9
$DIMSAH
 70
     0
  9
$DIMBLK1
  1

  9
$DIMBLK2
  1

  9
$DIMSTYLE
  2
STANDARD
  9
$DIMCLRD
 70
     0
  9
$DIMCLRE
 70
     0
  9
$DIMCLRT
 70
     0
  9
$DIMTFAC
 40
1.0
  9
$DIMGAP
 40
0.09
  9
$DIMJUST
 70
     0
  9
$DIMSD1
 70
     0
  9
$DIMSD2
 70
     0
  9
$DIMTOLJ
 70
     1
  9
$DIMTZIN
 70
     0
  9
$DIMALTZ
 70
     0
  9
$DIMALTTZ
 70
     0
  9
$DIMUPT
 70
     0
  9
$DIMDEC
 70
     4
  9
$DIMTDEC
 70
     4
  9
$DIMALTU
 70
     2
  9
$DIMALTTD
 70
     2
  9
$DIMTXSTY
  7
STANDARD
  9
$DIMAUNIT
 70
     0
  9
$DIMADEC
 70
     0
  9
$DIMALTRND
 40
0.0
  9
$DIMAZIN
 70
     0
  9
$DIMDSEP
 70
    46
  9
$DIMATFIT
 70
     3
  9
$DIMFRAC
 70
     0
  9
$DIMLDRBLK
  1

  9
$DIMLUNIT
 70
     2
  9
$DIMLWD
 70
    -2
  9
$DIMLWE
 70
    -2
  9
$DIMTMOVE
 70
     0
  9
$LUNITS
 70
     2
  9
$LUPREC
 70
     4
  9
$SKETCHINC
 40
0.1
  9
$FILLETRAD
 40
0.0
  9
$AUNITS
 70
     0
  9
$AUPREC
 70
     0
  9
$MENU
  1
acad
  9
$ELEVATION
 40
0.0
  9
$PELEVATION
 40
0.0
  9
$THICKNESS
 40
0.0
  9
$LIMCHECK
 70
     0
  9
$CHAMFERA
 40
0.0
  9
$CHAMFERB
 40
0.0
  9
$CHAMFERC
 40
0.0
  9
$CHAMFERD
 40
0.0
  9
$SKPOLY
 70
     0
  9
$TDCREATE
 40
2450686.781041667
  9
$TDUCREATE
 40
2450686.406041667
  9
$TDUPDATE
 40
2456525.595979988
  9
$TDUUPDATE
 40
2456525.220979989
  9
$TDINDWG
 40
0.0120909259
  9
$TDUSRTIMER
 40
0.0120907523
  9
$USRTIMER
 70
     1
  9
$ANGBASE
 50
0.0
  9
$ANGDIR
 70
     0
  9
$PDMODE
 70
     0
  9
$PDSIZE
 40
0.0
  9
$PLINEWID
 40
0.0
  9
$SPLFRAME
 70
     0
  9
$SPLINETYPE
 70
     6
  9
$SPLINESEGS
 70
     8
  9
$HANDSEED
  5
8F4
  9
$SURFTAB1
 70
     6
  9
$SURFTAB2
 70
     6
  9
$SURFTYPE
 70
     6
  9
$SURFU
 70
     6
  9
$SURFV
 70
     6
  9
$UCSBASE
  2

  9
$UCSNAME
  2

  9
$UCSORG
 10
0.0
 20
0.0
 30
0.0
  9
$UCSXDIR
 10
1.0
 20
0.0
 30
0.0
  9
$UCSYDIR
 10
0.0
 20
1.0
 30
0.0
  9
$UCSORTHOREF
  2

  9
$UCSORTHOVIEW
 70
     0
  9
$UCSORGTOP
 10
0.0
 20
0.0
 30
0.0
  9
$UCSORGBOTTOM
 10
0.0
 20
0.0
 30
0.0
  9
$UCSORGLEFT
 10
0.0
 20
0.0
 30
0.0
  9
$UCSORGRIGHT
 10
0.0
 20
0.0
 30
0.0
  9
$UCSORGFRONT
 10
0.0
 20
0.0
 30
0.0
  9
$UCSORGBACK
 10
0.0
 20
0.0
 30
0.0
  9
$PUCSBASE
  2

  9
$PUCSNAME
  2

  9
$PUCSORG
 10
0.0
 20
0.0
 30
0.0
  9
$PUCSXDIR
 10
1.0
 20
0.0
 30
0.0
  9
$PUCSYDIR
 10
0.0
 20
1.0
 30
0.0
  9
$PUCSORTHOREF
  2

  9
$PUCSORTHOVIEW
 70
     0
  9
$PUCSORGTOP
 10
0.0
 20
0.0
 30
0.0
  9
$PUCSORGBOTTOM
 10
0.0
 20
0.0
 30
0.0
  9
$PUCSORGLEFT
 10
0.0
 20
0.0
 30
0.0
  9
$PUCSORGRIGHT
 10
0.0
 20
0.0
 30
0.0
  9
$PUCSORGFRONT
 10
0.0
 20
0.0
 30
0.0
  9
$PUCSORGBACK
 10
0.0
 20
0.0
 30
0.0
  9
$USERI1
 70
     0
  9
$USERI2
 70
     0
  9
$USERI3
 70
     0
  9
$USERI4
 70
     0
  9
$USERI5
 70
     0
  9
$USERR1
 40
0.0
  9
$USERR2
 40
0.0
  9
$USERR3
 40
0.0
  9
$USERR4
 40
0.0
  9
$USERR5
 40
0.0
  9
$WORLDVIEW
 70
     1
  9
$SHADEDGE
 70
     3
  9
$SHADEDIF
 70
    70
  9
$TILEMODE
 70
     1
  9
$MAXACTVP
 70
    16
  9
$PINSBASE
 10
0.0
 20
0.0
 30
0.0
  9
$PLIMCHECK
 70
     0
  9
$PEXTMIN
 10
1.000000000000000E+20
 20
1.000000000000000E+20
 30
1.000000000000000E+20
  9
$PEXTMAX
 10
-1.000000000000000E+20
 20
-1.000000000000000E+20
 30
-1.000000000000000E+20
  9
$PLIMMIN
 10
0.0
 20
0.0
  9
$PLIMMAX
 10
12.0
 20
9.0
  9
$UNITMODE
 70
     0
  9
$VISRETAIN
 70
     0
  9
$PLINEGEN
 70
     0
  9
$PSLTSCALE
 70
     1
  9
$TREEDEPTH
 70
  3020
  9
$CMLSTYLE
  2
Standard
  9
$CMLJUST
 70
     0
  9
$CMLSCALE
 40
1.0
  9
$PROXYGRAPHICS
 70
     1
  9
$MEASUREMENT
 70
     0
  9
$CELWEIGHT
370
    -1
  9
$ENDCAPS
280
     0
  9
$JOINSTYLE
280
     0
  9
$LWDISPLAY
290
     0
  9
$INSUNITS
 70
     0
  9
$HYPERLINKBASE
  1

  9
$STYLESHEET
  1

  9
$XEDIT
290
     1
  9
$CEPSNTYPE
380
     0
  9
$PSTYLEMODE
290
     1
  9
$FINGERPRINTGUID
  2
{6E7615F4-5BE4-4AD3-A344-16F4CA332B0D}
  9
$VERSIONGUID
  2
{B71AF6B4-8BCA-47C9-9258-340D06E5FAB1}
  9
$EXTNAMES
290
     1
  9
$PSVPSCALE
 40
0.0
  9
$OLESTARTUP
290
     0
  0
ENDSEC
  0
SECTION
  2
CLASSES
  0
CLASS
  1
ACDBDICTIONARYWDFLT
  2
AcDbDictionaryWithDefault
  3
AutoCAD 2000
 90
        0
280
     0
281
     0
  0
CLASS
  1
ACDBPLACEHOLDER
  2
AcDbPlaceHolder
  3
AutoCAD 2000
 90
        0
280
     0
281
     0
  0
CLASS
  1
LAYOUT
  2
AcDbLayout
  3
AutoCAD 2000
 90
        0
280
     0
281
     0
  0
CLASS
  1
AMGSETTINGSOBJ
  2
AmgSettingsObj
  3
"AcadM|Product Description: AutoCAD Mechanical 2000|Company: Autodesk"
 90
        0
280
     0
281
     0
  0
CLASS
  1
ACME_DOCUMENT
  2
AcMeDbDoc
  3
AcMeServices
 90
        0
280
     0
281
     0
  0
CLASS
  1
ACMESCOPE
  2
AcMeScope
  3
AcMeServices
 90
        0
280
     0
281
     0
  0
CLASS
  1
ACMECOMMANDHISTORY
  2
AcMeCommandHistory
  3
AcMeServices
 90
        0
280
     0
281
     0
  0
CLASS
  1
ACIMSYSVARMAN
  2
AcImSysVarManager
  3
AcMeServices
 90
        0
280
     0
281
     0
  0
CLASS
  1
ACIMREALSYSVAR
  2
AcImRealSysVar
  3
AcMeServices
 90
        0
280
     0
281
     0
  0
CLASS
  1
ACIMINTSYSVAR
  2
AcImIntSysVar
  3
AcMeServices
 90
        0
280
     0
281
     0
  0
CLASS
  1
ACMEDRAWINGMAN
  2
AcMeDrawingMan
  3
AcMeServices
 90
        0
280
     0
281
     0
  0
CLASS
  1
ACMEVIEW
  2
AcMeView
  3
AcMeServices
 90
        0
280
     0
281
     0
  0
CLASS
  1
ACDBENTITYCACHE
  2
AcMeEntityCache
  3
AcMeServices
 90
        0
280
     0
281
     0
  0
CLASS
  1
GSMANAGER
  2
AcMeGSManager
  3
AcMeServices
 90
        0
280
     0
281
     0
  0
CLASS
  1
AMDTINTERNALREACTOR
  2
AmdtInternalReactor
  3
AcMeServices
 90
        0
280
     0
281
     0
  0
CLASS
  1
ACMESTATEMGR
  2
AcMeStateMgr
  3
AcMeServices
 90
        0
280
     0
281
     0
  0
CLASS
  1
ACGREFMASTER
  2
AcGrefMaster
  3
AcAttribServices
 90
        0
280
     0
281
     0
  0
CLASS
  1
AM_DRAWING_MGR
  2
AcDmDwgMgr
  3
AcMechDwgViewMgmt
 90
        0
280
     0
281
     0
  0
CLASS
  1
AM_DWG_DOCUMENT
  2
AcDmDwgDocument
  3
AcMechDwgViewMgmt
 90
        0
280
     0
281
     0
  0
CLASS
  1
AM_DWG_SHEET
  2
AcDmSheet
  3
AcMechDwgViewMgmt
 90
        0
280
     0
281
     0
  0
CLASS
  1
AM_VIEWDIMPARMAP
  2
AcDmViewDimParMap
  3
AcMechDwgViewMgmt
 90
        0
280
     0
281
     0
  0
CLASS
  1
AM_DWGMGR_NAME
  2
AcDmDwgMgrName
  3
AcMechDwgViewMgmt
 90
        0
280
     0
281
     0
  0
CLASS
  1
ACME_DATABASE
  2
AcMeDbDatabase
  3
AcMeServices
 90
        0
280
     0
281
     0
  0
CLASS
  1
ACRFINSADJUSTERMGR
  2
AcRfInsAdjusterMgr
  3
AcMeServices
 90
        0
280
     0
281
     0
  0
CLASS
  1
ACGREFACADMASTER
  2
AcGrefacadMaster
  3
AcGrefServices
 90
        0
280
     0
281
     0
  0
CLASS
  1
AMDTMENUSTATEMGR
  2
AmdtMenuStateMgr
  3
McadcomServices
 90
        0
280
     0
281
     0
  0
CLASS
  1
AMDTMCOMMENUSTATE
  2
AmdtMcomMenuState
  3
McadcomServices
 90
        0
280
     0
281
     0
  0
CLASS
  1
AMIMASTER
  2
AmiMaster
  3
AmiServices
 90
        0
280
     0
281
     0
  0
CLASS
  1
ASAPP
  2
AcAsAppObject
  3
AutoSurfServices
 90
        0
280
     0
281
     0
  0
CLASS
  1
IM_STATIC_MAN
  2
AcImStaticVarManager
  3
AcMeServices
 90
        0
280
     0
281
     0
  0
CLASS
  1
ACIMSTRSYSVAR
  2
AcImStrSysVar
  3
AcMeServices
 90
        0
280
     0
281
     0
  0
CLASS
  1
ACIMDBLSTATICVAR
  2
AcImDblStaticVar
  3
AcMeServices
 90
        0
280
     0
281
     0
  0
CLASS
  1
ACIMSTRSTATICVAR
  2
AcImStrStaticVar
  3
AcMeServices
 90
        0
280
     0
281
     0
  0
CLASS
  1
ACIMINTSTATICVAR
  2
AcImIntStaticVar
  3
AcMeServices
 90
        0
280
     0
281
     0
  0
CLASS
  1
ACASGREFMASTER
  2
AcAsGrefMaster
  3
AutoSurfResolverServices
 90
        0
280
     0
281
     0
  0
CLASS
  1
ACADGREFMODULE
  2
AcAdGrefModule
  3
AdGrefServices
 90
        0
280
     0
281
     0
  0
CLASS
  1
AMDTMAPISURFMOUDULE
  2
AmdtMApiSurfModule
  3
MApiSurfServices
 90
        0
280
     0
281
     0
  0
CLASS
  1
MAPIAMMOUDLE
  2
MApiAmModule
  3
MApiAmServices
 90
        0
280
     0
281
     0
  0
CLASS
  1
AMDTADMENUSTATE
  2
AmdtAdMenuState
  3
DesignerServices
 90
        0
280
     0
281
     0
  0
CLASS
  1
ADAPPL
  2
AcAdAppl
  3
DesignerServices
 90
        0
280
     0
281
     0
  0
CLASS
  1
DEPMGR
  2
AcAdDepMgr
  3
DesignerServices
 90
        0
280
     0
281
     0
  0
CLASS
  1
PARAMMGR
  2
AcAdParamMgr
  3
DesignerServices
 90
        0
280
     0
281
     0
  0
CLASS
  1
PARAMSCOPE
  2
AcAdParamScope
  3
DesignerServices
 90
        0
280
     0
281
     0
  0
CLASS
  1
NAMEDAPPL
  2
AcAdNamedAppl
  3
DesignerServices
 90
        0
280
     0
281
     0
  0
CLASS
  1
AMDTDMMENUSTATE
  2
AmdtDmMenuState
  3
AcMechDwgViewMgmt
 90
        0
280
     0
281
     0
  0
CLASS
  1
MAPIADMODULE
  2
MApiAdModule
  3
MApiAdServices
 90
        0
280
     0
281
     0
  0
CLASS
  1
AMDTAMMENUSTATE
  2
AmdtAmMenuState
  3
DesignerAssemblies
 90
        0
280
     0
281
     0
  0
CLASS
  1
ACAMPROJECT
  2
AcAmProject
  3
DesignerAssemblies
 90
        0
280
     0
281
     0
  0
CLASS
  1
ACAMGRCOMPDEF
  2
AcAmGrCompDef
  3
DesignerAssemblies
 90
        0
280
     0
281
     0
  0
CLASS
  1
ACCMCONTEXT
  2
AcCmContext
  3
DesignerAssemblies
 90
        0
280
     0
281
     0
  0
CLASS
  1
ACAMCOMPDEF
  2
AcAmCompDef
  3
DesignerAssemblies
 90
        0
280
     0
281
     0
  0
CLASS
  1
ACAMCOMPDEFMGR
  2
AcAmCompDefMgr
  3
DesignerAssemblies
 90
        0
280
     0
281
     0
  0
CLASS
  1
AMCONTEXTMGR
  2
AcAmContextMgr
  3
DesignerAssemblies
 90
        0
280
     0
281
     0
  0
CLASS
  1
ACAMCONTEXTMODELER
  2
AcAmContextModeler
  3
DesignerAssemblies
 90
        0
280
     0
281
     0
  0
CLASS
  1
ACMDATADICTIONARY
  2
AcmDataDictionary
  3
"AcmSymBB|Product Description: AutoCAD Mechanical 2000|Company: Autodesk"
 90
        0
280
     0
281
     0
  0
CLASS
  1
ACMDATAENTRYBLOCK
  2
AcmDataEntryBlock
  3
"AcmSymBB|Product Description: AutoCAD Mechanical 2000|Company: Autodesk"
 90
        0
280
     0
281
     0
  0
CLASS
  1
CATALOGSTATE
  2
AcAmCatalogState
  3
DesignerAssemblies
 90
        0
280
     0
281
     0
  0
CLASS
  1
ACAMGRCOMPDEFSET
  2
AcAmGrCompDefSet
  3
DesignerAssemblies
 90
        0
280
     0
281
     0
  0
CLASS
  1
AMDTBROWSERDBTAB
  2
AmdtBrowserDbTab
  3
McadcomServices
 90
        0
280
     0
281
     0
  0
CLASS
  1
CBROWSERAPPOBJECT
  2
CBrowserAppObject
  3
McadcomServices
 90
        0
280
     0
281
     0
  0
CLASS
  1
DM_PLACEHOLDER
  2
AcDmSelsetPlaceholder
  3
AcMechDwgViewMgmt
 90
        0
280
     0
281
     0
  0
CLASS
  1
AMGOBJPROPCFG
  2
AmgObjPropCfg
  3
"AmgLay|Product Description: AutoCAD Mechanical 2000|Company: Autodesk"
 90
        1
280
     0
281
     0
  0
CLASS
  1
ACAMGFILTERDAT
  2
AcAmgFilterDat
  3
"AcadM|Product Description: AutoCAD Mechanical 2000|Company: Autodesk"
 90
        0
280
     0
281
     0
  0
CLASS
  1
AMDTFORMULAUPDATEDISPATCHER
  2
AmdtFormulaUpdateDispatcher
  3
AcMeServices
 90
        0
280
     0
281
     0
  0
CLASS
  1
LAYER_INDEX
  2
AcDbLayerIndex
  3
AutoCAD 2000
 90
        0
280
     0
281
     0
  0
CLASS
  1
IDBUFFER
  2
AcDbIdBuffer
  3
AutoCAD 2000
 90
        0
280
     0
281
     0
  0
CLASS
  1
DICTIONARYVAR
  2
AcDbDictionaryVar
  3
AutoCAD 2000
 90
        0
280
     0
281
     0
  0
ENDSEC
  0
SECTION
  2
TABLES
  0
TABLE
  2
VPORT
  5
8
330
0
100
AcDbSymbolTable
 70
     7
  0
VPORT
  5
8F3
330
8
100
AcDbSymbolTableRecord
100
AcDbViewportTableRecord
  2
*Active
 70
     0
 10
0.0
 20
0.0
 11
1.0
 21
1.0
 12
-49.08506701182776
 22
-9.151443091311932
 13
0.0
 23
0.0
 14
0.5
 24
0.5
 15
1.0
 25
1.0
 16
0.0
 26
0.0
 36
1.0
 17
349.0850670118277
 27
234.1514430913119
 37
0.0
 40
906.5217391304347
 41
1.489721886336154
 42
50.0
 43
0.0
 44
0.0
 50
0.0
 51
0.0
 71
     0
 72
 20000
 73
     1
 74
     1
 75
     0
 76
     0
 77
     0
 78
     0
281
     0
 65
     0
110
0.0
120
0.0
130
0.0
111
1.0
121
0.0
131
0.0
112
0.0
122
1.0
132
0.0
 79
     0
146
0.0
  0
ENDTAB
  0
TABLE
  2
LTYPE
  5
5
330
0
100
AcDbSymbolTable
 70
    19
  0
LTYPE
  5
13
330
5
100
AcDbSymbolTableRecord
100
AcDbLinetypeTableRecord
  2
ByBlock
 70
     0
  3

 72
    65
 73
     0
 40
0.0
  0
LTYPE
  5
14
330
5
100
AcDbSymbolTableRecord
100
AcDbLinetypeTableRecord
  2
ByLayer
 70
     0
  3

 72
    65
 73
     0
 40
0.0
  0
LTYPE
  5
15
330
5
100
AcDbSymbolTableRecord
100
AcDbLinetypeTableRecord
  2
CONTINUOUS
 70
     0
  3
Solid line
 72
    65
 73
     0
 40
0.0
  0
LTYPE
  5
23
330
5
100
AcDbSymbolTableRecord
100
AcDbLinetypeTableRecord
  2
BYLAYER
 70
     0
  3

 72
    65
 73
     0
 40
0.0
  0
LTYPE
  5
24
330
5
100
AcDbSymbolTableRecord
100
AcDbLinetypeTableRecord
  2
ITTEN1
 70
     0
  3

 72
    65
 73
     4
 40
8.199999999999997
 49
5.0
 74
     0
 49
-1.0
 74
     0
 49
1.199999999999999
 74
     0
 49
-1.0
 74
     0
  0
LTYPE
  5
25
330
5
100
AcDbSymbolTableRecord
100
AcDbLinetypeTableRecord
  2
TENSEN2
 70
     0
  3

 72
    65
 73
     2
 40
2.1
 49
1.5
 74
     0
 49
-0.6
 74
     0
  0
LTYPE
  5
1EA
330
5
100
AcDbSymbolTableRecord
100
AcDbLinetypeTableRecord
  2
HIDDEN
 70
     0
  3
Hidden __ __ __ __ __ __ __ __ __ __ __ __ __ _
 72
    65
 73
     2
 40
0.375
 49
0.25
 74
     0
 49
-0.125
 74
     0
  0
LTYPE
  5
1EB
330
5
100
AcDbSymbolTableRecord
100
AcDbLinetypeTableRecord
  2
PHANTOM2
 70
     0
  3
Phantom (.5x) ___ _ _ ___ _ _ ___ _ _ ___ _ _
 72
    65
 73
     6
 40
1.25
 49
0.625
 74
     0
 49
-0.125
 74
     0
 49
0.125
 74
     0
 49
-0.125
 74
     0
 49
0.125
 74
     0
 49
-0.125
 74
     0
  0
LTYPE
  5
1EC
330
5
100
AcDbSymbolTableRecord
100
AcDbLinetypeTableRecord
  2
CENTER
 70
     0
  3
Center ____ _ ____ _ ____ _ ____ _ ____ _ ____
 72
    65
 73
     4
 40
2.0
 49
1.25
 74
     0
 49
-0.25
 74
     0
 49
0.25
 74
     0
 49
-0.25
 74
     0
  0
LTYPE
  5
24E
330
5
100
AcDbSymbolTableRecord
100
AcDbLinetypeTableRecord
  2
ASULTYPE
 70
     0
  3
実線
 72
    65
 73
     2
 40
3.0
 49
2.5
 74
     0
 49
0.5
 74
     0
  0
LTYPE
  5
24F
330
5
100
AcDbSymbolTableRecord
100
AcDbLinetypeTableRecord
  2
ASVLTYPE
 70
     0
  3
__ __ __ __ __ __ __ __ __ __ __ __ __ __ __ __ __ __ __ __ __
 72
    65
 73
     2
 40
0.75
 49
0.5
 74
     0
 49
-0.25
 74
     0
  0
LTYPE
  5
290
330
5
100
AcDbSymbolTableRecord
100
AcDbLinetypeTableRecord
  2
AM_ISO02W050
 70
     0
  3
__ __ __ __ __ __ __ __ __ __ __ __ __ __ __
 72
    65
 73
     2
 40
7.5
 49
6.0
 74
     0
 49
-1.5
 74
     0
  0
LTYPE
  5
291
330
5
100
AcDbSymbolTableRecord
100
AcDbLinetypeTableRecord
  2
AM_ISO08W050
 70
     0
  3
____ . ____ . ____ . ____ . ____ . ____ . ____
 72
    65
 73
     4
 40
18.0
 49
12.0
 74
     0
 49
-1.5
 74
     0
 49
3.0
 74
     0
 49
-1.5
 74
     0
  0
LTYPE
  5
292
330
5
100
AcDbSymbolTableRecord
100
AcDbLinetypeTableRecord
  2
AM_ISO09W050
 70
     0
  3
_____ . . _____ . . _____ . . ____ .. ____
 72
    65
 73
     6
 40
22.5
 49
12.0
 74
     0
 49
-1.5
 74
     0
 49
3.0
 74
     0
 49
-1.5
 74
     0
 49
3.0
 74
     0
 49
-1.5
 74
     0
  0
LTYPE
  5
293
330
5
100
AcDbSymbolTableRecord
100
AcDbLinetypeTableRecord
  2
Amconstr
 70
     0
  3
_______________________
 72
    65
 73
     2
 40
9999.0
 49
9999.0
 74
     0
 49
0.0
 74
     0
  0
LTYPE
  5
294
330
5
100
AcDbSymbolTableRecord
100
AcDbLinetypeTableRecord
  2
AM_ISO08W050x2
 70
     0
  3
__ . __ . __ . __ . __ . __
 72
    65
 73
     4
 40
9.0
 49
6.0
 74
     0
 49
-0.75
 74
     0
 49
1.5
 74
     0
 49
-0.75
 74
     0
  0
LTYPE
  5
295
330
5
100
AcDbSymbolTableRecord
100
AcDbLinetypeTableRecord
  2
AM_ISO02W050x2
 70
     0
  3
 _ _ _ _ _ _ _ _ _ _ _ _
 72
    65
 73
     2
 40
3.75
 49
3.0
 74
     0
 49
-0.75
 74
     0
  0
LTYPE
  5
298
330
5
100
AcDbSymbolTableRecord
100
AcDbLinetypeTableRecord
  2
Amzigzag
 70
     0
  3
/\/-/\/-/\/-/\/-/\/-/\/
 72
    65
 73
     2
 40
11.00009999999999
 49
0.0001
 74
     4
 75
   135
340
297
 46
0.04
 50
0.0
 44
0.0
 45
0.0
 49
-11.0
 74
     0
  0
LTYPE
  5
299
330
5
100
AcDbSymbolTableRecord
100
AcDbLinetypeTableRecord
  2
CENTER2
 70
     0
  3
Center (.5x) ___ _ ___ _ ___ _ ___ _ ___ _ ___
 72
    65
 73
     4
 40
1.125
 49
0.75
 74
     0
 49
-0.125
 74
     0
 49
0.125
 74
     0
 49
-0.125
 74
     0
  0
LTYPE
  5
29A
330
5
100
AcDbSymbolTableRecord
100
AcDbLinetypeTableRecord
  2
HIDDEN2
 70
     0
  3
Hidden (.5x) _ _ _ _ _ _ _ _ _ _ _ _ _ _ _ _ _
 72
    65
 73
     2
 40
0.1875
 49
0.125
 74
     0
 49
-0.0625
 74
     0
  0
LTYPE
  5
29B
330
5
100
AcDbSymbolTableRecord
100
AcDbLinetypeTableRecord
  2
Amzigzag2
 70
     0
  3
/\/-/\/-/\/-/\/-/\/-/\/
 72
    65
 73
     2
 40
0.4401
 49
0.0001
 74
     4
 75
   135
340
297
 46
0.0016
 50
0.0
 44
0.0
 45
0.0
 49
-0.4400000000000001
 74
     0
  0
ENDTAB
  0
TABLE
  2
LAYER
  5
2
330
0
100
AcDbSymbolTable
 70
     6
  0
LAYER
  5
10
330
2
100
AcDbSymbolTableRecord
100
AcDbLayerTableRecord
  2
0
 70
     0
 62
     7
  6
CONTINUOUS
370
    -3
390
F
  0
LAYER
  5
26
330
2
100
AcDbSymbolTableRecord
100
AcDbLayerTableRecord
  2
1
 70
     0
 62
     1
  6
ITTEN1
370
    -3
390
F
  0
LAYER
  5
27
330
2
100
AcDbSymbolTableRecord
100
AcDbLayerTableRecord
  2
2
 70
     0
 62
     2
  6
TENSEN2
370
    -3
390
F
  0
LAYER
  5
28
330
2
100
AcDbSymbolTableRecord
100
AcDbLayerTableRecord
  2
3
 70
     0
 62
     3
  6
CONTINUOUS
370
    -3
390
F
  0
LAYER
  5
29
330
2
100
AcDbSymbolTableRecord
100
AcDbLayerTableRecord
  2
5
 70
     0
 62
     6
  6
TENSEN2
370
    -3
390
F
  0
LAYER
  5
571
330
2
100
AcDbSymbolTableRecord
100
AcDbLayerTableRecord
  2
4
 70
     0
 62
     6
  6
CONTINUOUS
370
    -3
390
F
  0
ENDTAB
  0
TABLE
  2
STYLE
  5
3
330
0
100
AcDbSymbolTable
 70
     4
  0
STYLE
  5
11
330
3
100
AcDbSymbolTableRecord
100
AcDbTextStyleTableRecord
  2
STANDARD
 70
     0
 40
0.0
 41
1.0
 50
0.0
 71
     0
 42
0.2
  3
txt
  4

  0
STYLE
  5
22
330
3
100
AcDbSymbolTableRecord
100
AcDbTextStyleTableRecord
  2
BIGFONT
 70
     0
 40
6.0
 41
0.8
 50
0.0
 71
     0
 42
6.0
  3

  4
bigfont
  0
STYLE
  5
2A
330
3
100
AcDbSymbolTableRecord
100
AcDbTextStyleTableRecord
  2
EXTFONT
 70
     0
 40
6.0
 41
0.8
 50
0.0
 71
     0
 42
6.0
  3
txt.shx
  4
extfont.shx
  0
STYLE
  5
297
330
3
100
AcDbSymbolTableRecord
100
AcDbTextStyleTableRecord
  2

 70
     1
 40
0.0
 41
1.0
 50
0.0
 71
     0
 42
6.0
  3
ltypeshp.shx
  4

  0
ENDTAB
  0
TABLE
  2
VIEW
  5
6
330
0
100
AcDbSymbolTable
 70
     0
  0
ENDTAB
  0
TABLE
  2
UCS
  5
7
330
0
100
AcDbSymbolTable
 70
     0
  0
ENDTAB
  0
TABLE
  2
APPID
  5
9
330
0
100
AcDbSymbolTable
 70
    12
  0
APPID
  5
12
330
9
100
AcDbSymbolTableRecord
100
AcDbRegAppTableRecord
  2
ACAD
 70
     0
  0
APPID
  5
1C9
330
9
100
AcDbSymbolTableRecord
100
AcDbRegAppTableRecord
  2
GENIUS_GENDIM_13
 70
     0
  0
APPID
  5
1CA
330
9
100
AcDbSymbolTableRecord
100
AcDbRegAppTableRecord
  2
GENIUS_GENDTOL_13
 70
     0
  0
APPID
  5
1CB
330
9
100
AcDbSymbolTableRecord
100
AcDbRegAppTableRecord
  2
GENIUS_GE3DTOL_13
 70
     0
  0
APPID
  5
1CD
330
9
100
AcDbSymbolTableRecord
100
AcDbRegAppTableRecord
  2
MCAD_NO_VIS
 70
     0
  0
APPID
  5
1CE
330
9
100
AcDbSymbolTableRecord
100
AcDbRegAppTableRecord
  2
ACAD_TEMP_GRAPHIC
 70
     0
  0
APPID
  5
201
330
9
100
AcDbSymbolTableRecord
100
AcDbRegAppTableRecord
  2
AD_DRAW
 70
     0
  0
APPID
  5
204
330
9
100
AcDbSymbolTableRecord
100
AcDbRegAppTableRecord
  2
ACATTRIBSERVICES
 70
     0
  0
APPID
  5
250
330
9
100
AcDbSymbolTableRecord
100
AcDbRegAppTableRecord
  2
ASURF_PCURVE_APPNAME
 70
     0
  0
APPID
  5
27F
330
9
100
AcDbSymbolTableRecord
100
AcDbRegAppTableRecord
  2
DESIGNERASSEMBLIES
 70
     0
  0
APPID
  5
287
330
9
100
AcDbSymbolTableRecord
100
AcDbRegAppTableRecord
  2
ACADM_DIM_EDIT
 70
     0
  0
APPID
  5
288
330
9
100
AcDbSymbolTableRecord
100
AcDbRegAppTableRecord
  2
AMDT_DM_ADJ
 70
     0
  0
ENDTAB
  0
TABLE
  2
DIMSTYLE
  5
A
330
0
100
AcDbSymbolTable
 70
     1
100
AcDbDimStyleTable
 71
     0
  0
DIMSTYLE
105
2B
330
A
100
AcDbSymbolTableRecord
100
AcDbDimStyleTableRecord
  2
STANDARD
 70
     0
279
     2
340
22
  0
ENDTAB
  0
TABLE
  2
BLOCK_RECORD
  5
1
330
0
100
AcDbSymbolTable
 70
     2
  0
BLOCK_RECORD
  5
1E
102
{ACAD_XDICTIONARY
360
563
102
}
330
1
100
AcDbSymbolTableRecord
100
AcDbBlockTableRecord
  2
*Model_Space
340
21
  0
BLOCK_RECORD
  5
1A
330
1
100
AcDbSymbolTableRecord
100
AcDbBlockTableRecord
  2
*Paper_Space
340
1D
  0
BLOCK_RECORD
  5
276
330
1
100
AcDbSymbolTableRecord
100
AcDbBlockTableRecord
  2
*U0
340
0
  0
ENDTAB
  0
ENDSEC
  0
SECTION
  2
BLOCKS
  0
BLOCK
  5
1F
330
1E
100
AcDbEntity
  8
0
100
AcDbBlockBegin
  2
*Model_Space
 70
     0
 10
0.0
 20
0.0
 30
0.0
  3
*Model_Space
  1

  0
ENDBLK
  5
20
330
1E
100
AcDbEntity
  8
0
100
AcDbBlockEnd
  0
BLOCK
  5
1B
330
1A
100
AcDbEntity
 67
     1
  8
0
100
AcDbBlockBegin
  2
*Paper_Space
 70
     0
 10
0.0
 20
0.0
 30
0.0
  3
*Paper_Space
  1

  0
ENDBLK
  5
1C
330
1A
100
AcDbEntity
 67
     1
  8
0
100
AcDbBlockEnd
  0
BLOCK
  5
277
330
276
100
AcDbEntity
  8
0
100
AcDbBlockBegin
  2
*U0
 70
     1
 10
0.0
 20
0.0
 30
0.0
  3
*U0
  1

  0
ENDBLK
  5
278
330
276
100
AcDbEntity
  8
0
100
AcDbBlockEnd
  0
ENDSEC
  0
SECTION
  2
ENTITIES
  0
ARC
  5
43
330
1E
100
AcDbEntity
  8
0
100
AcDbCircle
 10
126.0
 20
245.0
 30
0.0
 40
26.0
100
AcDbArc
 50
0.0
 51
180.0
  0
LINE
  5
44
330
1E
100
AcDbEntity
  8
0
100
AcDbLine
 10
182.0
 20
195.0
 30
0.0
 11
182.0
 21
210.0
 31
0.0
  0
LINE
  5
45
330
1E
100
AcDbEntity
  8
0
100
AcDbLine
 10
182.0
 20
210.0
 30
0.0
 11
179.0
 21
212.9999999999999
 31
0.0
  0
LINE
  5
46
330
1E
100
AcDbEntity
  8
0
100
AcDbLine
 10
179.0
 20
212.9999999999999
 30
0.0
 11
154.0
 21
212.9999999999999
 31
0.0
  0
LINE
  5
47
330
1E
100
AcDbEntity
  8
0
100
AcDbLine
 10
154.0
 20
212.9999999999999
 30
0.0
 11
152.0
 21
214.9999999999999
 31
0.0
  0
LINE
  5
48
330
1E
100
AcDbEntity
  8
0
100
AcDbLine
 10
152.0
 20
214.9999999999999
 30
0.0
 11
152.0
 21
245.0
 31
0.0
  0
LINE
  5
49
330
1E
100
AcDbEntity
  8
0
100
AcDbLine
 10
73.0
 20
212.9999999999999
 30
0.0
 11
98.0
 21
212.9999999999999
 31
0.0
  0
LINE
  5
4A
330
1E
100
AcDbEntity
  8
0
100
AcDbLine
 10
98.0
 20
212.9999999999999
 30
0.0
 11
100.0
 21
214.9999999999999
 31
0.0
  0
LINE
  5
4B
330
1E
100
AcDbEntity
  8
0
100
AcDbLine
 10
100.0
 20
214.9999999999999
 30
0.0
 11
100.0
 21
245.0
 31
0.0
  0
LINE
  5
4C
330
1E
100
AcDbEntity
  8
0
100
AcDbLine
 10
182.0
 20
195.0
 30
0.0
 11
149.0
 21
195.0
 31
0.0
  0
LINE
  5
4D
330
1E
100
AcDbEntity
  8
0
100
AcDbLine
 10
70.0
 20
195.0
 30
0.0
 11
70.0
 21
210.0
 31
0.0
  0
LINE
  5
4E
330
1E
100
AcDbEntity
  8
0
100
AcDbLine
 10
70.0
 20
210.0
 30
0.0
 11
73.0
 21
212.9999999999999
 31
0.0
  0
LINE
  5
4F
330
1E
100
AcDbEntity
  8
0
100
AcDbLine
 10
149.0
 20
195.0
 30
0.0
 11
149.0
 21
210.0
 31
0.0
  0
LINE
  5
50
330
1E
100
AcDbEntity
  8
0
100
AcDbLine
 10
149.0
 20
210.0
 30
0.0
 11
150.0
 21
210.9999999999998
 31
0.0
  0
LINE
  5
51
330
1E
100
AcDbEntity
  8
0
100
AcDbLine
 10
150.0
 20
210.9999999999998
 30
0.0
 11
181.0
 21
210.9999999999998
 31
0.0
  0
LINE
  5
52
330
1E
100
AcDbEntity
  8
0
100
AcDbLine
 10
103.0
 20
195.0
 30
0.0
 11
103.0
 21
210.0
 31
0.0
  0
LINE
  5
53
330
1E
100
AcDbEntity
  8
0
100
AcDbLine
 10
103.0
 20
210.0
 30
0.0
 11
102.0
 21
210.9999999999998
 31
0.0
  0
LINE
  5
54
330
1E
100
AcDbEntity
  8
0
100
AcDbLine
 10
102.0
 20
210.9999999999998
 30
0.0
 11
71.0
 21
210.9999999999998
 31
0.0
  0
CIRCLE
  5
55
330
1E
100
AcDbEntity
  8
0
100
AcDbCircle
 10
126.0
 20
245.0
 30
0.0
 40
10.0
  0
CIRCLE
  5
56
330
1E
100
AcDbEntity
  8
3
100
AcDbCircle
 10
126.0
 20
245.0
 30
0.0
 40
8.5
  0
LINE
  5
57
330
1E
100
AcDbEntity
  8
1
100
AcDbLine
 10
170.9999999999998
 20
189.0
 30
0.0
 11
170.9999999999998
 21
218.9999999999999
 31
0.0
  0
LINE
  5
58
330
1E
100
AcDbEntity
  8
1
100
AcDbLine
 10
80.99999999999999
 20
189.0
 30
0.0
 11
80.99999999999999
 21
218.9999999999999
 31
0.0
  0
LINE
  5
59
330
1E
100
AcDbEntity
  8
2
100
AcDbLine
 10
86.5
 20
195.0
 30
0.0
 11
86.5
 21
212.9999999999999
 31
0.0
  0
LINE
  5
5A
330
1E
100
AcDbEntity
  8
2
100
AcDbLine
 10
75.5
 20
195.0
 30
0.0
 11
75.5
 21
212.9999999999999
 31
0.0
  0
LINE
  5
5B
330
1E
100
AcDbEntity
  8
2
100
AcDbLine
 10
176.5
 20
195.0
 30
0.0
 11
176.5
 21
212.9999999999999
 31
0.0
  0
LINE
  5
5C
330
1E
100
AcDbEntity
  8
2
100
AcDbLine
 10
165.5
 20
195.0
 30
0.0
 11
165.5
 21
212.9999999999999
 31
0.0
  0
LINE
  5
5D
330
1E
100
AcDbEntity
  8
0
100
AcDbLine
 10
149.0
 20
195.0
 30
0.0
 11
146.9999999999998
 21
198.0
 31
0.0
  0
LINE
  5
5E
330
1E
100
AcDbEntity
  8
0
100
AcDbLine
 10
146.9999999999998
 20
198.0
 30
0.0
 11
105.0
 21
198.0
 31
0.0
  0
LINE
  5
5F
330
1E
100
AcDbEntity
  8
0
100
AcDbLine
 10
105.0
 20
198.0
 30
0.0
 11
103.0
 21
195.0
 31
0.0
  0
LINE
  5
60
330
1E
100
AcDbEntity
  8
0
100
AcDbLine
 10
103.0
 20
195.0
 30
0.0
 11
70.0
 21
195.0
 31
0.0
  0
LINE
  5
61
330
1E
100
AcDbEntity
  8
0
100
AcDbLine
 10
126.0
 20
206.0
 30
0.0
 11
142.9999999999998
 21
206.0
 31
0.0
  0
LINE
  5
62
330
1E
100
AcDbEntity
  8
0
100
AcDbLine
 10
126.0
 20
206.0
 30
0.0
 11
109.0
 21
206.0
 31
0.0
  0
LINE
  5
63
330
1E
100
AcDbEntity
  8
0
100
AcDbLine
 10
145.9999999999998
 20
208.9999999999998
 30
0.0
 11
145.9999999999998
 21
220.9999999999999
 31
0.0
  0
LINE
  5
64
330
1E
100
AcDbEntity
  8
0
100
AcDbLine
 10
106.0
 20
208.9999999999998
 30
0.0
 11
106.0
 21
220.9999999999999
 31
0.0
  0
ARC
  5
65
330
1E
100
AcDbEntity
  8
0
100
AcDbCircle
 10
126.0
 20
243.9999999999999
 30
0.0
 40
25.0
100
AcDbArc
 50
233.1301023541559
 51
306.8698976458438
  0
ARC
  5
66
330
1E
100
AcDbEntity
  8
0
100
AcDbCircle
 10
109.25
 20
221.2499999999999
 30
0.0
 40
3.259601202601324
100
AcDbArc
 50
57.52880770915155
 51
184.3987053549955
  0
ARC
  5
67
330
1E
100
AcDbEntity
  8
0
100
AcDbCircle
 10
109.4999999999999
 20
209.5
 30
0.0
 40
3.535533905932736
100
AcDbArc
 50
188.130102354156
 51
261.869897645844
  0
ARC
  5
68
330
1E
100
AcDbEntity
  8
0
100
AcDbCircle
 10
142.5
 20
209.5
 30
0.0
 40
3.535533905932736
100
AcDbArc
 50
278.130102354156
 51
351.8698976458438
  0
ARC
  5
6A
330
1E
100
AcDbEntity
  8
0
100
AcDbCircle
 10
471.75
 20
221.2499999999999
 30
0.0
 40
3.259601202601324
100
AcDbArc
 50
57.52880770915155
 51
184.3987053549955
  0
ARC
  5
6B
330
1E
100
AcDbEntity
  8
0
100
AcDbCircle
 10
505.4999999999999
 20
221.6666666666665
 30
0.0
 40
3.073181485764292
100
AcDbArc
 50
347.4711922908485
 51
130.6012946450042
  0
LINE
  5
6C
330
1E
100
AcDbEntity
  8
0
100
AcDbLine
 10
462.5
 20
214.9999999999999
 30
0.0
 11
462.5
 21
245.0
 31
0.0
  0
LINE
  5
6D
330
1E
100
AcDbEntity
  8
0
100
AcDbLine
 10
514.5
 20
214.9999999999999
 30
0.0
 11
514.5
 21
245.0
 31
0.0
  0
LINE
  5
6E
330
1E
100
AcDbEntity
  8
0
100
AcDbLine
 10
465.5
 20
195.0
 30
0.0
 11
432.5
 21
195.0
 31
0.0
  0
LINE
  5
6F
330
1E
100
AcDbEntity
  8
0
100
AcDbLine
 10
464.5
 20
210.9999999999998
 30
0.0
 11
433.4999999999999
 21
210.9999999999998
 31
0.0
  0
LINE
  5
70
330
1E
100
AcDbEntity
  8
0
100
AcDbLine
 10
435.5
 20
212.9999999999999
 30
0.0
 11
460.5
 21
212.9999999999999
 31
0.0
  0
LINE
  5
71
330
1E
100
AcDbEntity
  8
1
100
AcDbLine
 10
443.5
 20
189.0
 30
0.0
 11
443.5
 21
218.9999999999999
 31
0.0
  0
LINE
  5
72
330
1E
100
AcDbEntity
  8
2
100
AcDbLine
 10
437.9999999999999
 20
195.0
 30
0.0
 11
437.9999999999999
 21
212.9999999999999
 31
0.0
  0
LINE
  5
73
330
1E
100
AcDbEntity
  8
2
100
AcDbLine
 10
449.0
 20
195.0
 30
0.0
 11
449.0
 21
212.9999999999999
 31
0.0
  0
LINE
  5
74
330
1E
100
AcDbEntity
  8
0
100
AcDbLine
 10
432.5
 20
195.0
 30
0.0
 11
432.5
 21
210.0
 31
0.0
  0
LINE
  5
75
330
1E
100
AcDbEntity
  8
0
100
AcDbLine
 10
432.5
 20
210.0
 30
0.0
 11
435.5
 21
212.9999999999999
 31
0.0
  0
ARC
  5
77
330
1E
100
AcDbEntity
  8
0
100
AcDbCircle
 10
488.4999999999999
 20
243.9999999999999
 30
0.0
 40
25.0
100
AcDbArc
 50
233.1301023541559
 51
306.8698976458438
  0
LINE
  5
78
330
1E
100
AcDbEntity
  8
0
100
AcDbLine
 10
488.4999999999999
 20
206.0
 30
0.0
 11
505.4999999999999
 21
206.0
 31
0.0
  0
LINE
  5
79
330
1E
100
AcDbEntity
  8
0
100
AcDbLine
 10
509.4999999999999
 20
198.0
 30
0.0
 11
467.4999999999999
 21
198.0
 31
0.0
  0
LINE
  5
7A
330
1E
100
AcDbEntity
  8
0
100
AcDbLine
 10
488.4999999999999
 20
206.0
 30
0.0
 11
471.4999999999999
 21
206.0
 31
0.0
  0
ARC
  5
7B
330
1E
100
AcDbEntity
  8
0
100
AcDbCircle
 10
471.9999999999999
 20
209.5
 30
0.0
 40
3.535533905932736
100
AcDbArc
 50
188.130102354156
 51
261.869897645844
  0
LINE
  5
7C
330
1E
100
AcDbEntity
  8
0
100
AcDbLine
 10
465.5
 20
195.0
 30
0.0
 11
465.5
 21
210.0
 31
0.0
  0
LINE
  5
7D
330
1E
100
AcDbEntity
  8
0
100
AcDbLine
 10
467.4999999999999
 20
198.0
 30
0.0
 11
465.5
 21
195.0
 31
0.0
  0
LINE
  5
7E
330
1E
100
AcDbEntity
  8
0
100
AcDbLine
 10
460.5
 20
212.9999999999999
 30
0.0
 11
462.5
 21
214.9999999999999
 31
0.0
  0
LINE
  5
7F
330
1E
100
AcDbEntity
  8
0
100
AcDbLine
 10
468.5
 20
208.9999999999998
 30
0.0
 11
468.5
 21
220.9999999999999
 31
0.0
  0
LINE
  5
80
330
1E
100
AcDbEntity
  8
0
100
AcDbLine
 10
465.5
 20
210.0
 30
0.0
 11
464.5
 21
210.9999999999998
 31
0.0
  0
LINE
  5
81
330
1E
100
AcDbEntity
  8
1
100
AcDbLine
 10
533.4999999999999
 20
189.0
 30
0.0
 11
533.4999999999999
 21
218.9999999999999
 31
0.0
  0
LINE
  5
82
330
1E
100
AcDbEntity
  8
0
100
AcDbLine
 10
544.5
 20
195.0
 30
0.0
 11
511.5
 21
195.0
 31
0.0
  0
LINE
  5
83
330
1E
100
AcDbEntity
  8
0
100
AcDbLine
 10
512.5
 20
210.9999999999998
 30
0.0
 11
543.5
 21
210.9999999999998
 31
0.0
  0
LINE
  5
84
330
1E
100
AcDbEntity
  8
0
100
AcDbLine
 10
541.5
 20
212.9999999999999
 30
0.0
 11
516.5
 21
212.9999999999999
 31
0.0
  0
ARC
  5
85
330
1E
100
AcDbEntity
  8
0
100
AcDbCircle
 10
504.9999999999999
 20
209.5
 30
0.0
 40
3.535533905932736
100
AcDbArc
 50
278.130102354156
 51
351.8698976458438
  0
LINE
  5
86
330
1E
100
AcDbEntity
  8
0
100
AcDbLine
 10
511.5
 20
195.0
 30
0.0
 11
511.5
 21
210.0
 31
0.0
  0
LINE
  5
87
330
1E
100
AcDbEntity
  8
0
100
AcDbLine
 10
511.5
 20
195.0
 30
0.0
 11
509.4999999999999
 21
198.0
 31
0.0
  0
LINE
  5
88
330
1E
100
AcDbEntity
  8
0
100
AcDbLine
 10
508.4999999999999
 20
208.9999999999998
 30
0.0
 11
508.4999999999999
 21
220.9999999999999
 31
0.0
  0
LINE
  5
89
330
1E
100
AcDbEntity
  8
0
100
AcDbLine
 10
516.5
 20
212.9999999999999
 30
0.0
 11
514.5
 21
214.9999999999999
 31
0.0
  0
LINE
  5
8A
330
1E
100
AcDbEntity
  8
0
100
AcDbLine
 10
511.5
 20
210.0
 30
0.0
 11
512.5
 21
210.9999999999998
 31
0.0
  0
LINE
  5
8B
330
1E
100
AcDbEntity
  8
2
100
AcDbLine
 10
528.0
 20
195.0
 30
0.0
 11
528.0
 21
212.9999999999999
 31
0.0
  0
LINE
  5
8C
330
1E
100
AcDbEntity
  8
2
100
AcDbLine
 10
538.9999999999998
 20
195.0
 30
0.0
 11
538.9999999999998
 21
212.9999999999999
 31
0.0
  0
LINE
  5
8D
330
1E
100
AcDbEntity
  8
0
100
AcDbLine
 10
544.5
 20
195.0
 30
0.0
 11
544.5
 21
210.0
 31
0.0
  0
LINE
  5
8E
330
1E
100
AcDbEntity
  8
0
100
AcDbLine
 10
544.5
 20
210.0
 30
0.0
 11
541.5
 21
212.9999999999999
 31
0.0
  0
ARC
  5
8F
330
1E
100
AcDbEntity
  8
0
100
AcDbCircle
 10
488.4999999999999
 20
245.0
 30
0.0
 40
26.0
100
AcDbArc
 50
0.0
 51
180.0
  0
LINE
  5
90
330
1E
100
AcDbEntity
  8
1
100
AcDbLine
 10
488.4999999999999
 20
186.5
 30
0.0
 11
488.4999999999999
 21
279.4999999999999
 31
0.0
  0
LINE
  5
91
330
1E
100
AcDbEntity
  8
1
100
AcDbLine
 10
521.4999999999998
 20
245.0
 30
0.0
 11
455.4999999999999
 21
245.0
 31
0.0
  0
CIRCLE
  5
92
330
1E
100
AcDbEntity
  8
0
100
AcDbCircle
 10
488.4999999999999
 20
245.0
 30
0.0
 40
15.5
  0
CIRCLE
  5
93
330
1E
100
AcDbEntity
  8
0
100
AcDbCircle
 10
126.0
 20
245.0
 30
0.0
 40
25.0
  0
LINE
  5
94
330
1E
100
AcDbEntity
  8
1
100
AcDbLine
 10
126.0
 20
190.5
 30
0.0
 11
126.0
 21
245.0
 31
0.0
  0
LINE
  5
95
330
1E
100
AcDbEntity
  8
1
100
AcDbLine
 10
161.0
 20
245.0
 30
0.0
 11
93.0
 21
245.0
 31
0.0
  0
LINE
  5
96
330
1E
100
AcDbEntity
  8
1
100
AcDbLine
 10
343.9999999999998
 20
277.0
 30
0.0
 11
343.9999999999998
 21
190.0
 31
0.0
  0
LINE
  5
97
330
1E
100
AcDbEntity
  8
0
100
AcDbLine
 10
343.9999999999998
 20
195.0
 30
0.0
 11
324.0
 21
195.0
 31
0.0
  0
LINE
  5
98
330
1E
100
AcDbEntity
  8
0
100
AcDbLine
 10
324.0
 20
195.0
 30
0.0
 11
324.0
 21
210.0
 31
0.0
  0
LINE
  5
99
330
1E
100
AcDbEntity
  8
0
100
AcDbLine
 10
343.9999999999998
 20
195.0
 30
0.0
 11
364.0
 21
195.0
 31
0.0
  0
LINE
  5
9A
330
1E
100
AcDbEntity
  8
0
100
AcDbLine
 10
364.0
 20
195.0
 30
0.0
 11
364.0
 21
210.0
 31
0.0
  0
LINE
  5
9B
330
1E
100
AcDbEntity
  8
0
100
AcDbLine
 10
364.0
 20
210.0
 30
0.0
 11
362.9999999999999
 21
210.9999999999998
 31
0.0
  0
LINE
  5
9C
330
1E
100
AcDbEntity
  8
0
100
AcDbLine
 10
362.9999999999999
 20
210.9999999999998
 30
0.0
 11
325.0
 21
210.9999999999998
 31
0.0
  0
LINE
  5
9D
330
1E
100
AcDbEntity
  8
0
100
AcDbLine
 10
325.0
 20
210.9999999999998
 30
0.0
 11
324.0
 21
210.0
 31
0.0
  0
LINE
  5
9E
330
1E
100
AcDbEntity
  8
0
100
AcDbLine
 10
359.5
 20
210.9999999999998
 30
0.0
 11
358.4999999999998
 21
212.9999999999999
 31
0.0
  0
LINE
  5
9F
330
1E
100
AcDbEntity
  8
0
100
AcDbLine
 10
358.4999999999998
 20
212.9999999999999
 30
0.0
 11
329.4999999999999
 21
212.9999999999999
 31
0.0
  0
LINE
  5
A0
330
1E
100
AcDbEntity
  8
0
100
AcDbLine
 10
329.4999999999999
 20
212.9999999999999
 30
0.0
 11
328.5
 21
210.9999999999998
 31
0.0
  0
LINE
  5
A1
330
1E
100
AcDbEntity
  8
0
100
AcDbLine
 10
360.0
 20
210.9999999999998
 30
0.0
 11
360.0
 21
270.0
 31
0.0
  0
LINE
  5
A2
330
1E
100
AcDbEntity
  8
0
100
AcDbLine
 10
360.0
 20
270.0
 30
0.0
 11
358.9999999999998
 21
270.9999999999999
 31
0.0
  0
LINE
  5
A3
330
1E
100
AcDbEntity
  8
0
100
AcDbLine
 10
358.9999999999998
 20
270.9999999999999
 30
0.0
 11
326.0
 21
270.9999999999999
 31
0.0
  0
LINE
  5
A4
330
1E
100
AcDbEntity
  8
0
100
AcDbLine
 10
326.0
 20
270.9999999999999
 30
0.0
 11
325.0
 21
270.0
 31
0.0
  0
LINE
  5
A5
330
1E
100
AcDbEntity
  8
0
100
AcDbLine
 10
325.0
 20
270.0
 30
0.0
 11
325.0
 21
260.0
 31
0.0
  0
LINE
  5
A6
330
1E
100
AcDbEntity
  8
0
100
AcDbLine
 10
325.0
 20
260.0
 30
0.0
 11
320.9999999999999
 21
258.4999999999999
 31
0.0
  0
LINE
  5
A7
330
1E
100
AcDbEntity
  8
0
100
AcDbLine
 10
320.9999999999999
 20
258.4999999999999
 30
0.0
 11
320.9999999999999
 21
231.4999999999999
 31
0.0
  0
LINE
  5
A8
330
1E
100
AcDbEntity
  8
0
100
AcDbLine
 10
320.9999999999999
 20
231.4999999999999
 30
0.0
 11
325.0
 21
230.0
 31
0.0
  0
LINE
  5
A9
330
1E
100
AcDbEntity
  8
0
100
AcDbLine
 10
325.0
 20
230.0
 30
0.0
 11
325.0
 21
220.0
 31
0.0
  0
LINE
  5
AA
330
1E
100
AcDbEntity
  8
0
100
AcDbLine
 10
325.0
 20
220.0
 30
0.0
 11
328.0
 21
218.9999999999999
 31
0.0
  0
LINE
  5
AB
330
1E
100
AcDbEntity
  8
0
100
AcDbLine
 10
328.0
 20
218.9999999999999
 30
0.0
 11
328.0
 21
210.9999999999998
 31
0.0
  0
LINE
  5
AC
330
1E
100
AcDbEntity
  8
0
100
AcDbLine
 10
328.0
 20
218.9999999999999
 30
0.0
 11
328.0
 21
242.1752527843663
 31
0.0
  0
LINE
  5
AD
330
1E
100
AcDbEntity
  8
0
100
AcDbLine
 10
325.0
 20
230.0
 30
0.0
 11
325.0
 21
260.0
 31
0.0
  0
LINE
  5
AE
330
1E
100
AcDbEntity
  8
3
100
AcDbLine
 10
327.0
 20
270.9999999999999
 30
0.0
 11
327.0
 21
247.2149497242334
 31
0.0
  0
LINE
  5
AF
330
1E
100
AcDbEntity
  8
2
100
AcDbLine
 10
349.5
 20
195.0
 30
0.0
 11
349.5
 21
212.9999999999999
 31
0.0
  0
LINE
  5
B0
330
1E
100
AcDbEntity
  8
2
100
AcDbLine
 10
338.5
 20
195.0
 30
0.0
 11
338.5
 21
212.9999999999999
 31
0.0
  0
LINE
  5
B1
330
1E
100
AcDbEntity
  8
2
100
AcDbLine
 10
360.0
 20
210.9999999999998
 30
0.0
 11
360.0
 21
198.0
 31
0.0
  0
LINE
  5
B2
330
1E
100
AcDbEntity
  8
2
100
AcDbLine
 10
328.0
 20
210.9999999999998
 30
0.0
 11
328.0
 21
198.0
 31
0.0
  0
LINE
  5
B3
330
1E
100
AcDbEntity
  8
2
100
AcDbLine
 10
328.0
 20
218.9999999999999
 30
0.0
 11
335.4999999999999
 21
216.9999999999999
 31
0.0
  0
LINE
  5
B4
330
1E
100
AcDbEntity
  8
2
100
AcDbLine
 10
335.4999999999999
 20
216.9999999999999
 30
0.0
 11
335.4999999999999
 21
208.9999999999998
 31
0.0
  0
LINE
  5
B5
330
1E
100
AcDbEntity
  8
2
100
AcDbLine
 10
335.4999999999999
 20
208.9999999999998
 30
0.0
 11
328.0
 21
206.0
 31
0.0
  0
LINE
  5
B6
330
1E
100
AcDbEntity
  8
2
100
AcDbLine
 10
360.0
 20
218.9999999999999
 30
0.0
 11
352.4999999999998
 21
216.9999999999999
 31
0.0
  0
LINE
  5
B7
330
1E
100
AcDbEntity
  8
2
100
AcDbLine
 10
352.4999999999998
 20
216.9999999999999
 30
0.0
 11
352.4999999999998
 21
208.9999999999998
 31
0.0
  0
LINE
  5
B8
330
1E
100
AcDbEntity
  8
2
100
AcDbLine
 10
352.4999999999998
 20
208.9999999999998
 30
0.0
 11
360.0
 21
206.0
 31
0.0
  0
LINE
  5
B9
330
1E
100
AcDbEntity
  8
2
100
AcDbLine
 10
360.0
 20
260.4999999999999
 30
0.0
 11
341.0
 21
260.4999999999999
 31
0.0
  0
LINE
  5
BA
330
1E
100
AcDbEntity
  8
2
100
AcDbLine
 10
341.0
 20
260.4999999999999
 30
0.0
 11
341.0
 21
229.4999999999999
 31
0.0
  0
LINE
  5
BB
330
1E
100
AcDbEntity
  8
2
100
AcDbLine
 10
341.0
 20
229.4999999999999
 30
0.0
 11
360.0
 21
229.4999999999999
 31
0.0
  0
LINE
  5
BC
330
1E
100
AcDbEntity
  8
1
100
AcDbLine
 10
366.9999999999999
 20
245.0
 30
0.0
 11
303.7889428172253
 21
245.0
 31
0.0
  0
LINE
  5
BD
330
1E
100
AcDbEntity
  8
2
100
AcDbLine
 10
341.0
 20
255.0
 30
0.0
 11
320.9999999999999
 21
255.0
 31
0.0
  0
LINE
  5
BE
330
1E
100
AcDbEntity
  8
2
100
AcDbLine
 10
341.0
 20
235.0
 30
0.0
 11
320.9999999999999
 21
235.0
 31
0.0
  0
LINE
  5
BF
330
1E
100
AcDbEntity
  8
5
100
AcDbLine
 10
320.9999999999999
 20
253.0
 30
0.0
 11
341.0
 21
253.0
 31
0.0
  0
LINE
  5
C0
330
1E
100
AcDbEntity
  8
5
100
AcDbLine
 10
320.9999999999999
 20
237.0
 30
0.0
 11
341.0
 21
237.0
 31
0.0
  0
TEXT
  5
C1
330
1E
100
AcDbEntity
  8
3
100
AcDbText
 10
493.2899112049494
 20
35.47276159120364
 30
0.0
 40
8.399999999999998
  1
スタンド・スパンナー
 41
0.8
  7
BIGFONT
100
AcDbText
  0
LINE
  5
C2
330
1E
100
AcDbEntity
  8
1
100
AcDbLine
 10
329.0
 20
251.0
 30
0.0
 11
329.0
 21
239.0
 31
0.0
  0
CIRCLE
  5
C3
330
1E
100
AcDbEntity
  8
0
100
AcDbCircle
 10
329.0
 20
245.0
 30
0.0
 40
3.0
  0
CIRCLE
  5
C4
330
1E
100
AcDbEntity
  8
0
100
AcDbCircle
 10
329.0
 20
245.0
 30
0.0
 40
2.5
  0
POLYLINE
  5
C5
330
1E
100
AcDbEntity
  8
0
100
AcDb2dPolyline
 66
     1
 10
0.0
 20
0.0
 30
0.0
 70
     1
  0
VERTEX
  5
C6
330
C5
100
AcDbEntity
  8
0
100
AcDbVertex
100
AcDb2dVertex
 10
329.0
 20
246.4999999999998
 30
0.0
  0
VERTEX
  5
C7
330
C5
100
AcDbEntity
  8
0
100
AcDbVertex
100
AcDb2dVertex
 10
327.7009618943232
 20
245.75
 30
0.0
  0
VERTEX
  5
C8
330
C5
100
AcDbEntity
  8
0
100
AcDbVertex
100
AcDb2dVertex
 10
327.7009618943232
 20
244.2499999999999
 30
0.0
  0
VERTEX
  5
C9
330
C5
100
AcDbEntity
  8
0
100
AcDbVertex
100
AcDb2dVertex
 10
329.0
 20
243.5
 30
0.0
  0
VERTEX
  5
CA
330
C5
100
AcDbEntity
  8
0
100
AcDbVertex
100
AcDb2dVertex
 10
330.2990381056766
 20
244.2499999999999
 30
0.0
  0
VERTEX
  5
CB
330
C5
100
AcDbEntity
  8
0
100
AcDbVertex
100
AcDb2dVertex
 10
330.2990381056766
 20
245.75
 30
0.0
  0
SEQEND
  5
CC
330
C5
100
AcDbEntity
  8
0
  0
LINE
  5
CD
330
1E
100
AcDbEntity
  8
3
100
AcDbLine
 10
327.0
 20
242.8010971423621
 30
0.0
 11
327.0
 21
219.4999999999998
 31
0.0
  0
LINE
  5
CE
330
1E
100
AcDbEntity
  8
2
100
AcDbLine
 10
151.5
 20
247.9999999999999
 30
0.0
 11
141.5
 21
247.9999999999999
 31
0.0
  0
LINE
  5
CF
330
1E
100
AcDbEntity
  8
2
100
AcDbLine
 10
151.5
 20
247.5
 30
0.0
 11
141.5
 21
247.5
 31
0.0
  0
LINE
  5
D0
330
1E
100
AcDbEntity
  8
2
100
AcDbLine
 10
151.5
 20
242.5
 30
0.0
 11
141.5
 21
242.5
 31
0.0
  0
LINE
  5
D1
330
1E
100
AcDbEntity
  8
2
100
AcDbLine
 10
141.5
 20
247.5
 30
0.0
 11
141.5
 21
242.5
 31
0.0
  0
LINE
  5
D2
330
1E
100
AcDbEntity
  8
2
100
AcDbLine
 10
141.5
 20
242.5
 30
0.0
 11
141.9999999999998
 21
241.9999999999999
 31
0.0
  0
LINE
  5
D3
330
1E
100
AcDbEntity
  8
2
100
AcDbLine
 10
141.9999999999998
 20
241.9999999999999
 30
0.0
 11
141.9999999999998
 21
247.9999999999999
 31
0.0
  0
LINE
  5
D4
330
1E
100
AcDbEntity
  8
2
100
AcDbLine
 10
141.9999999999998
 20
247.9999999999999
 30
0.0
 11
141.5
 21
247.5
 31
0.0
  0
LINE
  5
D5
330
1E
100
AcDbEntity
  8
2
100
AcDbLine
 10
147.5
 20
247.9999999999999
 30
0.0
 11
147.5
 21
246.4999999999998
 31
0.0
  0
LINE
  5
D6
330
1E
100
AcDbEntity
  8
2
100
AcDbLine
 10
147.5
 20
246.4999999999998
 30
0.0
 11
146.9999999999998
 21
246.4999999999998
 31
0.0
  0
LINE
  5
D7
330
1E
100
AcDbEntity
  8
2
100
AcDbLine
 10
146.9999999999998
 20
246.4999999999998
 30
0.0
 11
146.9999999999998
 21
243.5
 31
0.0
  0
LINE
  5
D8
330
1E
100
AcDbEntity
  8
2
100
AcDbLine
 10
146.9999999999998
 20
243.5
 30
0.0
 11
147.5
 21
243.5
 31
0.0
  0
LINE
  5
D9
330
1E
100
AcDbEntity
  8
2
100
AcDbLine
 10
147.5
 20
243.5
 30
0.0
 11
147.5
 21
241.9999999999999
 31
0.0
  0
LINE
  5
DA
330
1E
100
AcDbEntity
  8
2
100
AcDbLine
 10
147.5
 20
241.9999999999999
 30
0.0
 11
147.9999999999998
 21
242.5
 31
0.0
  0
LINE
  5
DB
330
1E
100
AcDbEntity
  8
2
100
AcDbLine
 10
147.9999999999998
 20
242.5
 30
0.0
 11
147.9999999999998
 21
243.5
 31
0.0
  0
LINE
  5
DC
330
1E
100
AcDbEntity
  8
2
100
AcDbLine
 10
147.9999999999998
 20
243.5
 30
0.0
 11
147.5
 21
243.5
 31
0.0
  0
LINE
  5
DD
330
1E
100
AcDbEntity
  8
2
100
AcDbLine
 10
147.5
 20
247.9999999999999
 30
0.0
 11
147.9999999999998
 21
247.5
 31
0.0
  0
LINE
  5
DE
330
1E
100
AcDbEntity
  8
2
100
AcDbLine
 10
147.9999999999998
 20
247.5
 30
0.0
 11
147.9999999999998
 21
246.4999999999998
 31
0.0
  0
LINE
  5
DF
330
1E
100
AcDbEntity
  8
2
100
AcDbLine
 10
147.9999999999998
 20
246.4999999999998
 30
0.0
 11
147.5
 21
246.4999999999998
 31
0.0
  0
LINE
  5
E0
330
1E
100
AcDbEntity
  8
2
100
AcDbLine
 10
147.9999999999998
 20
246.4999999999998
 30
0.0
 11
147.9999999999998
 21
243.5
 31
0.0
  0
LINE
  5
E1
330
1E
100
AcDbEntity
  8
2
100
AcDbLine
 10
147.9999999999998
 20
245.5
 30
0.0
 11
146.9999999999998
 21
245.5
 31
0.0
  0
LINE
  5
E2
330
1E
100
AcDbEntity
  8
2
100
AcDbLine
 10
147.9999999999998
 20
244.4999999999998
 30
0.0
 11
146.9999999999998
 21
244.4999999999998
 31
0.0
  0
LINE
  5
E3
330
1E
100
AcDbEntity
  8
2
100
AcDbLine
 10
462.9999999999999
 20
247.9999999999999
 30
0.0
 11
473.5
 21
247.9999999999999
 31
0.0
  0
LINE
  5
E4
330
1E
100
AcDbEntity
  8
2
100
AcDbLine
 10
462.9999999999999
 20
247.5
 30
0.0
 11
473.5
 21
247.5
 31
0.0
  0
LINE
  5
E5
330
1E
100
AcDbEntity
  8
2
100
AcDbLine
 10
462.9999999999999
 20
242.5
 30
0.0
 11
473.5
 21
242.5
 31
0.0
  0
LINE
  5
E6
330
1E
100
AcDbEntity
  8
2
100
AcDbLine
 10
462.9999999999999
 20
241.9999999999999
 30
0.0
 11
473.5
 21
241.9999999999999
 31
0.0
  0
LINE
  5
E7
330
1E
100
AcDbEntity
  8
2
100
AcDbLine
 10
473.0
 20
247.5
 30
0.0
 11
473.0
 21
242.5
 31
0.0
  0
LINE
  5
E8
330
1E
100
AcDbEntity
  8
2
100
AcDbLine
 10
473.0
 20
242.5
 30
0.0
 11
472.5
 21
241.9999999999999
 31
0.0
  0
LINE
  5
E9
330
1E
100
AcDbEntity
  8
2
100
AcDbLine
 10
472.5
 20
241.9999999999999
 30
0.0
 11
472.5
 21
247.9999999999999
 31
0.0
  0
LINE
  5
EA
330
1E
100
AcDbEntity
  8
2
100
AcDbLine
 10
472.5
 20
247.9999999999999
 30
0.0
 11
473.0
 21
247.5
 31
0.0
  0
LINE
  5
EB
330
1E
100
AcDbEntity
  8
2
100
AcDbLine
 10
467.4999999999999
 20
247.9999999999999
 30
0.0
 11
467.4999999999999
 21
246.4999999999998
 31
0.0
  0
LINE
  5
EC
330
1E
100
AcDbEntity
  8
2
100
AcDbLine
 10
467.4999999999999
 20
246.4999999999998
 30
0.0
 11
468.5
 21
246.4999999999998
 31
0.0
  0
LINE
  5
ED
330
1E
100
AcDbEntity
  8
2
100
AcDbLine
 10
468.5
 20
246.4999999999998
 30
0.0
 11
468.5
 21
243.5
 31
0.0
  0
LINE
  5
EE
330
1E
100
AcDbEntity
  8
2
100
AcDbLine
 10
468.5
 20
243.5
 30
0.0
 11
467.4999999999999
 21
243.5
 31
0.0
  0
LINE
  5
EF
330
1E
100
AcDbEntity
  8
2
100
AcDbLine
 10
467.4999999999999
 20
243.5
 30
0.0
 11
467.4999999999999
 21
241.9999999999999
 31
0.0
  0
LINE
  5
F0
330
1E
100
AcDbEntity
  8
2
100
AcDbLine
 10
467.4999999999999
 20
241.9999999999999
 30
0.0
 11
466.9999999999999
 21
242.5
 31
0.0
  0
LINE
  5
F1
330
1E
100
AcDbEntity
  8
2
100
AcDbLine
 10
466.9999999999999
 20
242.5
 30
0.0
 11
466.9999999999999
 21
243.5
 31
0.0
  0
LINE
  5
F2
330
1E
100
AcDbEntity
  8
2
100
AcDbLine
 10
466.9999999999999
 20
243.5
 30
0.0
 11
467.4999999999999
 21
243.5
 31
0.0
  0
LINE
  5
F3
330
1E
100
AcDbEntity
  8
2
100
AcDbLine
 10
466.9999999999999
 20
243.5
 30
0.0
 11
466.9999999999999
 21
247.5
 31
0.0
  0
LINE
  5
F4
330
1E
100
AcDbEntity
  8
2
100
AcDbLine
 10
466.9999999999999
 20
247.5
 30
0.0
 11
467.4999999999999
 21
247.9999999999999
 31
0.0
  0
LINE
  5
F5
330
1E
100
AcDbEntity
  8
2
100
AcDbLine
 10
467.4999999999999
 20
246.4999999999998
 30
0.0
 11
466.9999999999999
 21
246.4999999999998
 31
0.0
  0
LINE
  5
F6
330
1E
100
AcDbEntity
  8
2
100
AcDbLine
 10
466.9999999999999
 20
245.5
 30
0.0
 11
468.5
 21
245.5
 31
0.0
  0
LINE
  5
F7
330
1E
100
AcDbEntity
  8
2
100
AcDbLine
 10
466.9999999999999
 20
244.4999999999998
 30
0.0
 11
468.5
 21
244.4999999999998
 31
0.0
  0
LINE
  5
F8
330
1E
100
AcDbEntity
  8
1
100
AcDbLine
 10
343.9999999999998
 20
291.0
 30
0.0
 11
343.9999999999998
 21
419.5
 31
0.0
  0
LINE
  5
F9
330
1E
100
AcDbEntity
  8
1
100
AcDbLine
 10
300.4611904232568
 20
356.4999999999998
 30
0.0
 11
370.0
 21
356.4999999999998
 31
0.0
  0
LINE
  5
FA
330
1E
100
AcDbEntity
  8
3
100
AcDbLine
 10
327.0
 20
354.3010971423622
 30
0.0
 11
327.0
 21
331.4999999999999
 31
0.0
  0
LINE
  5
FB
330
1E
100
AcDbEntity
  8
0
100
AcDbLine
 10
325.0
 20
341.5
 30
0.0
 11
325.0
 21
332.5
 31
0.0
  0
LINE
  5
FC
330
1E
100
AcDbEntity
  8
2
100
AcDbLine
 10
360.0
 20
372.0
 30
0.0
 11
341.0
 21
372.0
 31
0.0
  0
LINE
  5
FD
330
1E
100
AcDbEntity
  8
0
100
AcDbLine
 10
358.9999999999998
 20
382.5
 30
0.0
 11
326.0
 21
382.5
 31
0.0
  0
LINE
  5
FE
330
1E
100
AcDbEntity
  8
2
100
AcDbLine
 10
341.0
 20
341.0
 30
0.0
 11
360.0
 21
341.0
 31
0.0
  0
LINE
  5
FF
330
1E
100
AcDbEntity
  8
3
100
AcDbLine
 10
327.0
 20
382.5
 30
0.0
 11
327.0
 21
358.7149497242334
 31
0.0
  0
LINE
  5
100
330
1E
100
AcDbEntity
  8
0
100
AcDbLine
 10
325.0
 20
381.4999999999999
 30
0.0
 11
325.0
 21
371.4999999999999
 31
0.0
  0
LINE
  5
101
330
1E
100
AcDbEntity
  8
2
100
AcDbLine
 10
341.0
 20
372.0
 30
0.0
 11
341.0
 21
341.0
 31
0.0
  0
LINE
  5
102
330
1E
100
AcDbEntity
  8
5
100
AcDbLine
 10
320.9999999999999
 20
348.4999999999998
 30
0.0
 11
341.0
 21
348.4999999999998
 31
0.0
  0
LINE
  5
103
330
1E
100
AcDbEntity
  8
5
100
AcDbLine
 10
320.9999999999999
 20
364.5
 30
0.0
 11
341.0
 21
364.5
 31
0.0
  0
LINE
  5
104
330
1E
100
AcDbEntity
  8
2
100
AcDbLine
 10
341.0
 20
346.4999999999998
 30
0.0
 11
320.9999999999999
 21
346.4999999999998
 31
0.0
  0
LINE
  5
105
330
1E
100
AcDbEntity
  8
2
100
AcDbLine
 10
341.0
 20
366.5
 30
0.0
 11
320.9999999999999
 21
366.5
 31
0.0
  0
LINE
  5
106
330
1E
100
AcDbEntity
  8
0
100
AcDbLine
 10
325.0
 20
371.4999999999999
 30
0.0
 11
320.9999999999999
 21
370.0
 31
0.0
  0
LINE
  5
107
330
1E
100
AcDbEntity
  8
0
100
AcDbLine
 10
320.9999999999999
 20
343.0
 30
0.0
 11
325.0
 21
341.5
 31
0.0
  0
LINE
  5
108
330
1E
100
AcDbEntity
  8
0
100
AcDbLine
 10
320.9999999999999
 20
370.0
 30
0.0
 11
320.9999999999999
 21
343.0
 31
0.0
  0
LINE
  5
109
330
1E
100
AcDbEntity
  8
0
100
AcDbLine
 10
325.0
 20
341.5
 30
0.0
 11
325.0
 21
371.4999999999999
 31
0.0
  0
LINE
  5
10A
330
1E
100
AcDbEntity
  8
0
100
AcDbLine
 10
326.0
 20
382.5
 30
0.0
 11
325.0
 21
381.4999999999999
 31
0.0
  0
LINE
  5
10B
330
1E
100
AcDbEntity
  8
0
100
AcDbLine
 10
360.0
 20
381.4999999999999
 30
0.0
 11
358.9999999999998
 21
382.5
 31
0.0
  0
LINE
  5
10C
330
1E
100
AcDbEntity
  8
0
100
AcDbLine
 10
362.9999999999999
 20
412.5
 30
0.0
 11
325.0
 21
412.5
 31
0.0
  0
LINE
  5
10D
330
1E
100
AcDbEntity
  8
0
100
AcDbLine
 10
325.0
 20
412.5
 30
0.0
 11
324.0
 21
411.5
 31
0.0
  0
LINE
  5
10E
330
1E
100
AcDbEntity
  8
0
100
AcDbLine
 10
362.9999999999999
 20
412.5
 30
0.0
 11
364.0
 21
411.5
 31
0.0
  0
LINE
  5
10F
330
1E
100
AcDbEntity
  8
0
100
AcDbLine
 10
360.0
 20
331.4999999999999
 30
0.0
 11
360.0
 21
381.4999999999999
 31
0.0
  0
LINE
  5
110
330
1E
100
AcDbEntity
  8
0
100
AcDbLine
 10
360.0
 20
331.4999999999999
 30
0.0
 11
358.9999999999998
 21
330.5
 31
0.0
  0
LINE
  5
111
330
1E
100
AcDbEntity
  8
0
100
AcDbLine
 10
358.9999999999998
 20
330.5
 30
0.0
 11
326.0
 21
330.5
 31
0.0
  0
LINE
  5
112
330
1E
100
AcDbEntity
  8
0
100
AcDbLine
 10
326.0
 20
330.5
 30
0.0
 11
325.0
 21
331.4999999999999
 31
0.0
  0
LINE
  5
113
330
1E
100
AcDbEntity
  8
0
100
AcDbLine
 10
325.0
 20
331.4999999999999
 30
0.0
 11
325.0
 21
333.0
 31
0.0
  0
LINE
  5
114
330
1E
100
AcDbEntity
  8
3
100
AcDbLine
 10
327.0
 20
331.4999999999999
 30
0.0
 11
327.0
 21
330.5
 31
0.0
  0
LINE
  5
115
330
1E
100
AcDbEntity
  8
0
100
AcDbLine
 10
364.0
 20
411.5
 30
0.0
 11
364.0
 21
380.5
 31
0.0
  0
LINE
  5
116
330
1E
100
AcDbEntity
  8
0
100
AcDbLine
 10
364.0
 20
380.5
 30
0.0
 11
362.9999999999999
 21
379.4999999999999
 31
0.0
  0
LINE
  5
117
330
1E
100
AcDbEntity
  8
0
100
AcDbLine
 10
362.9999999999999
 20
379.4999999999999
 30
0.0
 11
360.0
 21
379.4999999999999
 31
0.0
  0
LINE
  5
118
330
1E
100
AcDbEntity
  8
0
100
AcDbLine
 10
343.9999999999998
 20
300.4999999999999
 30
0.0
 11
362.9999999999999
 21
300.4999999999999
 31
0.0
  0
LINE
  5
119
330
1E
100
AcDbEntity
  8
0
100
AcDbLine
 10
362.9999999999999
 20
300.4999999999999
 30
0.0
 11
364.0
 21
301.5
 31
0.0
  0
LINE
  5
11A
330
1E
100
AcDbEntity
  8
0
100
AcDbLine
 10
364.0
 20
301.5
 30
0.0
 11
364.0
 21
332.5
 31
0.0
  0
LINE
  5
11B
330
1E
100
AcDbEntity
  8
0
100
AcDbLine
 10
364.0
 20
332.5
 30
0.0
 11
362.9999999999999
 21
333.4999999999999
 31
0.0
  0
LINE
  5
11C
330
1E
100
AcDbEntity
  8
0
100
AcDbLine
 10
362.9999999999999
 20
333.4999999999999
 30
0.0
 11
360.0
 21
333.4999999999999
 31
0.0
  0
LINE
  5
11D
330
1E
100
AcDbEntity
  8
0
100
AcDbLine
 10
324.0
 20
411.5
 30
0.0
 11
324.0
 21
380.5
 31
0.0
  0
LINE
  5
11E
330
1E
100
AcDbEntity
  8
0
100
AcDbLine
 10
324.0
 20
380.5
 30
0.0
 11
325.0
 21
379.4999999999999
 31
0.0
  0
LINE
  5
11F
330
1E
100
AcDbEntity
  8
0
100
AcDbLine
 10
343.9999999999998
 20
300.4999999999999
 30
0.0
 11
325.0
 21
300.4999999999999
 31
0.0
  0
LINE
  5
120
330
1E
100
AcDbEntity
  8
0
100
AcDbLine
 10
325.0
 20
300.4999999999999
 30
0.0
 11
324.0
 21
301.5
 31
0.0
  0
LINE
  5
121
330
1E
100
AcDbEntity
  8
0
100
AcDbLine
 10
324.0
 20
301.5
 30
0.0
 11
324.0
 21
332.5
 31
0.0
  0
LINE
  5
122
330
1E
100
AcDbEntity
  8
0
100
AcDbLine
 10
324.0
 20
332.5
 30
0.0
 11
325.0
 21
333.4999999999999
 31
0.0
  0
ARC
  5
123
330
1E
100
AcDbEntity
  8
0
100
AcDbCircle
 10
343.9999999999998
 20
316.9999999999999
 30
0.0
 40
15.5
100
AcDbArc
 50
180.0
 51
0.0
  0
ARC
  5
124
330
1E
100
AcDbEntity
  8
0
100
AcDbCircle
 10
343.9999999999998
 20
395.9999999999999
 30
0.0
 40
15.5
100
AcDbArc
 50
0.0
 51
180.0
  0
LINE
  5
125
330
1E
100
AcDbEntity
  8
0
100
AcDbLine
 10
359.5
 20
395.9999999999999
 30
0.0
 11
359.5
 21
382.5
 31
0.0
  0
LINE
  5
126
330
1E
100
AcDbEntity
  8
0
100
AcDbLine
 10
328.5
 20
395.9999999999999
 30
0.0
 11
328.5
 21
382.5
 31
0.0
  0
LINE
  5
127
330
1E
100
AcDbEntity
  8
0
100
AcDbLine
 10
359.5
 20
316.9999999999999
 30
0.0
 11
359.5
 21
330.5
 31
0.0
  0
LINE
  5
128
330
1E
100
AcDbEntity
  8
0
100
AcDbLine
 10
328.5
 20
316.9999999999999
 30
0.0
 11
328.5
 21
330.5
 31
0.0
  0
LINE
  5
129
330
1E
100
AcDbEntity
  8
1
100
AcDbLine
 10
332.5
 20
401.4999999999999
 30
0.0
 11
356.0
 21
401.4999999999999
 31
0.0
  0
LINE
  5
12A
330
1E
100
AcDbEntity
  8
1
100
AcDbLine
 10
332.5
 20
311.5
 30
0.0
 11
356.0
 21
311.5
 31
0.0
  0
CIRCLE
  5
12B
330
1E
100
AcDbEntity
  8
0
100
AcDbCircle
 10
343.9999999999998
 20
401.4999999999999
 30
0.0
 40
5.5
  0
CIRCLE
  5
12C
330
1E
100
AcDbEntity
  8
0
100
AcDbCircle
 10
343.9999999999998
 20
311.5
 30
0.0
 40
5.5
  0
LINE
  5
12D
330
1E
100
AcDbEntity
  8
1
100
AcDbLine
 10
333.0
 20
326.0
 30
0.0
 11
333.0
 21
351.0
 31
0.0
  0
LINE
  5
12E
330
1E
100
AcDbEntity
  8
2
100
AcDbLine
 10
335.9999999999998
 20
330.5
 30
0.0
 11
335.9999999999998
 21
346.4999999999998
 31
0.0
  0
LINE
  5
12F
330
1E
100
AcDbEntity
  8
2
100
AcDbLine
 10
335.4999999999999
 20
330.5
 30
0.0
 11
335.4999999999999
 21
346.4999999999998
 31
0.0
  0
LINE
  5
130
330
1E
100
AcDbEntity
  8
2
100
AcDbLine
 10
330.5
 20
330.5
 30
0.0
 11
330.5
 21
346.4999999999998
 31
0.0
  0
LINE
  5
131
330
1E
100
AcDbEntity
  8
2
100
AcDbLine
 10
330.0
 20
330.5
 30
0.0
 11
330.0
 21
346.4999999999998
 31
0.0
  0
LINE
  5
132
330
1E
100
AcDbEntity
  8
2
100
AcDbLine
 10
335.4999999999999
 20
346.4999999999998
 30
0.0
 11
335.4999999999999
 21
345.9999999999998
 31
0.0
  0
LINE
  5
133
330
1E
100
AcDbEntity
  8
2
100
AcDbLine
 10
335.4999999999999
 20
345.9999999999998
 30
0.0
 11
330.0
 21
345.9999999999998
 31
0.0
  0
LINE
  5
134
330
1E
100
AcDbEntity
  8
2
100
AcDbLine
 10
330.0
 20
345.9999999999998
 30
0.0
 11
330.5
 21
346.4999999999998
 31
0.0
  0
LINE
  5
135
330
1E
100
AcDbEntity
  8
2
100
AcDbLine
 10
335.4999999999999
 20
346.4999999999998
 30
0.0
 11
335.9999999999998
 21
345.9999999999998
 31
0.0
  0
LINE
  5
136
330
1E
100
AcDbEntity
  8
2
100
AcDbLine
 10
335.9999999999998
 20
345.9999999999998
 30
0.0
 11
335.0
 21
345.9999999999998
 31
0.0
  0
LINE
  5
137
330
1E
100
AcDbEntity
  8
2
100
AcDbLine
 10
335.9999999999998
 20
339.0
 30
0.0
 11
334.5
 21
339.0
 31
0.0
  0
LINE
  5
138
330
1E
100
AcDbEntity
  8
2
100
AcDbLine
 10
334.5
 20
339.0
 30
0.0
 11
334.5
 21
339.9999999999999
 31
0.0
  0
LINE
  5
139
330
1E
100
AcDbEntity
  8
2
100
AcDbLine
 10
334.5
 20
339.9999999999999
 30
0.0
 11
331.4999999999999
 21
339.9999999999999
 31
0.0
  0
LINE
  5
13A
330
1E
100
AcDbEntity
  8
2
100
AcDbLine
 10
331.4999999999999
 20
339.9999999999999
 30
0.0
 11
331.4999999999999
 21
339.0
 31
0.0
  0
LINE
  5
13B
330
1E
100
AcDbEntity
  8
2
100
AcDbLine
 10
331.4999999999999
 20
339.0
 30
0.0
 11
330.0
 21
339.0
 31
0.0
  0
LINE
  5
13C
330
1E
100
AcDbEntity
  8
2
100
AcDbLine
 10
330.0
 20
339.0
 30
0.0
 11
330.5
 21
338.5
 31
0.0
  0
LINE
  5
13D
330
1E
100
AcDbEntity
  8
2
100
AcDbLine
 10
330.5
 20
338.5
 30
0.0
 11
331.4999999999999
 21
338.5
 31
0.0
  0
LINE
  5
13E
330
1E
100
AcDbEntity
  8
2
100
AcDbLine
 10
331.4999999999999
 20
338.5
 30
0.0
 11
331.4999999999999
 21
339.0
 31
0.0
  0
LINE
  5
13F
330
1E
100
AcDbEntity
  8
2
100
AcDbLine
 10
334.5
 20
339.0
 30
0.0
 11
334.5
 21
338.5
 31
0.0
  0
LINE
  5
140
330
1E
100
AcDbEntity
  8
2
100
AcDbLine
 10
334.5
 20
338.5
 30
0.0
 11
335.4999999999999
 21
338.5
 31
0.0
  0
LINE
  5
141
330
1E
100
AcDbEntity
  8
2
100
AcDbLine
 10
335.4999999999999
 20
338.5
 30
0.0
 11
335.9999999999998
 21
339.0
 31
0.0
  0
LINE
  5
142
330
1E
100
AcDbEntity
  8
1
100
AcDbLine
 10
301.8191977568432
 20
99.0
 30
0.0
 11
370.0
 21
99.0
 31
0.0
  0
LINE
  5
143
330
1E
100
AcDbEntity
  8
0
100
AcDbLine
 10
325.0
 20
84.0
 30
0.0
 11
325.0
 21
114.0
 31
0.0
  0
LINE
  5
144
330
1E
100
AcDbEntity
  8
0
100
AcDbLine
 10
320.9999999999999
 20
112.5
 30
0.0
 11
320.9999999999999
 21
85.5
 31
0.0
  0
LINE
  5
145
330
1E
100
AcDbEntity
  8
2
100
AcDbLine
 10
341.0
 20
114.5
 30
0.0
 11
341.0
 21
83.49999999999999
 31
0.0
  0
LINE
  5
146
330
1E
100
AcDbEntity
  8
3
100
AcDbLine
 10
327.0
 20
125.0
 30
0.0
 11
327.0
 21
101.2149497242335
 31
0.0
  0
LINE
  5
147
330
1E
100
AcDbEntity
  8
1
100
AcDbLine
 10
343.9999999999998
 20
33.5
 30
0.0
 11
343.9999999999998
 21
162.0
 31
0.0
  0
CIRCLE
  5
148
330
1E
100
AcDbEntity
  8
0
100
AcDbCircle
 10
343.9999999999998
 20
54.0
 30
0.0
 40
5.5
  0
LINE
  5
149
330
1E
100
AcDbEntity
  8
1
100
AcDbLine
 10
332.5
 20
54.0
 30
0.0
 11
356.0
 21
54.0
 31
0.0
  0
LINE
  5
14A
330
1E
100
AcDbEntity
  8
0
100
AcDbLine
 10
343.9999999999998
 20
42.99999999999999
 30
0.0
 11
362.9999999999999
 21
42.99999999999999
 31
0.0
  0
LINE
  5
14B
330
1E
100
AcDbEntity
  8
2
100
AcDbLine
 10
341.0
 20
83.49999999999999
 30
0.0
 11
360.0
 21
83.49999999999999
 31
0.0
  0
LINE
  5
14C
330
1E
100
AcDbEntity
  8
1
100
AcDbLine
 10
333.0
 20
129.4999999999998
 30
0.0
 11
333.0
 21
104.4999999999999
 31
0.0
  0
LINE
  5
14D
330
1E
100
AcDbEntity
  8
0
100
AcDbLine
 10
324.0
 20
44.0
 30
0.0
 11
324.0
 21
75.0
 31
0.0
  0
LINE
  5
14E
330
1E
100
AcDbEntity
  8
0
100
AcDbLine
 10
343.9999999999998
 20
42.99999999999999
 30
0.0
 11
325.0
 21
42.99999999999999
 31
0.0
  0
LINE
  5
14F
330
1E
100
AcDbEntity
  8
0
100
AcDbLine
 10
325.0
 20
42.99999999999999
 30
0.0
 11
324.0
 21
44.0
 31
0.0
  0
LINE
  5
150
330
1E
100
AcDbEntity
  8
0
100
AcDbLine
 10
320.9999999999999
 20
85.5
 30
0.0
 11
325.0
 21
84.0
 31
0.0
  0
LINE
  5
151
330
1E
100
AcDbEntity
  8
2
100
AcDbLine
 10
341.0
 20
89.0
 30
0.0
 11
320.9999999999999
 21
89.0
 31
0.0
  0
LINE
  5
152
330
1E
100
AcDbEntity
  8
5
100
AcDbLine
 10
320.9999999999999
 20
107.0
 30
0.0
 11
341.0
 21
107.0
 31
0.0
  0
LINE
  5
153
330
1E
100
AcDbEntity
  8
5
100
AcDbLine
 10
320.9999999999999
 20
90.99999999999999
 30
0.0
 11
341.0
 21
90.99999999999999
 31
0.0
  0
LINE
  5
154
330
1E
100
AcDbEntity
  8
3
100
AcDbLine
 10
327.0
 20
96.80109714236222
 30
0.0
 11
327.0
 21
74.0
 31
0.0
  0
LINE
  5
155
330
1E
100
AcDbEntity
  8
2
100
AcDbLine
 10
334.5
 20
116.9999999999999
 30
0.0
 11
335.4999999999999
 21
116.9999999999999
 31
0.0
  0
LINE
  5
156
330
1E
100
AcDbEntity
  8
2
100
AcDbLine
 10
335.9999999999998
 20
116.5
 30
0.0
 11
334.5
 21
116.5
 31
0.0
  0
LINE
  5
157
330
1E
100
AcDbEntity
  8
2
100
AcDbLine
 10
335.9999999999998
 20
109.4999999999999
 30
0.0
 11
335.0
 21
109.4999999999999
 31
0.0
  0
LINE
  5
158
330
1E
100
AcDbEntity
  8
2
100
AcDbLine
 10
335.4999999999999
 20
109.4999999999999
 30
0.0
 11
330.0
 21
109.4999999999999
 31
0.0
  0
LINE
  5
159
330
1E
100
AcDbEntity
  8
2
100
AcDbLine
 10
331.4999999999999
 20
115.5
 30
0.0
 11
331.4999999999999
 21
116.5
 31
0.0
  0
LINE
  5
15A
330
1E
100
AcDbEntity
  8
2
100
AcDbLine
 10
334.5
 20
116.5
 30
0.0
 11
334.5
 21
115.5
 31
0.0
  0
LINE
  5
15B
330
1E
100
AcDbEntity
  8
2
100
AcDbLine
 10
330.0
 20
125.0
 30
0.0
 11
330.0
 21
109.0
 31
0.0
  0
LINE
  5
15C
330
1E
100
AcDbEntity
  8
2
100
AcDbLine
 10
330.5
 20
125.0
 30
0.0
 11
330.5
 21
109.0
 31
0.0
  0
LINE
  5
15D
330
1E
100
AcDbEntity
  8
0
100
AcDbLine
 10
325.0
 20
84.0
 30
0.0
 11
325.0
 21
76.0
 31
0.0
  0
LINE
  5
15E
330
1E
100
AcDbEntity
  8
0
100
AcDbLine
 10
324.0
 20
75.0
 30
0.0
 11
325.0
 21
76.0
 31
0.0
  0
LINE
  5
15F
330
1E
100
AcDbEntity
  8
3
100
AcDbLine
 10
327.0
 20
74.0
 30
0.0
 11
327.0
 21
73.0
 31
0.0
  0
LINE
  5
160
330
1E
100
AcDbEntity
  8
2
100
AcDbLine
 10
334.5
 20
116.5
 30
0.0
 11
334.5
 21
116.9999999999999
 31
0.0
  0
LINE
  5
161
330
1E
100
AcDbEntity
  8
2
100
AcDbLine
 10
331.4999999999999
 20
116.9999999999999
 30
0.0
 11
331.4999999999999
 21
116.5
 31
0.0
  0
LINE
  5
162
330
1E
100
AcDbEntity
  8
2
100
AcDbLine
 10
330.5
 20
116.9999999999999
 30
0.0
 11
331.4999999999999
 21
116.9999999999999
 31
0.0
  0
LINE
  5
163
330
1E
100
AcDbEntity
  8
2
100
AcDbLine
 10
330.0
 20
116.5
 30
0.0
 11
330.5
 21
116.9999999999999
 31
0.0
  0
LINE
  5
164
330
1E
100
AcDbEntity
  8
2
100
AcDbLine
 10
331.4999999999999
 20
116.5
 30
0.0
 11
330.0
 21
116.5
 31
0.0
  0
LINE
  5
165
330
1E
100
AcDbEntity
  8
2
100
AcDbLine
 10
334.5
 20
115.5
 30
0.0
 11
331.4999999999999
 21
115.5
 31
0.0
  0
LINE
  5
166
330
1E
100
AcDbEntity
  8
2
100
AcDbLine
 10
330.0
 20
109.4999999999999
 30
0.0
 11
330.5
 21
109.0
 31
0.0
  0
LINE
  5
167
330
1E
100
AcDbEntity
  8
2
100
AcDbLine
 10
335.4999999999999
 20
125.0
 30
0.0
 11
335.4999999999999
 21
109.0
 31
0.0
  0
LINE
  5
168
330
1E
100
AcDbEntity
  8
2
100
AcDbLine
 10
335.9999999999998
 20
125.0
 30
0.0
 11
335.9999999999998
 21
109.0
 31
0.0
  0
LINE
  5
169
330
1E
100
AcDbEntity
  8
2
100
AcDbLine
 10
335.4999999999999
 20
116.9999999999999
 30
0.0
 11
335.9999999999998
 21
116.5
 31
0.0
  0
LINE
  5
16A
330
1E
100
AcDbEntity
  8
2
100
AcDbLine
 10
335.4999999999999
 20
109.0
 30
0.0
 11
335.9999999999998
 21
109.4999999999999
 31
0.0
  0
LINE
  5
16B
330
1E
100
AcDbEntity
  8
2
100
AcDbLine
 10
335.4999999999999
 20
109.0
 30
0.0
 11
335.4999999999999
 21
109.4999999999999
 31
0.0
  0
LINE
  5
16C
330
1E
100
AcDbEntity
  8
0
100
AcDbLine
 10
364.0
 20
44.0
 30
0.0
 11
364.0
 21
75.0
 31
0.0
  0
LINE
  5
16D
330
1E
100
AcDbEntity
  8
0
100
AcDbLine
 10
362.9999999999999
 20
42.99999999999999
 30
0.0
 11
364.0
 21
44.0
 31
0.0
  0
LINE
  5
16E
330
1E
100
AcDbEntity
  8
0
100
AcDbLine
 10
362.9999999999999
 20
76.0
 30
0.0
 11
360.0
 21
76.0
 31
0.0
  0
LINE
  5
16F
330
1E
100
AcDbEntity
  8
0
100
AcDbLine
 10
364.0
 20
75.0
 30
0.0
 11
362.9999999999999
 21
76.0
 31
0.0
  0
CIRCLE
  5
170
330
1E
100
AcDbEntity
  8
0
100
AcDbCircle
 10
343.9999999999998
 20
143.9999999999998
 30
0.0
 40
5.5
  0
LINE
  5
171
330
1E
100
AcDbEntity
  8
1
100
AcDbLine
 10
332.5
 20
143.9999999999998
 30
0.0
 11
356.0
 21
143.9999999999998
 31
0.0
  0
LINE
  5
172
330
1E
100
AcDbEntity
  8
0
100
AcDbLine
 10
362.9999999999999
 20
155.0
 30
0.0
 11
325.0
 21
155.0
 31
0.0
  0
LINE
  5
173
330
1E
100
AcDbEntity
  8
2
100
AcDbLine
 10
360.0
 20
114.5
 30
0.0
 11
341.0
 21
114.5
 31
0.0
  0
LINE
  5
174
330
1E
100
AcDbEntity
  8
0
100
AcDbLine
 10
324.0
 20
154.0
 30
0.0
 11
324.0
 21
122.9999999999999
 31
0.0
  0
LINE
  5
175
330
1E
100
AcDbEntity
  8
0
100
AcDbLine
 10
325.0
 20
114.0
 30
0.0
 11
320.9999999999999
 21
112.5
 31
0.0
  0
LINE
  5
176
330
1E
100
AcDbEntity
  8
2
100
AcDbLine
 10
341.0
 20
109.0
 30
0.0
 11
320.9999999999999
 21
109.0
 31
0.0
  0
LINE
  5
177
330
1E
100
AcDbEntity
  8
0
100
AcDbLine
 10
324.0
 20
122.9999999999999
 30
0.0
 11
325.0
 21
121.9999999999999
 31
0.0
  0
LINE
  5
178
330
1E
100
AcDbEntity
  8
0
100
AcDbLine
 10
325.0
 20
155.0
 30
0.0
 11
324.0
 21
154.0
 31
0.0
  0
LINE
  5
179
330
1E
100
AcDbEntity
  8
0
100
AcDbLine
 10
364.0
 20
154.0
 30
0.0
 11
364.0
 21
122.9999999999999
 31
0.0
  0
LINE
  5
17A
330
1E
100
AcDbEntity
  8
0
100
AcDbLine
 10
362.9999999999999
 20
121.9999999999999
 30
0.0
 11
360.0
 21
121.9999999999999
 31
0.0
  0
LINE
  5
17B
330
1E
100
AcDbEntity
  8
0
100
AcDbLine
 10
364.0
 20
122.9999999999999
 30
0.0
 11
362.9999999999999
 21
121.9999999999999
 31
0.0
  0
LINE
  5
17C
330
1E
100
AcDbEntity
  8
0
100
AcDbLine
 10
362.9999999999999
 20
155.0
 30
0.0
 11
364.0
 21
154.0
 31
0.0
  0
LINE
  5
17D
330
1E
100
AcDbEntity
  8
2
100
AcDbLine
 10
358.9999999999998
 20
125.0
 30
0.0
 11
326.0
 21
125.0
 31
0.0
  0
LINE
  5
17E
330
1E
100
AcDbEntity
  8
2
100
AcDbLine
 10
358.9999999999998
 20
73.0
 30
0.0
 11
326.0
 21
73.0
 31
0.0
  0
LINE
  5
17F
330
1E
100
AcDbEntity
  8
2
100
AcDbLine
 10
358.9999999999998
 20
125.0
 30
0.0
 11
360.0
 21
123.9999999999999
 31
0.0
  0
LINE
  5
180
330
1E
100
AcDbEntity
  8
2
100
AcDbLine
 10
326.0
 20
125.0
 30
0.0
 11
325.0
 21
123.9999999999999
 31
0.0
  0
LINE
  5
181
330
1E
100
AcDbEntity
  8
2
100
AcDbLine
 10
326.0
 20
73.0
 30
0.0
 11
325.0
 21
74.0
 31
0.0
  0
LINE
  5
182
330
1E
100
AcDbEntity
  8
2
100
AcDbLine
 10
358.9999999999998
 20
73.0
 30
0.0
 11
360.0
 21
74.0
 31
0.0
  0
LINE
  5
183
330
1E
100
AcDbEntity
  8
0
100
AcDbLine
 10
360.0
 20
76.0
 30
0.0
 11
360.0
 21
121.9999999999999
 31
0.0
  0
LINE
  5
184
330
1E
100
AcDbEntity
  8
0
100
AcDbLine
 10
325.0
 20
121.9999999999999
 30
0.0
 11
325.0
 21
114.0
 31
0.0
  0
LINE
  5
185
330
1E
100
AcDbEntity
  8
2
100
AcDbLine
 10
360.0
 20
123.9999999999999
 30
0.0
 11
360.0
 21
121.9999999999999
 31
0.0
  0
LINE
  5
186
330
1E
100
AcDbEntity
  8
2
100
AcDbLine
 10
325.0
 20
123.9999999999999
 30
0.0
 11
325.0
 21
121.9999999999999
 31
0.0
  0
LINE
  5
187
330
1E
100
AcDbEntity
  8
2
100
AcDbLine
 10
325.0
 20
74.0
 30
0.0
 11
325.0
 21
76.0
 31
0.0
  0
LINE
  5
188
330
1E
100
AcDbEntity
  8
2
100
AcDbLine
 10
360.0
 20
74.0
 30
0.0
 11
360.0
 21
76.0
 31
0.0
  0
LINE
  5
189
330
1E
100
AcDbEntity
  8
0
100
AcDbLine
 10
360.0
 20
121.9999999999999
 30
0.0
 11
325.0
 21
121.9999999999999
 31
0.0
  0
LINE
  5
18A
330
1E
100
AcDbEntity
  8
0
100
AcDbLine
 10
360.0
 20
76.0
 30
0.0
 11
325.0
 21
76.0
 31
0.0
  0
LINE
  5
18B
330
1E
100
AcDbEntity
  8
2
100
AcDbLine
 10
360.0
 20
198.0
 30
0.0
 11
328.0
 21
198.0
 31
0.0
  0
LINE
  5
18C
330
1E
100
AcDbEntity
  8
0
100
AcDbLine
 10
328.0
 20
76.0
 30
0.0
 11
328.0
 21
121.9999999999999
 31
0.0
  0
ARC
  5
18F
330
1E
100
AcDbEntity
  8
0
100
AcDbCircle
 10
142.7494424010137
 20
221.2499999999999
 30
0.0
 40
3.259601202601324
100
AcDbArc
 50
355.6012946450043
 51
122.4711922908484
  0
LINE
  5
192
330
1E
100
AcDbEntity
  8
0
100
AcDbLine
 10
126.0
 20
261.9999999999999
 30
0.0
 11
126.0
 21
270.0
 31
0.0
  0
LINE
  5
193
330
1E
100
AcDbEntity
  8
0
100
AcDbLine
 10
123.9200069880891
 20
260.7991154746607
 30
0.0
 11
122.7368451944987
 21
269.7861215343452
 31
0.0
  0
LINE
  5
194
330
1E
100
AcDbEntity
  8
0
100
AcDbLine
 10
122.055136271329
 20
259.7224318643354
 30
0.0
 11
119.5295238724369
 21
269.1481456572266
 31
0.0
  0
LINE
  5
195
330
1E
100
AcDbEntity
  8
0
100
AcDbLine
 10
120.3173534120715
 20
258.7191224627499
 30
0.0
 11
116.4329141908726
 21
268.0969883127821
 31
0.0
  0
LINE
  5
196
330
1E
100
AcDbEntity
  8
0
100
AcDbLine
 10
118.6360754431365
 20
257.7546914755914
 30
0.0
 11
113.5
 21
266.6506350946109
 31
0.0
  0
LINE
  5
197
330
1E
100
AcDbEntity
  8
0
100
AcDbLine
 10
116.9602147235929
 20
256.7808775372499
 30
0.0
 11
110.7809642747818
 21
264.8338335072808
 31
0.0
  0
LINE
  5
198
330
1E
100
AcDbEntity
  8
0
100
AcDbLine
 10
115.2224318643353
 20
255.7775681356645
 30
0.0
 11
108.3223304703363
 21
262.6776695296637
 31
0.0
  0
LINE
  5
199
330
1E
100
AcDbEntity
  8
0
100
AcDbLine
 10
113.3575611475752
 20
254.7008845253392
 30
0.0
 11
106.1661664927191
 21
260.219035725218
 31
0.0
  0
LINE
  5
19A
330
1E
100
AcDbEntity
  8
0
100
AcDbLine
 10
111.2775681356645
 20
253.4999999999999
 30
0.0
 11
104.349364905389
 21
257.5
 31
0.0
  0
LINE
  5
19B
330
1E
100
AcDbEntity
  8
0
100
AcDbLine
 10
111.2775681356644
 20
251.0982309493214
 30
0.0
 11
102.9030116872177
 21
254.5670858091272
 31
0.0
  0
LINE
  5
19C
330
1E
100
AcDbEntity
  8
0
100
AcDbLine
 10
111.2775681356644
 20
248.9448637286708
 30
0.0
 11
101.8518543427732
 21
251.470476127563
 31
0.0
  0
LINE
  5
19D
330
1E
100
AcDbEntity
  8
0
100
AcDbLine
 10
111.2775681356644
 20
246.9382449255
 30
0.0
 11
101.2138784656547
 21
248.2631548055012
 31
0.0
  0
LINE
  5
19E
330
1E
100
AcDbEntity
  8
0
100
AcDbLine
 10
111.2721508862732
 20
245.0
 30
0.0
 11
101.0
 21
245.0
 31
0.0
  0
LINE
  5
19F
330
1E
100
AcDbEntity
  8
0
100
AcDbLine
 10
111.2775681356644
 20
243.0617550744998
 30
0.0
 11
101.2138784656547
 21
241.7368451944986
 31
0.0
  0
LINE
  5
1A0
330
1E
100
AcDbEntity
  8
0
100
AcDbLine
 10
111.2775681356644
 20
241.055136271329
 30
0.0
 11
101.8518543427732
 21
238.5295238724368
 31
0.0
  0
LINE
  5
1A1
330
1E
100
AcDbEntity
  8
0
100
AcDbLine
 10
111.2775681356644
 20
238.9017690506784
 30
0.0
 11
102.9030116872177
 21
235.4329141908727
 31
0.0
  0
LINE
  5
1A2
330
1E
100
AcDbEntity
  8
0
100
AcDbLine
 10
111.2775681356646
 20
236.5
 30
0.0
 11
104.349364905389
 21
232.5
 31
0.0
  0
LINE
  5
1A3
330
1E
100
AcDbEntity
  8
0
100
AcDbLine
 10
113.3575611475754
 20
235.2991154746608
 30
0.0
 11
106.1661664927191
 21
229.7809642747818
 31
0.0
  0
LINE
  5
1A4
330
1E
100
AcDbEntity
  8
0
100
AcDbLine
 10
115.2224318643354
 20
234.2224318643355
 30
0.0
 11
108.3223304703362
 21
227.3223304703363
 31
0.0
  0
LINE
  5
1A5
330
1E
100
AcDbEntity
  8
0
100
AcDbLine
 10
116.960214723593
 20
233.21912246275
 30
0.0
 11
110.7809642747818
 21
225.166166492719
 31
0.0
  0
LINE
  5
1A6
330
1E
100
AcDbEntity
  8
0
100
AcDbLine
 10
118.6360754431365
 20
232.2453085244085
 30
0.0
 11
113.4999999999999
 21
223.3493649053889
 31
0.0
  0
LINE
  5
1A7
330
1E
100
AcDbEntity
  8
0
100
AcDbLine
 10
120.3173534120715
 20
231.28087753725
 30
0.0
 11
116.4329141908726
 21
221.9030116872178
 31
0.0
  0
LINE
  5
1A8
330
1E
100
AcDbEntity
  8
0
100
AcDbLine
 10
122.055136271329
 20
230.2775681356646
 30
0.0
 11
119.5295238724369
 21
220.8518543427731
 31
0.0
  0
LINE
  5
1A9
330
1E
100
AcDbEntity
  8
0
100
AcDbLine
 10
123.9200069880891
 20
229.2008845253393
 30
0.0
 11
122.7368451944986
 21
220.2138784656546
 31
0.0
  0
LINE
  5
1AA
330
1E
100
AcDbEntity
  8
0
100
AcDbLine
 10
126.0
 20
230.2721508862731
 30
0.0
 11
125.9999999999999
 21
220.0
 31
0.0
  0
LINE
  5
1AB
330
1E
100
AcDbEntity
  8
0
100
AcDbLine
 10
128.0799930119107
 20
229.2008845253393
 30
0.0
 11
129.2631548055011
 21
220.2138784656546
 31
0.0
  0
LINE
  5
1AC
330
1E
100
AcDbEntity
  8
0
100
AcDbLine
 10
129.9448637286708
 20
230.2775681356646
 30
0.0
 11
132.4704761275629
 21
220.8518543427731
 31
0.0
  0
LINE
  5
1AD
330
1E
100
AcDbEntity
  8
0
100
AcDbLine
 10
131.6826465879283
 20
231.28087753725
 30
0.0
 11
135.5670858091272
 21
221.9030116872178
 31
0.0
  0
LINE
  5
1AE
330
1E
100
AcDbEntity
  8
0
100
AcDbLine
 10
133.3639245568633
 20
232.2453085244084
 30
0.0
 11
138.4999999999998
 21
223.3493649053889
 31
0.0
  0
LINE
  5
1AF
330
1E
100
AcDbEntity
  8
0
100
AcDbLine
 10
135.0397852764069
 20
233.21912246275
 30
0.0
 11
141.2190357252178
 21
225.166166492719
 31
0.0
  0
LINE
  5
1B0
330
1E
100
AcDbEntity
  8
0
100
AcDbLine
 10
136.7775681356643
 20
234.2224318643355
 30
0.0
 11
143.6776695296636
 21
227.3223304703361
 31
0.0
  0
LINE
  5
1B1
330
1E
100
AcDbEntity
  8
0
100
AcDbLine
 10
138.6424388524245
 20
235.2991154746608
 30
0.0
 11
145.8338335072808
 21
229.7809642747818
 31
0.0
  0
LINE
  5
1B2
330
1E
100
AcDbEntity
  8
0
100
AcDbLine
 10
140.7224318643353
 20
236.5
 30
0.0
 11
147.6506350946108
 21
232.5
 31
0.0
  0
LINE
  5
1B3
330
1E
100
AcDbEntity
  8
0
100
AcDbLine
 10
140.7224318643353
 20
238.9017690506783
 30
0.0
 11
149.096988312782
 21
235.4329141908727
 31
0.0
  0
LINE
  5
1B4
330
1E
100
AcDbEntity
  8
0
100
AcDbLine
 10
140.7224318643353
 20
241.055136271329
 30
0.0
 11
150.1481456572267
 21
238.5295238724368
 31
0.0
  0
LINE
  5
1B5
330
1E
100
AcDbEntity
  8
0
100
AcDbLine
 10
140.7224318643353
 20
243.0617550744999
 30
0.0
 11
150.7861215343452
 21
241.7368451944986
 31
0.0
  0
LINE
  5
1B6
330
1E
100
AcDbEntity
  8
0
100
AcDbLine
 10
140.7278491137267
 20
245.0
 30
0.0
 11
150.9999999999998
 21
244.9999999999998
 31
0.0
  0
LINE
  5
1B7
330
1E
100
AcDbEntity
  8
0
100
AcDbLine
 10
140.7224318643353
 20
246.9382449254998
 30
0.0
 11
150.7861215343452
 21
248.2631548055012
 31
0.0
  0
LINE
  5
1B8
330
1E
100
AcDbEntity
  8
0
100
AcDbLine
 10
140.7224318643353
 20
248.9448637286706
 30
0.0
 11
150.1481456572266
 21
251.4704761275629
 31
0.0
  0
LINE
  5
1B9
330
1E
100
AcDbEntity
  8
0
100
AcDbLine
 10
140.7224318643353
 20
251.0982309493214
 30
0.0
 11
149.096988312782
 21
254.567085809127
 31
0.0
  0
LINE
  5
1BA
330
1E
100
AcDbEntity
  8
0
100
AcDbLine
 10
140.7224318643354
 20
253.4999999999998
 30
0.0
 11
147.650635094611
 21
257.4999999999998
 31
0.0
  0
LINE
  5
1BB
330
1E
100
AcDbEntity
  8
0
100
AcDbLine
 10
138.6424388524246
 20
254.700884525339
 30
0.0
 11
145.8338335072808
 21
260.2190357252179
 31
0.0
  0
LINE
  5
1BC
330
1E
100
AcDbEntity
  8
0
100
AcDbLine
 10
136.7775681356644
 20
255.7775681356645
 30
0.0
 11
143.6776695296637
 21
262.6776695296636
 31
0.0
  0
LINE
  5
1BD
330
1E
100
AcDbEntity
  8
0
100
AcDbLine
 10
135.039785276407
 20
256.7808775372499
 30
0.0
 11
141.2190357252179
 21
264.8338335072808
 31
0.0
  0
LINE
  5
1BE
330
1E
100
AcDbEntity
  8
0
100
AcDbLine
 10
133.3639245568633
 20
257.7546914755914
 30
0.0
 11
138.5000000000001
 21
266.6506350946109
 31
0.0
  0
LINE
  5
1BF
330
1E
100
AcDbEntity
  8
0
100
AcDbLine
 10
131.6826465879283
 20
258.71912246275
 30
0.0
 11
135.5670858091272
 21
268.0969883127821
 31
0.0
  0
LINE
  5
1C0
330
1E
100
AcDbEntity
  8
0
100
AcDbLine
 10
129.9448637286709
 20
259.7224318643353
 30
0.0
 11
132.4704761275631
 21
269.1481456572266
 31
0.0
  0
LINE
  5
1C1
330
1E
100
AcDbEntity
  8
0
100
AcDbLine
 10
128.0799930119107
 20
260.7991154746607
 30
0.0
 11
129.2631548055013
 21
269.7861215343452
 31
0.0
  0
LINE
  5
1C2
330
1E
100
AcDbEntity
  8
1
100
AcDbLine
 10
126.0
 20
245.0
 30
0.0
 11
126.0
 21
276.4442604698678
 31
0.0
  0
TEXT
  5
561
330
1E
100
AcDbEntity
  8
0
100
AcDbText
 10
475.1129671737547
 20
208.6340751691903
 30
0.0
 40
6.0
  1
MIYOSHI
 41
0.8
  7
EXTFONT
100
AcDbText
  0
TEXT
  5
562
330
1E
100
AcDbEntity
  8
0
100
AcDbText
 10
111.2058541391921
 20
209.0655842941919
 30
0.0
 40
6.0
  1
MIYOSHI
 41
0.8
  7
EXTFONT
100
AcDbText
  0
POLYLINE
  5
830
330
1E
100
AcDbEntity
  8
4
100
AcDb2dPolyline
 66
     1
 10
0.0
 20
0.0
 30
0.0
 70
     1
  0
VERTEX
  5
831
330
830
100
AcDbEntity
  8
4
100
AcDbVertex
100
AcDb2dVertex
 10
126.0
 20
262.0
 30
0.0
  0
VERTEX
  5
832
330
830
100
AcDbEntity
  8
4
100
AcDbVertex
100
AcDb2dVertex
 10
111.2775681356644
 20
253.5
 30
0.0
  0
VERTEX
  5
833
330
830
100
AcDbEntity
  8
4
100
AcDbVertex
100
AcDb2dVertex
 10
111.2775681356644
 20
236.5000000000001
 30
0.0
  0
VERTEX
  5
834
330
830
100
AcDbEntity
  8
4
100
AcDbVertex
100
AcDb2dVertex
 10
126.0
 20
228.0000000000001
 30
0.0
  0
VERTEX
  5
835
330
830
100
AcDbEntity
  8
4
100
AcDbVertex
100
AcDb2dVertex
 10
140.7224318643353
 20
236.5000000000001
 30
0.0
  0
VERTEX
  5
836
330
830
100
AcDbEntity
  8
4
100
AcDbVertex
100
AcDb2dVertex
 10
140.7224318643353
 20
253.5
 30
0.0
  0
SEQEND
  5
837
330
830
100
AcDbEntity
  8
4
  0
CIRCLE
  5
838
330
1E
100
AcDbEntity
  8
4
100
AcDbCircle
 10
126.0
 20
245.0
 30
0.0
 40
14.5
  0
LINE
  5
839
330
1E
100
AcDbEntity
  8
4
100
AcDbLine
 10
249.0000000000001
 20
366.4999999999999
 30
0.0
 11
237.0
 21
366.4999999999999
 31
0.0
  0
LINE
  5
83A
330
1E
100
AcDbEntity
  8
4
100
AcDbLine
 10
249.0000000000001
 20
346.4999999999998
 30
0.0
 11
237.0
 21
346.4999999999998
 31
0.0
  0
LINE
  5
83B
330
1E
100
AcDbEntity
  8
4
100
AcDbLine
 10
237.0
 20
364.4999999999999
 30
0.0
 11
249.0000000000001
 21
364.4999999999999
 31
0.0
  0
LINE
  5
83C
330
1E
100
AcDbEntity
  8
4
100
AcDbLine
 10
237.0
 20
348.4999999999998
 30
0.0
 11
249.0000000000001
 21
348.4999999999998
 31
0.0
  0
LINE
  5
83D
330
1E
100
AcDbEntity
  8
1
100
AcDbLine
 10
356.0000000000001
 20
356.4999999999998
 30
0.0
 11
202.0
 21
356.4999999999998
 31
0.0
  0
ARC
  5
83E
330
1E
100
AcDbEntity
  8
4
100
AcDbCircle
 10
230.9375000000001
 20
343.9999999999998
 30
0.0
 40
6.0625
100
AcDbArc
 50
312.0750220508427
 51
47.9249779491573
  0
ARC
  5
83F
330
1E
100
AcDbEntity
  8
4
100
AcDbCircle
 10
231.0625000000001
 20
343.9999999999998
 30
0.0
 40
6.0625
100
AcDbArc
 50
132.0750220508426
 51
227.9249779491573
  0
LINE
  5
840
330
1E
100
AcDbEntity
  8
4
100
AcDbLine
 10
224.9999999999999
 20
341.4999999999999
 30
0.0
 11
224.9999999999999
 21
371.4999999999998
 31
0.0
  0
LINE
  5
841
330
1E
100
AcDbEntity
  8
4
100
AcDbLine
 10
237.0
 20
371.4999999999998
 30
0.0
 11
237.0
 21
341.4999999999999
 31
0.0
  0
LINE
  5
842
330
1E
100
AcDbEntity
  8
4
100
AcDbLine
 10
235.0
 20
339.4999999999999
 30
0.0
 11
226.9999999999999
 21
339.4999999999999
 31
0.0
  0
LINE
  5
843
330
1E
100
AcDbEntity
  8
4
100
AcDbLine
 10
226.9999999999999
 20
339.4999999999999
 30
0.0
 11
224.9999999999999
 21
341.4999999999999
 31
0.0
  0
LINE
  5
844
330
1E
100
AcDbEntity
  8
4
100
AcDbLine
 10
237.0
 20
341.4999999999999
 30
0.0
 11
235.0
 21
339.4999999999999
 31
0.0
  0
LINE
  5
845
330
1E
100
AcDbEntity
  8
4
100
AcDbLine
 10
211.0000000000001
 20
364.4999999999999
 30
0.0
 11
224.9999999999999
 21
364.4999999999999
 31
0.0
  0
LINE
  5
846
330
1E
100
AcDbEntity
  8
4
100
AcDbLine
 10
211.0000000000001
 20
348.4999999999998
 30
0.0
 11
224.9999999999999
 21
348.4999999999998
 31
0.0
  0
LINE
  5
847
330
1E
100
AcDbEntity
  8
4
100
AcDbLine
 10
224.9999999999999
 20
366.4999999999999
 30
0.0
 11
213.0000000000001
 21
366.4999999999999
 31
0.0
  0
LINE
  5
848
330
1E
100
AcDbEntity
  8
4
100
AcDbLine
 10
224.9999999999999
 20
346.4999999999998
 30
0.0
 11
213.0000000000001
 21
346.4999999999998
 31
0.0
  0
LINE
  5
849
330
1E
100
AcDbEntity
  8
4
100
AcDbLine
 10
211.0000000000001
 20
364.4999999999999
 30
0.0
 11
211.0000000000001
 21
348.4999999999998
 31
0.0
  0
LINE
  5
84A
330
1E
100
AcDbEntity
  8
4
100
AcDbLine
 10
213.0000000000001
 20
346.4999999999998
 30
0.0
 11
213.0000000000001
 21
366.4999999999999
 31
0.0
  0
LINE
  5
84B
330
1E
100
AcDbEntity
  8
4
100
AcDbLine
 10
211.0000000000001
 20
348.4999999999998
 30
0.0
 11
213.0000000000001
 21
346.4999999999998
 31
0.0
  0
LINE
  5
84C
330
1E
100
AcDbEntity
  8
4
100
AcDbLine
 10
213.0000000000001
 20
366.4999999999999
 30
0.0
 11
211.0000000000001
 21
364.4999999999999
 31
0.0
  0
ARC
  5
84D
330
1E
100
AcDbEntity
  8
4
100
AcDbCircle
 10
220.0000000000001
 20
356.4999999999998
 30
0.0
 40
17.0
100
AcDbArc
 50
331.9275130641455
 51
28.07248693585449
  0
ARC
  5
84E
330
1E
100
AcDbEntity
  8
4
100
AcDbCircle
 10
242.0000000000001
 20
356.4999999999998
 30
0.0
 40
17.0
100
AcDbArc
 50
151.9275130641455
 51
208.0724869358516
  0
LINE
  5
84F
330
1E
100
AcDbEntity
  8
4
100
AcDbLine
 10
226.9999999999999
 20
348.4999999999998
 30
0.0
 11
235.0
 21
348.4999999999998
 31
0.0
  0
LINE
  5
850
330
1E
100
AcDbEntity
  8
4
100
AcDbLine
 10
226.9999999999999
 20
373.4999999999998
 30
0.0
 11
235.0
 21
373.4999999999998
 31
0.0
  0
LINE
  5
851
330
1E
100
AcDbEntity
  8
4
100
AcDbLine
 10
226.9999999999999
 20
364.4999999999999
 30
0.0
 11
235.0
 21
364.4999999999999
 31
0.0
  0
ARC
  5
852
330
1E
100
AcDbEntity
  8
4
100
AcDbCircle
 10
231.0625000000001
 20
368.9999999999998
 30
0.0
 40
6.0625
100
AcDbArc
 50
132.0750220508426
 51
227.9249779491573
  0
LINE
  5
853
330
1E
100
AcDbEntity
  8
4
100
AcDbLine
 10
224.9999999999999
 20
371.4999999999998
 30
0.0
 11
226.9999999999999
 21
373.4999999999998
 31
0.0
  0
ARC
  5
854
330
1E
100
AcDbEntity
  8
4
100
AcDbCircle
 10
230.9375000000001
 20
368.9999999999998
 30
0.0
 40
6.0625
100
AcDbArc
 50
312.0750220508427
 51
47.9249779491573
  0
LINE
  5
855
330
1E
100
AcDbEntity
  8
4
100
AcDbLine
 10
235.0
 20
373.4999999999998
 30
0.0
 11
237.0
 21
371.4999999999998
 31
0.0
  0
LINE
  5
856
330
1E
100
AcDbEntity
  8
4
100
AcDbLine
 10
260.9999999999999
 20
371.4999999999998
 30
0.0
 11
260.9999999999999
 21
341.4999999999999
 31
0.0
  0
ARC
  5
857
330
1E
100
AcDbEntity
  8
4
100
AcDbCircle
 10
255.0625000000001
 20
343.9999999999998
 30
0.0
 40
6.0625
100
AcDbArc
 50
132.0750220508426
 51
227.9249779491573
  0
LINE
  5
858
330
1E
100
AcDbEntity
  8
4
100
AcDbLine
 10
249.0000000000001
 20
341.4999999999999
 30
0.0
 11
249.0000000000001
 21
371.4999999999998
 31
0.0
  0
ARC
  5
859
330
1E
100
AcDbEntity
  8
4
100
AcDbCircle
 10
254.9375000000001
 20
343.9999999999998
 30
0.0
 40
6.0625
100
AcDbArc
 50
312.0750220508427
 51
47.9249779491573
  0
LINE
  5
85A
330
1E
100
AcDbEntity
  8
4
100
AcDbLine
 10
259.0000000000001
 20
339.4999999999999
 30
0.0
 11
251.0000000000001
 21
339.4999999999999
 31
0.0
  0
LINE
  5
85B
330
1E
100
AcDbEntity
  8
4
100
AcDbLine
 10
251.0000000000001
 20
339.4999999999999
 30
0.0
 11
249.0000000000001
 21
341.4999999999999
 31
0.0
  0
LINE
  5
85C
330
1E
100
AcDbEntity
  8
4
100
AcDbLine
 10
260.9999999999999
 20
341.4999999999999
 30
0.0
 11
259.0000000000001
 21
339.4999999999999
 31
0.0
  0
LINE
  5
85D
330
1E
100
AcDbEntity
  8
4
100
AcDbLine
 10
320.9999999999999
 20
364.4999999999999
 30
0.0
 11
260.9999999999999
 21
364.4999999999999
 31
0.0
  0
LINE
  5
85E
330
1E
100
AcDbEntity
  8
4
100
AcDbLine
 10
320.9999999999999
 20
348.4999999999998
 30
0.0
 11
260.9999999999999
 21
348.4999999999998
 31
0.0
  0
LINE
  5
85F
330
1E
100
AcDbEntity
  8
4
100
AcDbLine
 10
320.9999999999999
 20
346.4999999999998
 30
0.0
 11
260.4999999999999
 21
346.4999999999998
 31
0.0
  0
LINE
  5
860
330
1E
100
AcDbEntity
  8
4
100
AcDbLine
 10
320.9999999999999
 20
366.4999999999999
 30
0.0
 11
260.9999999999999
 21
366.4999999999999
 31
0.0
  0
ARC
  5
861
330
1E
100
AcDbEntity
  8
4
100
AcDbCircle
 10
266.0000000000001
 20
356.4999999999998
 30
0.0
 40
17.0
100
AcDbArc
 50
151.9275130641455
 51
208.0724869358516
  0
ARC
  5
862
330
1E
100
AcDbEntity
  8
4
100
AcDbCircle
 10
243.9999999999999
 20
356.4999999999998
 30
0.0
 40
17.0
100
AcDbArc
 50
331.9275130641455
 51
28.07248693585449
  0
LINE
  5
863
330
1E
100
AcDbEntity
  8
4
100
AcDbLine
 10
251.0000000000001
 20
348.4999999999998
 30
0.0
 11
259.0000000000001
 21
348.4999999999998
 31
0.0
  0
LINE
  5
864
330
1E
100
AcDbEntity
  8
4
100
AcDbLine
 10
262.0
 20
348.4999999999998
 30
0.0
 11
260.9999999999999
 21
348.4999999999998
 31
0.0
  0
LINE
  5
865
330
1E
100
AcDbEntity
  8
4
100
AcDbLine
 10
262.5000000000001
 20
346.4999999999998
 30
0.0
 11
260.9999999999999
 21
346.4999999999998
 31
0.0
  0
LINE
  5
866
330
1E
100
AcDbEntity
  8
4
100
AcDbLine
 10
251.0000000000001
 20
373.4999999999998
 30
0.0
 11
259.0000000000001
 21
373.4999999999998
 31
0.0
  0
LINE
  5
867
330
1E
100
AcDbEntity
  8
4
100
AcDbLine
 10
251.0000000000001
 20
364.4999999999999
 30
0.0
 11
259.0000000000001
 21
364.4999999999999
 31
0.0
  0
ARC
  5
868
330
1E
100
AcDbEntity
  8
4
100
AcDbCircle
 10
255.0625000000001
 20
368.9999999999998
 30
0.0
 40
6.0625
100
AcDbArc
 50
132.0750220508426
 51
227.9249779491573
  0
LINE
  5
869
330
1E
100
AcDbEntity
  8
4
100
AcDbLine
 10
249.0000000000001
 20
371.4999999999998
 30
0.0
 11
251.0000000000001
 21
373.4999999999998
 31
0.0
  0
ARC
  5
86A
330
1E
100
AcDbEntity
  8
4
100
AcDbCircle
 10
254.9375000000001
 20
368.9999999999998
 30
0.0
 40
6.0625
100
AcDbArc
 50
312.0750220508427
 51
47.9249779491573
  0
LINE
  5
86B
330
1E
100
AcDbEntity
  8
4
100
AcDbLine
 10
262.0
 20
364.4999999999999
 30
0.0
 11
260.9999999999999
 21
364.4999999999999
 31
0.0
  0
LINE
  5
86C
330
1E
100
AcDbEntity
  8
4
100
AcDbLine
 10
259.0000000000001
 20
373.4999999999998
 30
0.0
 11
260.9999999999999
 21
371.4999999999998
 31
0.0
  0
LINE
  5
86D
330
1E
100
AcDbEntity
  8
5
100
AcDbLine
 10
335.5000000000001
 20
371.4999999999998
 30
0.0
 11
347.5000000000001
 21
371.4999999999998
 31
0.0
  0
LINE
  5
86E
330
1E
100
AcDbEntity
  8
4
100
AcDbLine
 10
349.4999999999998
 20
370.4999999999999
 30
0.0
 11
349.4999999999998
 21
342.4999999999999
 31
0.0
  0
LINE
  5
86F
330
1E
100
AcDbEntity
  8
4
100
AcDbLine
 10
347.5000000000001
 20
371.4999999999998
 30
0.0
 11
348.5000000000001
 21
371.4999999999998
 31
0.0
  0
LINE
  5
870
330
1E
100
AcDbEntity
  8
4
100
AcDbLine
 10
348.5000000000001
 20
371.4999999999998
 30
0.0
 11
349.4999999999998
 21
370.4999999999999
 31
0.0
  0
LINE
  5
871
330
1E
100
AcDbEntity
  8
4
100
AcDbLine
 10
349.4999999999998
 20
342.4999999999999
 30
0.0
 11
348.5000000000001
 21
341.4999999999999
 31
0.0
  0
LINE
  5
872
330
1E
100
AcDbEntity
  8
4
100
AcDbLine
 10
348.5000000000001
 20
341.4999999999999
 30
0.0
 11
347.5000000000001
 21
341.4999999999999
 31
0.0
  0
LINE
  5
873
330
1E
100
AcDbEntity
  8
5
100
AcDbLine
 10
335.5000000000001
 20
341.4999999999999
 30
0.0
 11
347.5000000000001
 21
341.4999999999999
 31
0.0
  0
LINE
  5
874
330
1E
100
AcDbEntity
  8
4
100
AcDbLine
 10
259.0000000000001
 20
262.0
 30
0.0
 11
260.9999999999999
 21
260.0
 31
0.0
  0
ARC
  5
875
330
1E
100
AcDbEntity
  8
4
100
AcDbCircle
 10
254.9375000000001
 20
257.5
 30
0.0
 40
6.0625
100
AcDbArc
 50
312.0750220508427
 51
47.9249779491573
  0
ARC
  5
876
330
1E
100
AcDbEntity
  8
4
100
AcDbCircle
 10
243.9999999999999
 20
245.0
 30
0.0
 40
17.0
100
AcDbArc
 50
331.9275130641455
 51
28.07248693585449
  0
LINE
  5
877
330
1E
100
AcDbEntity
  8
4
100
AcDbLine
 10
260.9999999999999
 20
230.0000000000001
 30
0.0
 11
259.0000000000001
 21
228.0000000000001
 31
0.0
  0
ARC
  5
878
330
1E
100
AcDbEntity
  8
4
100
AcDbCircle
 10
254.9375000000001
 20
232.5
 30
0.0
 40
6.0625
100
AcDbArc
 50
312.0750220508427
 51
47.9249779491573
  0
LINE
  5
879
330
1E
100
AcDbEntity
  8
1
100
AcDbLine
 10
356.0000000000001
 20
245.0
 30
0.0
 11
202.0
 21
245.0
 31
0.0
  0
ARC
  5
87A
330
1E
100
AcDbEntity
  8
4
100
AcDbCircle
 10
255.0625000000001
 20
257.5
 30
0.0
 40
6.0625
100
AcDbArc
 50
132.0750220508426
 51
227.9249779491573
  0
LINE
  5
87B
330
1E
100
AcDbEntity
  8
4
100
AcDbLine
 10
249.0000000000001
 20
230.0000000000001
 30
0.0
 11
249.0000000000001
 21
260.0
 31
0.0
  0
ARC
  5
87C
330
1E
100
AcDbEntity
  8
4
100
AcDbCircle
 10
230.9375000000001
 20
257.5
 30
0.0
 40
6.0625
100
AcDbArc
 50
312.0750220508427
 51
47.9249779491573
  0
ARC
  5
87D
330
1E
100
AcDbEntity
  8
4
100
AcDbCircle
 10
231.0625000000001
 20
257.5
 30
0.0
 40
6.0625
100
AcDbArc
 50
132.0750220508426
 51
227.9249779491573
  0
LINE
  5
87E
330
1E
100
AcDbEntity
  8
4
100
AcDbLine
 10
213.0000000000001
 20
255.0000000000001
 30
0.0
 11
211.0000000000001
 21
253.0000000000001
 31
0.0
  0
LINE
  5
87F
330
1E
100
AcDbEntity
  8
4
100
AcDbLine
 10
213.0000000000001
 20
235.0
 30
0.0
 11
213.0000000000001
 21
255.0000000000001
 31
0.0
  0
LINE
  5
880
330
1E
100
AcDbEntity
  8
4
100
AcDbLine
 10
237.0
 20
260.0
 30
0.0
 11
237.0
 21
230.0000000000001
 31
0.0
  0
LINE
  5
881
330
1E
100
AcDbEntity
  8
4
100
AcDbLine
 10
224.9999999999999
 20
230.0000000000001
 30
0.0
 11
224.9999999999999
 21
260.0
 31
0.0
  0
LINE
  5
882
330
1E
100
AcDbEntity
  8
4
100
AcDbLine
 10
224.9999999999999
 20
235.0
 30
0.0
 11
213.0000000000001
 21
235.0
 31
0.0
  0
LINE
  5
883
330
1E
100
AcDbEntity
  8
4
100
AcDbLine
 10
211.0000000000001
 20
237.0
 30
0.0
 11
224.9999999999999
 21
237.0
 31
0.0
  0
LINE
  5
884
330
1E
100
AcDbEntity
  8
4
100
AcDbLine
 10
211.0000000000001
 20
253.0000000000001
 30
0.0
 11
224.9999999999999
 21
253.0000000000001
 31
0.0
  0
LINE
  5
885
330
1E
100
AcDbEntity
  8
4
100
AcDbLine
 10
211.0000000000001
 20
237.0
 30
0.0
 11
213.0000000000001
 21
235.0
 31
0.0
  0
LINE
  5
886
330
1E
100
AcDbEntity
  8
4
100
AcDbLine
 10
211.0000000000001
 20
253.0000000000001
 30
0.0
 11
211.0000000000001
 21
237.0
 31
0.0
  0
ARC
  5
887
330
1E
100
AcDbEntity
  8
4
100
AcDbCircle
 10
220.0000000000001
 20
245.0
 30
0.0
 40
17.0
100
AcDbArc
 50
331.9275130641455
 51
28.07248693585449
  0
LINE
  5
888
330
1E
100
AcDbEntity
  8
4
100
AcDbLine
 10
237.0
 20
230.0000000000001
 30
0.0
 11
235.0
 21
228.0000000000001
 31
0.0
  0
ARC
  5
889
330
1E
100
AcDbEntity
  8
4
100
AcDbCircle
 10
230.9375000000001
 20
232.5
 30
0.0
 40
6.0625
100
AcDbArc
 50
312.0750220508427
 51
47.9249779491573
  0
ARC
  5
88A
330
1E
100
AcDbEntity
  8
4
100
AcDbCircle
 10
231.0625000000001
 20
232.5
 30
0.0
 40
6.0625
100
AcDbArc
 50
132.0750220508426
 51
227.9249779491573
  0
LINE
  5
88B
330
1E
100
AcDbEntity
  8
4
100
AcDbLine
 10
235.0
 20
228.0000000000001
 30
0.0
 11
226.9999999999999
 21
228.0000000000001
 31
0.0
  0
LINE
  5
88C
330
1E
100
AcDbEntity
  8
4
100
AcDbLine
 10
226.9999999999999
 20
228.0000000000001
 30
0.0
 11
224.9999999999999
 21
230.0000000000001
 31
0.0
  0
ARC
  5
88D
330
1E
100
AcDbEntity
  8
4
100
AcDbCircle
 10
242.0000000000001
 20
245.0
 30
0.0
 40
17.0
100
AcDbArc
 50
151.9275130641455
 51
208.0724869358516
  0
LINE
  5
88E
330
1E
100
AcDbEntity
  8
4
100
AcDbLine
 10
226.9999999999999
 20
237.0
 30
0.0
 11
235.0
 21
237.0
 31
0.0
  0
LINE
  5
88F
330
1E
100
AcDbEntity
  8
4
100
AcDbLine
 10
226.9999999999999
 20
253.0000000000001
 30
0.0
 11
235.0
 21
253.0000000000001
 31
0.0
  0
ARC
  5
890
330
1E
100
AcDbEntity
  8
4
100
AcDbCircle
 10
255.0625000000001
 20
232.5
 30
0.0
 40
6.0625
100
AcDbArc
 50
132.0750220508426
 51
227.9249779491573
  0
LINE
  5
891
330
1E
100
AcDbEntity
  8
4
100
AcDbLine
 10
249.0000000000001
 20
235.0
 30
0.0
 11
237.0
 21
235.0
 31
0.0
  0
LINE
  5
892
330
1E
100
AcDbEntity
  8
4
100
AcDbLine
 10
259.0000000000001
 20
228.0000000000001
 30
0.0
 11
251.0000000000001
 21
228.0000000000001
 31
0.0
  0
LINE
  5
893
330
1E
100
AcDbEntity
  8
4
100
AcDbLine
 10
251.0000000000001
 20
228.0000000000001
 30
0.0
 11
249.0000000000001
 21
230.0000000000001
 31
0.0
  0
LINE
  5
894
330
1E
100
AcDbEntity
  8
4
100
AcDbLine
 10
237.0
 20
237.0
 30
0.0
 11
249.0000000000001
 21
237.0
 31
0.0
  0
LINE
  5
895
330
1E
100
AcDbEntity
  8
4
100
AcDbLine
 10
237.0
 20
253.0000000000001
 30
0.0
 11
249.0000000000001
 21
253.0000000000001
 31
0.0
  0
ARC
  5
896
330
1E
100
AcDbEntity
  8
4
100
AcDbCircle
 10
266.0000000000001
 20
245.0
 30
0.0
 40
17.0
100
AcDbArc
 50
151.9275130641455
 51
208.0724869358516
  0
LINE
  5
897
330
1E
100
AcDbEntity
  8
4
100
AcDbLine
 10
251.0000000000001
 20
237.0
 30
0.0
 11
259.0000000000001
 21
237.0
 31
0.0
  0
LINE
  5
898
330
1E
100
AcDbEntity
  8
4
100
AcDbLine
 10
251.0000000000001
 20
253.0000000000001
 30
0.0
 11
259.0000000000001
 21
253.0000000000001
 31
0.0
  0
LINE
  5
899
330
1E
100
AcDbEntity
  8
4
100
AcDbLine
 10
224.9999999999999
 20
255.0000000000001
 30
0.0
 11
213.0000000000001
 21
255.0000000000001
 31
0.0
  0
LINE
  5
89A
330
1E
100
AcDbEntity
  8
4
100
AcDbLine
 10
235.0
 20
262.0
 30
0.0
 11
237.0
 21
260.0
 31
0.0
  0
LINE
  5
89B
330
1E
100
AcDbEntity
  8
4
100
AcDbLine
 10
226.9999999999999
 20
262.0
 30
0.0
 11
235.0
 21
262.0
 31
0.0
  0
LINE
  5
89C
330
1E
100
AcDbEntity
  8
4
100
AcDbLine
 10
224.9999999999999
 20
260.0
 30
0.0
 11
226.9999999999999
 21
262.0
 31
0.0
  0
LINE
  5
89D
330
1E
100
AcDbEntity
  8
4
100
AcDbLine
 10
249.0000000000001
 20
255.0000000000001
 30
0.0
 11
237.0
 21
255.0000000000001
 31
0.0
  0
LINE
  5
89E
330
1E
100
AcDbEntity
  8
4
100
AcDbLine
 10
251.0000000000001
 20
262.0
 30
0.0
 11
259.0000000000001
 21
262.0
 31
0.0
  0
LINE
  5
89F
330
1E
100
AcDbEntity
  8
4
100
AcDbLine
 10
249.0000000000001
 20
260.0
 30
0.0
 11
251.0000000000001
 21
262.0
 31
0.0
  0
LINE
  5
8A0
330
1E
100
AcDbEntity
  8
4
100
AcDbLine
 10
260.9999999999999
 20
260.0
 30
0.0
 11
260.9999999999999
 21
230.0000000000001
 31
0.0
  0
LINE
  5
8A2
330
1E
100
AcDbEntity
  8
4
100
AcDbLine
 10
320.9999999999999
 20
235.0
 30
0.0
 11
260.4999999999999
 21
235.0
 31
0.0
  0
LINE
  5
8A3
330
1E
100
AcDbEntity
  8
4
100
AcDbLine
 10
262.5000000000001
 20
235.0
 30
0.0
 11
260.9999999999999
 21
235.0
 31
0.0
  0
LINE
  5
8A4
330
1E
100
AcDbEntity
  8
4
100
AcDbLine
 10
320.9999999999999
 20
237.0
 30
0.0
 11
260.9999999999999
 21
237.0
 31
0.0
  0
LINE
  5
8A5
330
1E
100
AcDbEntity
  8
4
100
AcDbLine
 10
320.9999999999999
 20
253.0000000000001
 30
0.0
 11
260.9999999999999
 21
253.0000000000001
 31
0.0
  0
LINE
  5
8A6
330
1E
100
AcDbEntity
  8
4
100
AcDbLine
 10
262.0
 20
237.0
 30
0.0
 11
260.9999999999999
 21
237.0
 31
0.0
  0
LINE
  5
8A7
330
1E
100
AcDbEntity
  8
4
100
AcDbLine
 10
262.0
 20
253.0000000000001
 30
0.0
 11
260.9999999999999
 21
253.0000000000001
 31
0.0
  0
LINE
  5
8A8
330
1E
100
AcDbEntity
  8
4
100
AcDbLine
 10
320.9999999999999
 20
255.0000000000001
 30
0.0
 11
260.9999999999999
 21
255.0000000000001
 31
0.0
  0
LINE
  5
8A9
330
1E
100
AcDbEntity
  8
4
100
AcDbLine
 10
349.4999999999998
 20
259.0000000000001
 30
0.0
 11
349.4999999999998
 21
231.0000000000001
 31
0.0
  0
LINE
  5
8AA
330
1E
100
AcDbEntity
  8
4
100
AcDbLine
 10
348.5000000000001
 20
260.0
 30
0.0
 11
349.4999999999998
 21
259.0000000000001
 31
0.0
  0
LINE
  5
8AB
330
1E
100
AcDbEntity
  8
5
100
AcDbLine
 10
335.5000000000001
 20
260.0
 30
0.0
 11
347.5000000000001
 21
260.0
 31
0.0
  0
LINE
  5
8AC
330
1E
100
AcDbEntity
  8
4
100
AcDbLine
 10
347.5000000000001
 20
260.0
 30
0.0
 11
348.5000000000001
 21
260.0
 31
0.0
  0
LINE
  5
8AD
330
1E
100
AcDbEntity
  8
4
100
AcDbLine
 10
349.4999999999998
 20
231.0000000000001
 30
0.0
 11
348.5000000000001
 21
230.0000000000001
 31
0.0
  0
LINE
  5
8AE
330
1E
100
AcDbEntity
  8
4
100
AcDbLine
 10
348.5000000000001
 20
230.0000000000001
 30
0.0
 11
347.5000000000001
 21
230.0000000000001
 31
0.0
  0
LINE
  5
8AF
330
1E
100
AcDbEntity
  8
5
100
AcDbLine
 10
335.5000000000001
 20
230.0000000000001
 30
0.0
 11
347.5000000000001
 21
230.0000000000001
 31
0.0
  0
LINE
  5
8B0
330
1E
100
AcDbEntity
  8
1
100
AcDbLine
 10
356.0000000000001
 20
99.0
 30
0.0
 11
202.0
 21
99.0
 31
0.0
  0
ARC
  5
8B1
330
1E
100
AcDbEntity
  8
4
100
AcDbCircle
 10
254.9375000000001
 20
86.5
 30
0.0
 40
6.0625
100
AcDbArc
 50
312.0750220508427
 51
47.9249779491573
  0
LINE
  5
8B2
330
1E
100
AcDbEntity
  8
4
100
AcDbLine
 10
260.9999999999999
 20
84.00000000000011
 30
0.0
 11
259.0000000000001
 21
82.00000000000011
 31
0.0
  0
ARC
  5
8B3
330
1E
100
AcDbEntity
  8
4
100
AcDbCircle
 10
243.9999999999999
 20
99.0
 30
0.0
 40
17.0
100
AcDbArc
 50
331.9275130641455
 51
28.07248693585449
  0
ARC
  5
8B4
330
1E
100
AcDbEntity
  8
4
100
AcDbCircle
 10
254.9375000000001
 20
111.4999999999999
 30
0.0
 40
6.0625
100
AcDbArc
 50
312.0750220508427
 51
47.9249779491573
  0
LINE
  5
8B5
330
1E
100
AcDbEntity
  8
4
100
AcDbLine
 10
259.0000000000001
 20
116.0
 30
0.0
 11
260.9999999999999
 21
114.0
 31
0.0
  0
LINE
  5
8B6
330
1E
100
AcDbEntity
  8
4
100
AcDbLine
 10
224.9999999999999
 20
109.0000000000001
 30
0.0
 11
213.0000000000001
 21
109.0000000000001
 31
0.0
  0
LINE
  5
8B7
330
1E
100
AcDbEntity
  8
4
100
AcDbLine
 10
211.0000000000001
 20
107.0000000000001
 30
0.0
 11
224.9999999999999
 21
107.0000000000001
 31
0.0
  0
LINE
  5
8B8
330
1E
100
AcDbEntity
  8
4
100
AcDbLine
 10
211.0000000000001
 20
91.0
 30
0.0
 11
224.9999999999999
 21
91.0
 31
0.0
  0
LINE
  5
8B9
330
1E
100
AcDbEntity
  8
4
100
AcDbLine
 10
224.9999999999999
 20
89.0
 30
0.0
 11
213.0000000000001
 21
89.0
 31
0.0
  0
LINE
  5
8BA
330
1E
100
AcDbEntity
  8
4
100
AcDbLine
 10
211.0000000000001
 20
107.0000000000001
 30
0.0
 11
211.0000000000001
 21
91.0
 31
0.0
  0
LINE
  5
8BB
330
1E
100
AcDbEntity
  8
4
100
AcDbLine
 10
213.0000000000001
 20
89.0
 30
0.0
 11
213.0000000000001
 21
109.0000000000001
 31
0.0
  0
LINE
  5
8BC
330
1E
100
AcDbEntity
  8
4
100
AcDbLine
 10
211.0000000000001
 20
91.0
 30
0.0
 11
213.0000000000001
 21
89.0
 31
0.0
  0
LINE
  5
8BD
330
1E
100
AcDbEntity
  8
4
100
AcDbLine
 10
213.0000000000001
 20
109.0000000000001
 30
0.0
 11
211.0000000000001
 21
107.0000000000001
 31
0.0
  0
LINE
  5
8BE
330
1E
100
AcDbEntity
  8
4
100
AcDbLine
 10
249.0000000000001
 20
114.0
 30
0.0
 11
251.0000000000001
 21
116.0
 31
0.0
  0
LINE
  5
8BF
330
1E
100
AcDbEntity
  8
4
100
AcDbLine
 10
224.9999999999999
 20
114.0
 30
0.0
 11
226.9999999999999
 21
116.0
 31
0.0
  0
LINE
  5
8C0
330
1E
100
AcDbEntity
  8
4
100
AcDbLine
 10
235.0
 20
116.0
 30
0.0
 11
237.0
 21
114.0
 31
0.0
  0
ARC
  5
8C1
330
1E
100
AcDbEntity
  8
4
100
AcDbCircle
 10
231.0625000000001
 20
111.4999999999999
 30
0.0
 40
6.0625
100
AcDbArc
 50
132.0750220508426
 51
227.9249779491573
  0
ARC
  5
8C2
330
1E
100
AcDbEntity
  8
4
100
AcDbCircle
 10
230.9375000000001
 20
111.4999999999999
 30
0.0
 40
6.0625
100
AcDbArc
 50
312.0750220508427
 51
47.9249779491573
  0
ARC
  5
8C3
330
1E
100
AcDbEntity
  8
4
100
AcDbCircle
 10
255.0625000000001
 20
111.4999999999999
 30
0.0
 40
6.0625
100
AcDbArc
 50
132.0750220508426
 51
227.9249779491573
  0
ARC
  5
8C4
330
1E
100
AcDbEntity
  8
4
100
AcDbCircle
 10
230.9375000000001
 20
86.5
 30
0.0
 40
6.0625
100
AcDbArc
 50
312.0750220508427
 51
47.9249779491573
  0
LINE
  5
8C5
330
1E
100
AcDbEntity
  8
4
100
AcDbLine
 10
237.0
 20
84.00000000000011
 30
0.0
 11
235.0
 21
82.00000000000011
 31
0.0
  0
ARC
  5
8C6
330
1E
100
AcDbEntity
  8
4
100
AcDbCircle
 10
220.0000000000001
 20
99.0
 30
0.0
 40
17.0
100
AcDbArc
 50
331.9275130641455
 51
28.07248693585449
  0
ARC
  5
8C7
330
1E
100
AcDbEntity
  8
4
100
AcDbCircle
 10
242.0000000000001
 20
99.0
 30
0.0
 40
17.0
100
AcDbArc
 50
151.9275130641455
 51
208.0724869358516
  0
LINE
  5
8C8
330
1E
100
AcDbEntity
  8
4
100
AcDbLine
 10
224.9999999999999
 20
84.00000000000011
 30
0.0
 11
224.9999999999999
 21
114.0
 31
0.0
  0
ARC
  5
8C9
330
1E
100
AcDbEntity
  8
4
100
AcDbCircle
 10
231.0625000000001
 20
86.5
 30
0.0
 40
6.0625
100
AcDbArc
 50
132.0750220508426
 51
227.9249779491573
  0
LINE
  5
8CA
330
1E
100
AcDbEntity
  8
4
100
AcDbLine
 10
235.0
 20
82.00000000000011
 30
0.0
 11
226.9999999999999
 21
82.00000000000011
 31
0.0
  0
LINE
  5
8CB
330
1E
100
AcDbEntity
  8
4
100
AcDbLine
 10
226.9999999999999
 20
82.00000000000011
 30
0.0
 11
224.9999999999999
 21
84.00000000000011
 31
0.0
  0
LINE
  5
8CC
330
1E
100
AcDbEntity
  8
4
100
AcDbLine
 10
226.9999999999999
 20
91.0
 30
0.0
 11
235.0
 21
91.0
 31
0.0
  0
LINE
  5
8CD
330
1E
100
AcDbEntity
  8
4
100
AcDbLine
 10
226.9999999999999
 20
107.0000000000001
 30
0.0
 11
235.0
 21
107.0000000000001
 31
0.0
  0
ARC
  5
8CE
330
1E
100
AcDbEntity
  8
4
100
AcDbCircle
 10
266.0000000000001
 20
99.0
 30
0.0
 40
17.0
100
AcDbArc
 50
151.9275130641455
 51
208.0724869358516
  0
LINE
  5
8CF
330
1E
100
AcDbEntity
  8
4
100
AcDbLine
 10
237.0
 20
114.0
 30
0.0
 11
237.0
 21
84.00000000000011
 31
0.0
  0
LINE
  5
8D0
330
1E
100
AcDbEntity
  8
4
100
AcDbLine
 10
249.0000000000001
 20
84.00000000000011
 30
0.0
 11
249.0000000000001
 21
114.0
 31
0.0
  0
LINE
  5
8D1
330
1E
100
AcDbEntity
  8
4
100
AcDbLine
 10
237.0
 20
91.0
 30
0.0
 11
249.0000000000001
 21
91.0
 31
0.0
  0
LINE
  5
8D2
330
1E
100
AcDbEntity
  8
4
100
AcDbLine
 10
249.0000000000001
 20
89.0
 30
0.0
 11
237.0
 21
89.0
 31
0.0
  0
ARC
  5
8D3
330
1E
100
AcDbEntity
  8
4
100
AcDbCircle
 10
255.0625000000001
 20
86.5
 30
0.0
 40
6.0625
100
AcDbArc
 50
132.0750220508426
 51
227.9249779491573
  0
LINE
  5
8D4
330
1E
100
AcDbEntity
  8
4
100
AcDbLine
 10
259.0000000000001
 20
82.00000000000011
 30
0.0
 11
251.0000000000001
 21
82.00000000000011
 31
0.0
  0
LINE
  5
8D5
330
1E
100
AcDbEntity
  8
4
100
AcDbLine
 10
251.0000000000001
 20
82.00000000000011
 30
0.0
 11
249.0000000000001
 21
84.00000000000011
 31
0.0
  0
LINE
  5
8D6
330
1E
100
AcDbEntity
  8
4
100
AcDbLine
 10
251.0000000000001
 20
91.0
 30
0.0
 11
259.0000000000001
 21
91.0
 31
0.0
  0
LINE
  5
8D7
330
1E
100
AcDbEntity
  8
4
100
AcDbLine
 10
249.0000000000001
 20
109.0000000000001
 30
0.0
 11
237.0
 21
109.0000000000001
 31
0.0
  0
LINE
  5
8D8
330
1E
100
AcDbEntity
  8
4
100
AcDbLine
 10
237.0
 20
107.0000000000001
 30
0.0
 11
249.0000000000001
 21
107.0000000000001
 31
0.0
  0
LINE
  5
8D9
330
1E
100
AcDbEntity
  8
4
100
AcDbLine
 10
251.0000000000001
 20
107.0000000000001
 30
0.0
 11
259.0000000000001
 21
107.0000000000001
 31
0.0
  0
LINE
  5
8DA
330
1E
100
AcDbEntity
  8
4
100
AcDbLine
 10
226.9999999999999
 20
116.0
 30
0.0
 11
235.0
 21
116.0
 31
0.0
  0
LINE
  5
8DB
330
1E
100
AcDbEntity
  8
4
100
AcDbLine
 10
251.0000000000001
 20
116.0
 30
0.0
 11
259.0000000000001
 21
116.0
 31
0.0
  0
LINE
  5
8DC
330
1E
100
AcDbEntity
  8
4
100
AcDbLine
 10
260.9999999999999
 20
114.0
 30
0.0
 11
260.9999999999999
 21
84.00000000000011
 31
0.0
  0
LINE
  5
8DD
330
1E
100
AcDbEntity
  8
4
100
AcDbLine
 10
320.9999999999999
 20
91.0
 30
0.0
 11
260.9999999999999
 21
91.0
 31
0.0
  0
LINE
  5
8DE
330
1E
100
AcDbEntity
  8
4
100
AcDbLine
 10
320.9999999999999
 20
89.0
 30
0.0
 11
260.4999999999999
 21
89.0
 31
0.0
  0
LINE
  5
8DF
330
1E
100
AcDbEntity
  8
4
100
AcDbLine
 10
262.0
 20
91.0
 30
0.0
 11
260.9999999999999
 21
91.0
 31
0.0
  0
LINE
  5
8E0
330
1E
100
AcDbEntity
  8
4
100
AcDbLine
 10
262.5000000000001
 20
89.0
 30
0.0
 11
260.9999999999999
 21
89.0
 31
0.0
  0
LINE
  5
8E1
330
1E
100
AcDbEntity
  8
4
100
AcDbLine
 10
320.9999999999999
 20
109.0000000000001
 30
0.0
 11
260.9999999999999
 21
109.0000000000001
 31
0.0
  0
LINE
  5
8E2
330
1E
100
AcDbEntity
  8
4
100
AcDbLine
 10
320.9999999999999
 20
107.0000000000001
 30
0.0
 11
260.9999999999999
 21
107.0000000000001
 31
0.0
  0
LINE
  5
8E3
330
1E
100
AcDbEntity
  8
4
100
AcDbLine
 10
262.0
 20
107.0000000000001
 30
0.0
 11
260.9999999999999
 21
107.0000000000001
 31
0.0
  0
LINE
  5
8E4
330
1E
100
AcDbEntity
  8
5
100
AcDbLine
 10
335.5000000000001
 20
114.0
 30
0.0
 11
347.5000000000001
 21
114.0
 31
0.0
  0
LINE
  5
8E5
330
1E
100
AcDbEntity
  8
4
100
AcDbLine
 10
349.4999999999998
 20
113.0000000000001
 30
0.0
 11
349.4999999999998
 21
85.00000000000012
 31
0.0
  0
LINE
  5
8E6
330
1E
100
AcDbEntity
  8
4
100
AcDbLine
 10
347.5000000000001
 20
114.0
 30
0.0
 11
348.5000000000001
 21
114.0
 31
0.0
  0
LINE
  5
8E7
330
1E
100
AcDbEntity
  8
4
100
AcDbLine
 10
348.5000000000001
 20
114.0
 30
0.0
 11
349.4999999999998
 21
113.0000000000001
 31
0.0
  0
LINE
  5
8E8
330
1E
100
AcDbEntity
  8
5
100
AcDbLine
 10
335.5000000000001
 20
84.00000000000011
 30
0.0
 11
347.5000000000001
 21
84.00000000000011
 31
0.0
  0
LINE
  5
8E9
330
1E
100
AcDbEntity
  8
4
100
AcDbLine
 10
348.5000000000001
 20
84.00000000000011
 30
0.0
 11
347.5000000000001
 21
84.00000000000011
 31
0.0
  0
LINE
  5
8EA
330
1E
100
AcDbEntity
  8
4
100
AcDbLine
 10
349.4999999999998
 20
85.00000000000012
 30
0.0
 11
348.5000000000001
 21
84.00000000000011
 31
0.0
  0
CIRCLE
  5
8EB
330
1E
100
AcDbEntity
  8
0
100
AcDbCircle
 10
488.4999999999999
 20
245.0
 30
0.0
 40
14.5
  0
LINE
  5
8ED
330
1E
100
AcDbEntity
  8
0
100
AcDbLine
 10
489.4999999999999
 20
259.4654761414894
 30
0.0
 11
489.4999999999998
 21
230.5345238585105
 31
0.0
  0
LINE
  5
8EF
330
1E
100
AcDbEntity
  8
0
100
AcDbLine
 10
487.4999999999999
 20
230.5345238585105
 30
0.0
 11
487.4999999999999
 21
259.4654761414894
 31
0.0
  0
TEXT
  5
8F0
330
1E
100
AcDbEntity
  8
0
100
AcDbText
 10
508.1008956844762
 20
18.62397523622502
 30
0.0
 40
6.0
  1
ST-50S-90
 41
0.8
  7
EXTFONT
100
AcDbText
  0
ENDSEC
  0
SECTION
  2
OBJECTS
  0
DICTIONARY
  5
C
330
0
100
AcDbDictionary
281
     1
  3
ACAD_GROUP
350
D
  3
ACAD_LAYOUT
350
19
  3
ACAD_MLINESTYLE
350
16
  3
ACAD_PLOTSETTINGS
350
18
  3
ACAD_PLOTSTYLENAME
350
E
  3
AcDbVariableDictionary
350
56B
  3
AcmDictionary
350
280
  3
AMG
350
1C6
  3
AMGSNAPSETTINGS
350
29D
  3
DWGPROPS
350
570
  3
MAPISURF_MODULE
350
253
  0
DICTIONARY
  5
563
330
1E
100
AcDbDictionary
280
     1
281
     1
  3
ACAD_INDEX
360
564
  0
DICTIONARY
  5
D
102
{ACAD_REACTORS
330
C
102
}
330
C
100
AcDbDictionary
281
     1
  0
DICTIONARY
  5
19
102
{ACAD_REACTORS
330
C
102
}
330
C
100
AcDbDictionary
281
     1
  3
Model
350
21
  3
ﾚｲｱｳﾄ1
350
1D
  0
DICTIONARY
  5
16
102
{ACAD_REACTORS
330
C
102
}
330
C
100
AcDbDictionary
281
     1
  3
Standard
350
17
  0
DICTIONARY
  5
18
102
{ACAD_REACTORS
330
C
102
}
330
C
100
AcDbDictionary
281
     1
  0
ACDBDICTIONARYWDFLT
  5
E
102
{ACAD_REACTORS
330
C
102
}
330
C
100
AcDbDictionary
281
     1
  3
Normal
350
F
100
AcDbDictionaryWithDefault
340
F
  0
DICTIONARY
  5
56B
102
{ACAD_REACTORS
330
C
102
}
330
C
100
AcDbDictionary
281
     1
  3
DIMASSOC
350
56D
  3
INDEXCTL
350
56C
  0
DICTIONARY
  5
280
102
{ACAD_REACTORS
330
C
102
}
330
C
100
AcDbDictionary
281
     1
  3
AcmBOMDATA
350
281
  0
DICTIONARY
  5
1C6
102
{ACAD_REACTORS
330
C
102
}
330
C
100
AcDbDictionary
281
     1
  3
AcMgSettings
350
1C7
  3
AMGLAYCFG
350
28D
  0
DICTIONARY
  5
29D
102
{ACAD_REACTORS
330
C
102
}
330
C
100
AcDbDictionary
281
     1
  3
DIMENSION
350
2A2
  3
FEA
350
2A1
  3
HATCH (1)
350
29E
  3
HATCH (2)
350
29F
  3
SIMPLE WELD
350
2A3
  3
SYMBOLS
350
2A0
  0
XRECORD
  5
570
102
{ACAD_REACTORS
330
C
102
}
330
C
100
AcDbXrecord
280
     1
  1
DWGPROPS COOKIE
  2

  3

  4

  6

  7

  8

  9

300
AmdtFileType=84
301
=
302
=
303
=
304
=
305
=
306
=
307
=
308
=
309
=
 40
0.0037232291666667
 41
2450686.781041667
 42
2456525.58743037
  1

 90
        1
  0
DICTIONARY
  5
564
102
{ACAD_REACTORS
330
563
102
}
330
563
100
AcDbDictionary
281
     1
  3
*A1
350
565
  0
LAYOUT
  5
21
102
{ACAD_REACTORS
330
19
102
}
330
19
100
AcDbPlotSettings
  1

  2
\\KONISHIDENXP\SHARP MX-2700FG
  4

  6

 40
0.0
 41
0.0
 42
0.0
 43
0.0
 44
0.0
 45
0.0
 46
0.0
 47
0.0
 48
0.0
 49
0.0
140
0.0
141
0.0
142
1.0
143
1.0
 70
  1712
 72
     0
 73
     0
 74
     0
  7

 75
     0
147
1.0
148
0.0
149
0.0
100
AcDbLayout
  1
Model
 70
     1
 71
     0
 10
0.0
 20
0.0
 11
12.0
 21
9.0
 12
0.0
 22
0.0
 32
0.0
 14
0.0
 24
0.0
 34
0.0
 15
0.0
 25
0.0
 35
0.0
146
0.0
 13
0.0
 23
0.0
 33
0.0
 16
1.0
 26
0.0
 36
0.0
 17
0.0
 27
1.0
 37
0.0
 76
     0
330
1E
  0
LAYOUT
  5
1D
102
{ACAD_REACTORS
330
19
102
}
330
19
100
AcDbPlotSettings
  1

  2
\\KONISHIDENXP\SHARP MX-2700FG
  4

  6

 40
0.0
 41
0.0
 42
0.0
 43
0.0
 44
0.0
 45
0.0
 46
0.0
 47
0.0
 48
0.0
 49
0.0
140
0.0
141
0.0
142
1.0
143
1.0
 70
   688
 72
     0
 73
     0
 74
     5
  7

 75
    16
147
1.0
148
0.0
149
0.0
100
AcDbLayout
  1
ﾚｲｱｳﾄ1
 70
     1
 71
     1
 10
0.0
 20
0.0
 11
12.0
 21
9.0
 12
0.0
 22
0.0
 32
0.0
 14
1.000000000000000E+20
 24
1.000000000000000E+20
 34
1.000000000000000E+20
 15
-1.000000000000000E+20
 25
-1.000000000000000E+20
 35
-1.000000000000000E+20
146
0.0
 13
0.0
 23
0.0
 33
0.0
 16
1.0
 26
0.0
 36
0.0
 17
0.0
 27
1.0
 37
0.0
 76
     0
330
1A
  0
MLINESTYLE
  5
17
102
{ACAD_REACTORS
330
16
102
}
330
16
100
AcDbMlineStyle
  2
STANDARD
 70
     0
  3

 62
   256
 51
90.0
 52
90.0
 71
     2
 49
0.5
 62
   256
  6
BYLAYER
 49
-0.5
 62
   256
  6
BYLAYER
  0
ACDBPLACEHOLDER
  5
F
102
{ACAD_REACTORS
330
E
102
}
330
E
  0
DICTIONARYVAR
  5
56D
102
{ACAD_REACTORS
330
56B
102
}
330
56B
100
DictionaryVariables
280
     0
  1
1
  0
DICTIONARYVAR
  5
56C
102
{ACAD_REACTORS
330
56B
102
}
330
56B
100
DictionaryVariables
280
     0
  1
1
  0
ACMDATADICTIONARY
  5
281
102
{ACAD_REACTORS
330
280
102
}
330
280
100
AcDbDictionary
281
     1
  3
*A1
350
282
100
AcmDataDictionary
  0
DICTIONARY
  5
1C7
102
{ACAD_REACTORS
330
1C6
102
}
330
1C6
100
AcDbDictionary
281
     1
  3
DWGSETTINGS
350
1C8
  0
ACAMGFILTERDAT
  5
2A2
102
{ACAD_REACTORS
330
29D
102
}
330
29D
100
AcAmgFilterDat
 70
    15
  1
DIMENSION,AMDT_*_DIM
  2
*
  3
*
  4
*
  5
*
290
     1
  0
ACAMGFILTERDAT
  5
2A1
102
{ACAD_REACTORS
330
29D
102
}
330
29D
100
AcAmgFilterDat
 70
    15
  1
*
  2
AM_FEA-AM_*
  3
*
  4
*
  5
*
290
     1
  0
ACAMGFILTERDAT
  5
29E
102
{ACAD_REACTORS
330
29D
102
}
330
29D
100
AcAmgFilterDat
 70
    15
  1
HATCH
  2
*
  3
*
  4
*
  5
*
290
     1
  0
ACAMGFILTERDAT
  5
29F
102
{ACAD_REACTORS
330
29D
102
}
330
29D
100
AcAmgFilterDat
 70
    15
  1
LINE
  2
8,8N,*-8,*-8N,AM_8,AM_8N,*-AM_8,*-AM_8N
  3
*
  4
*
  5
INSERT,STDPART2D
290
     1
  0
ACAMGFILTERDAT
  5
2A3
102
{ACAD_REACTORS
330
29D
102
}
330
29D
100
AcAmgFilterDat
 70
    15
  1
ARC
  2
AM_5
  3
*
  4
2
  5
INSERT
290
     0
  0
ACAMGFILTERDAT
  5
2A0
102
{ACAD_REACTORS
330
29D
102
}
330
29D
100
AcAmgFilterDat
 70
    15
  1
ACMFCFRAME,ACMDATUMTARGET,ACMDATUMID,ACMWELDSYM,ACMSURFSYM,ACMFEATID,ACMPARTREF,ACMBALLOON,AMDTEDGESYM,AMGSCREWCALCTABLE
  2
*
  3
*
  4
*
  5
*
290
     1
  0
LAYER_INDEX
  5
565
102
{ACAD_REACTORS
330
564
102
}
330
564
100
AcDbIndex
 40
2456525.595979988
100
AcDbLayerIndex
  8
0
360
566
 90
      213
  8
1
360
567
 90
       25
  8
2
360
568
 90
      126
  8
3
360
569
 90
       10
  8
5
360
56A
 90
       12
  8
4
360
82C
 90
      170
  0
ACMDATAENTRYBLOCK
  5
282
102
{ACAD_REACTORS
330
281
102
}
330
281
100
AcmDataEntry
100
AcmDataEntryBlock
  0
IDBUFFER
  5
566
330
0
100
AcDbIdBuffer
330
43
330
44
330
45
330
46
330
47
330
48
330
49
330
4A
330
4B
330
4C
330
4D
330
4E
330
4F
330
50
330
51
330
52
330
53
330
54
330
55
330
5D
330
5E
330
5F
330
60
330
61
330
62
330
63
330
64
330
65
330
66
330
67
330
68
330
6A
330
6B
330
6C
330
6D
330
6E
330
6F
330
70
330
74
330
75
330
77
330
78
330
79
330
7A
330
7B
330
7C
330
7D
330
7E
330
7F
330
80
330
82
330
83
330
84
330
85
330
86
330
87
330
88
330
89
330
8A
330
8D
330
8E
330
8F
330
92
330
93
330
97
330
98
330
99
330
9A
330
9B
330
9C
330
9D
330
9E
330
9F
330
A0
330
A1
330
A2
330
A3
330
A4
330
A5
330
A6
330
A7
330
A8
330
A9
330
AA
330
AB
330
AC
330
AD
330
C3
330
C4
330
C5
330
FB
330
FD
330
100
330
106
330
107
330
108
330
109
330
10A
330
10B
330
10C
330
10D
330
10E
330
10F
330
110
330
111
330
112
330
113
330
115
330
116
330
117
330
118
330
119
330
11A
330
11B
330
11C
330
11D
330
11E
330
11F
330
120
330
121
330
122
330
123
330
124
330
125
330
126
330
127
330
128
330
12B
330
12C
330
143
330
144
330
148
330
14A
330
14D
330
14E
330
14F
330
150
330
15D
330
15E
330
16C
330
16D
330
16E
330
16F
330
170
330
172
330
174
330
175
330
177
330
178
330
179
330
17A
330
17B
330
17C
330
183
330
184
330
189
330
18A
330
18C
330
18F
330
192
330
193
330
194
330
195
330
196
330
197
330
198
330
199
330
19A
330
19B
330
19C
330
19D
330
19E
330
19F
330
1A0
330
1A1
330
1A2
330
1A3
330
1A4
330
1A5
330
1A6
330
1A7
330
1A8
330
1A9
330
1AA
330
1AB
330
1AC
330
1AD
330
1AE
330
1AF
330
1B0
330
1B1
330
1B2
330
1B3
330
1B4
330
1B5
330
1B6
330
1B7
330
1B8
330
1B9
330
1BA
330
1BB
330
1BC
330
1BD
330
1BE
330
1BF
330
1C0
330
1C1
330
561
330
562
330
8EB
330
8ED
330
8EF
330
8F0
  0
IDBUFFER
  5
567
330
0
100
AcDbIdBuffer
330
57
330
58
330
71
330
81
330
90
330
91
330
94
330
95
330
96
330
BC
330
C2
330
F8
330
F9
330
129
330
12A
330
12D
330
142
330
147
330
149
330
14C
330
171
330
1C2
330
83D
330
879
330
8B0
  0
IDBUFFER
  5
568
330
0
100
AcDbIdBuffer
330
59
330
5A
330
5B
330
5C
330
72
330
73
330
8B
330
8C
330
AF
330
B0
330
B1
330
B2
330
B3
330
B4
330
B5
330
B6
330
B7
330
B8
330
B9
330
BA
330
BB
330
BD
330
BE
330
CE
330
CF
330
D0
330
D1
330
D2
330
D3
330
D4
330
D5
330
D6
330
D7
330
D8
330
D9
330
DA
330
DB
330
DC
330
DD
330
DE
330
DF
330
E0
330
E1
330
E2
330
E3
330
E4
330
E5
330
E6
330
E7
330
E8
330
E9
330
EA
330
EB
330
EC
330
ED
330
EE
330
EF
330
F0
330
F1
330
F2
330
F3
330
F4
330
F5
330
F6
330
F7
330
FC
330
FE
330
101
330
104
330
105
330
12E
330
12F
330
130
330
131
330
132
330
133
330
134
330
135
330
136
330
137
330
138
330
139
330
13A
330
13B
330
13C
330
13D
330
13E
330
13F
330
140
330
141
330
145
330
14B
330
151
330
155
330
156
330
157
330
158
330
159
330
15A
330
15B
330
15C
330
160
330
161
330
162
330
163
330
164
330
165
330
166
330
167
330
168
330
169
330
16A
330
16B
330
173
330
176
330
17D
330
17E
330
17F
330
180
330
181
330
182
330
185
330
186
330
187
330
188
330
18B
  0
IDBUFFER
  5
569
330
0
100
AcDbIdBuffer
330
56
330
AE
330
C1
330
CD
330
FA
330
FF
330
114
330
146
330
154
330
15F
  0
IDBUFFER
  5
56A
330
0
100
AcDbIdBuffer
330
8AB
330
8AF
330
8E4
330
8E8
330
BF
330
C0
330
102
330
103
330
152
330
153
330
86D
330
873
  0
IDBUFFER
  5
82C
330
0
100
AcDbIdBuffer
330
877
330
878
330
87A
330
87B
330
87C
330
87D
330
87E
330
87F
330
880
330
881
330
882
330
883
330
884
330
885
330
886
330
887
330
888
330
889
330
88A
330
88B
330
88C
330
88D
330
88E
330
88F
330
890
330
891
330
892
330
893
330
894
330
895
330
896
330
897
330
898
330
899
330
89A
330
89B
330
89C
330
89D
330
89E
330
89F
330
8A0
330
8A2
330
8A3
330
8A4
330
8A5
330
8A6
330
8A7
330
8A8
330
8A9
330
8AA
330
8AC
330
8AD
330
8AE
330
8B1
330
8B2
330
8B3
330
8B4
330
8B5
330
8B6
330
8B7
330
8B8
330
8B9
330
8BA
330
8BB
330
8BC
330
8BD
330
8BE
330
8BF
330
8C0
330
8C1
330
8C2
330
8C3
330
8C4
330
8C5
330
8C6
330
8C7
330
8C8
330
8C9
330
8CA
330
8CB
330
8CC
330
8CD
330
8CE
330
8CF
330
8D0
330
8D1
330
8D2
330
8D3
330
8D4
330
8D5
330
8D6
330
8D7
330
8D8
330
8D9
330
8DA
330
8DB
330
8DC
330
8DD
330
8DE
330
8DF
330
8E0
330
8E1
330
8E2
330
8E3
330
8E5
330
8E6
330
8E7
330
8E9
330
8EA
330
876
330
830
330
838
330
839
330
83A
330
83B
330
83C
330
83E
330
83F
330
840
330
841
330
842
330
843
330
844
330
845
330
846
330
847
330
848
330
849
330
84A
330
84B
330
84C
330
84D
330
84E
330
84F
330
850
330
851
330
852
330
853
330
854
330
855
330
856
330
857
330
858
330
859
330
85A
330
85B
330
85C
330
85D
330
85E
330
85F
330
860
330
861
330
862
330
863
330
864
330
865
330
866
330
867
330
868
330
869
330
86A
330
86B
330
86C
330
86E
330
86F
330
870
330
871
330
872
330
874
330
875
  0
ENDSEC
  0
EOF
