  0
SECTION
  2
HEADER
  9
$ACADVER
  1
AC1015
  9
$ACADMAINTVER
 70
    13
  9
$DWGCODEPAGE
  3
ANSI_932
  9
$INSBASE
 10
0.0
 20
0.0
 30
0.0
  9
$EXTMIN
 10
174.5
 20
55.56178663947823
 30
0.0
  9
$EXTMAX
 10
745.3085005877692
 20
611.0
 30
0.0
  9
$LIMMIN
 10
0.0
 20
0.0
  9
$LIMMAX
 10
800.0
 20
700.0
  9
$ORTHOMODE
 70
     0
  9
$REGENMODE
 70
     1
  9
$FILLMODE
 70
     1
  9
$QTEXTMODE
 70
     0
  9
$MIRRTEXT
 70
     1
  9
$LTSCALE
 40
1.0
  9
$ATTMODE
 70
     1
  9
$TEXTSIZE
 40
16.0
  9
$TRACEWID
 40
0.05
  9
$TEXTSTYLE
  7
BIGFONT
  9
$CLAYER
  8
0
  9
$CELTYPE
  6
ByLayer
  9
$CECOLOR
 62
   256
  9
$CELTSCALE
 40
1.0
  9
$DISPSILH
 70
     0
  9
$DIMSCALE
 40
1.0
  9
$DIMASZ
 40
0.18
  9
$DIMEXO
 40
0.0625
  9
$DIMDLI
 40
0.38
  9
$DIMRND
 40
0.0
  9
$DIMDLE
 40
0.0
  9
$DIMEXE
 40
0.18
  9
$DIMTP
 40
0.0
  9
$DIMTM
 40
0.0
  9
$DIMTXT
 40
0.18
  9
$DIMCEN
 40
0.09
  9
$DIMTSZ
 40
0.0
  9
$DIMTOL
 70
     0
  9
$DIMLIM
 70
     0
  9
$DIMTIH
 70
     1
  9
$DIMTOH
 70
     1
  9
$DIMSE1
 70
     0
  9
$DIMSE2
 70
     0
  9
$DIMTAD
 70
     0
  9
$DIMZIN
 70
     0
  9
$DIMBLK
  1

  9
$DIMASO
 70
     1
  9
$DIMSHO
 70
     1
  9
$DIMPOST
  1

  9
$DIMAPOST
  1

  9
$DIMALT
 70
     0
  9
$DIMALTD
 70
     2
  9
$DIMALTF
 40
25.4
  9
$DIMLFAC
 40
1.0
  9
$DIMTOFL
 70
     0
  9
$DIMTVP
 40
0.0
  9
$DIMTIX
 70
     0
  9
$DIMSOXD
 70
     0
  9
$DIMSAH
 70
     0
  9
$DIMBLK1
  1

  9
$DIMBLK2
  1

  9
$DIMSTYLE
  2
STANDARD
  9
$DIMCLRD
 70
     0
  9
$DIMCLRE
 70
     0
  9
$DIMCLRT
 70
     0
  9
$DIMTFAC
 40
1.0
  9
$DIMGAP
 40
0.09
  9
$DIMJUST
 70
     0
  9
$DIMSD1
 70
     0
  9
$DIMSD2
 70
     0
  9
$DIMTOLJ
 70
     1
  9
$DIMTZIN
 70
     0
  9
$DIMALTZ
 70
     0
  9
$DIMALTTZ
 70
     0
  9
$DIMUPT
 70
     0
  9
$DIMDEC
 70
     4
  9
$DIMTDEC
 70
     4
  9
$DIMALTU
 70
     2
  9
$DIMALTTD
 70
     2
  9
$DIMTXSTY
  7
STANDARD
  9
$DIMAUNIT
 70
     0
  9
$DIMADEC
 70
     0
  9
$DIMALTRND
 40
0.0
  9
$DIMAZIN
 70
     0
  9
$DIMDSEP
 70
    46
  9
$DIMATFIT
 70
     3
  9
$DIMFRAC
 70
     0
  9
$DIMLDRBLK
  1

  9
$DIMLUNIT
 70
     2
  9
$DIMLWD
 70
    -2
  9
$DIMLWE
 70
    -2
  9
$DIMTMOVE
 70
     0
  9
$LUNITS
 70
     2
  9
$LUPREC
 70
     4
  9
$SKETCHINC
 40
0.1
  9
$FILLETRAD
 40
0.0
  9
$AUNITS
 70
     0
  9
$AUPREC
 70
     0
  9
$MENU
  1
acad
  9
$ELEVATION
 40
0.0
  9
$PELEVATION
 40
0.0
  9
$THICKNESS
 40
0.0
  9
$LIMCHECK
 70
     0
  9
$CHAMFERA
 40
0.0
  9
$CHAMFERB
 40
0.0
  9
$CHAMFERC
 40
0.0
  9
$CHAMFERD
 40
0.0
  9
$SKPOLY
 70
     0
  9
$TDCREATE
 40
2450686.776944444
  9
$TDUCREATE
 40
2450686.401944444
  9
$TDUPDATE
 40
2456525.484483680
  9
$TDUUPDATE
 40
2456525.109483680
  9
$TDINDWG
 40
0.0747408449
  9
$TDUSRTIMER
 40
0.0747406713
  9
$USRTIMER
 70
     1
  9
$ANGBASE
 50
0.0
  9
$ANGDIR
 70
     0
  9
$PDMODE
 70
     0
  9
$PDSIZE
 40
0.0
  9
$PLINEWID
 40
0.0
  9
$SPLFRAME
 70
     0
  9
$SPLINETYPE
 70
     6
  9
$SPLINESEGS
 70
     8
  9
$HANDSEED
  5
748
  9
$SURFTAB1
 70
     6
  9
$SURFTAB2
 70
     6
  9
$SURFTYPE
 70
     6
  9
$SURFU
 70
     6
  9
$SURFV
 70
     6
  9
$UCSBASE
  2

  9
$UCSNAME
  2

  9
$UCSORG
 10
0.0
 20
0.0
 30
0.0
  9
$UCSXDIR
 10
1.0
 20
0.0
 30
0.0
  9
$UCSYDIR
 10
0.0
 20
1.0
 30
0.0
  9
$UCSORTHOREF
  2

  9
$UCSORTHOVIEW
 70
     0
  9
$UCSORGTOP
 10
0.0
 20
0.0
 30
0.0
  9
$UCSORGBOTTOM
 10
0.0
 20
0.0
 30
0.0
  9
$UCSORGLEFT
 10
0.0
 20
0.0
 30
0.0
  9
$UCSORGRIGHT
 10
0.0
 20
0.0
 30
0.0
  9
$UCSORGFRONT
 10
0.0
 20
0.0
 30
0.0
  9
$UCSORGBACK
 10
0.0
 20
0.0
 30
0.0
  9
$PUCSBASE
  2

  9
$PUCSNAME
  2

  9
$PUCSORG
 10
0.0
 20
0.0
 30
0.0
  9
$PUCSXDIR
 10
1.0
 20
0.0
 30
0.0
  9
$PUCSYDIR
 10
0.0
 20
1.0
 30
0.0
  9
$PUCSORTHOREF
  2

  9
$PUCSORTHOVIEW
 70
     0
  9
$PUCSORGTOP
 10
0.0
 20
0.0
 30
0.0
  9
$PUCSORGBOTTOM
 10
0.0
 20
0.0
 30
0.0
  9
$PUCSORGLEFT
 10
0.0
 20
0.0
 30
0.0
  9
$PUCSORGRIGHT
 10
0.0
 20
0.0
 30
0.0
  9
$PUCSORGFRONT
 10
0.0
 20
0.0
 30
0.0
  9
$PUCSORGBACK
 10
0.0
 20
0.0
 30
0.0
  9
$USERI1
 70
     0
  9
$USERI2
 70
     0
  9
$USERI3
 70
     0
  9
$USERI4
 70
     0
  9
$USERI5
 70
     0
  9
$USERR1
 40
0.0
  9
$USERR2
 40
0.0
  9
$USERR3
 40
0.0
  9
$USERR4
 40
0.0
  9
$USERR5
 40
0.0
  9
$WORLDVIEW
 70
     1
  9
$SHADEDGE
 70
     3
  9
$SHADEDIF
 70
    70
  9
$TILEMODE
 70
     1
  9
$MAXACTVP
 70
    16
  9
$PINSBASE
 10
0.0
 20
0.0
 30
0.0
  9
$PLIMCHECK
 70
     0
  9
$PEXTMIN
 10
1.000000000000000E+20
 20
1.000000000000000E+20
 30
1.000000000000000E+20
  9
$PEXTMAX
 10
-1.000000000000000E+20
 20
-1.000000000000000E+20
 30
-1.000000000000000E+20
  9
$PLIMMIN
 10
0.0
 20
0.0
  9
$PLIMMAX
 10
12.0
 20
9.0
  9
$UNITMODE
 70
     0
  9
$VISRETAIN
 70
     0
  9
$PLINEGEN
 70
     0
  9
$PSLTSCALE
 70
     1
  9
$TREEDEPTH
 70
  3020
  9
$CMLSTYLE
  2
Standard
  9
$CMLJUST
 70
     0
  9
$CMLSCALE
 40
1.0
  9
$PROXYGRAPHICS
 70
     1
  9
$MEASUREMENT
 70
     0
  9
$CELWEIGHT
370
    -1
  9
$ENDCAPS
280
     0
  9
$JOINSTYLE
280
     0
  9
$LWDISPLAY
290
     0
  9
$INSUNITS
 70
     0
  9
$HYPERLINKBASE
  1

  9
$STYLESHEET
  1

  9
$XEDIT
290
     1
  9
$CEPSNTYPE
380
     0
  9
$PSTYLEMODE
290
     1
  9
$FINGERPRINTGUID
  2
{0837DE65-8C6D-4DED-919E-C762B52832B3}
  9
$VERSIONGUID
  2
{3663F4DA-D2C4-4039-B4FC-82CE0E1D6BE5}
  9
$EXTNAMES
290
     1
  9
$PSVPSCALE
 40
0.0
  9
$OLESTARTUP
290
     0
  0
ENDSEC
  0
SECTION
  2
CLASSES
  0
CLASS
  1
ACDBDICTIONARYWDFLT
  2
AcDbDictionaryWithDefault
  3
AutoCAD 2000
 90
        0
280
     0
281
     0
  0
CLASS
  1
ACDBPLACEHOLDER
  2
AcDbPlaceHolder
  3
AutoCAD 2000
 90
        0
280
     0
281
     0
  0
CLASS
  1
LAYOUT
  2
AcDbLayout
  3
AutoCAD 2000
 90
        0
280
     0
281
     0
  0
CLASS
  1
AMGSETTINGSOBJ
  2
AmgSettingsObj
  3
"AcadM|Product Description: AutoCAD Mechanical 2000|Company: Autodesk"
 90
        0
280
     0
281
     0
  0
CLASS
  1
ACME_DOCUMENT
  2
AcMeDbDoc
  3
AcMeServices
 90
        0
280
     0
281
     0
  0
CLASS
  1
ACMESCOPE
  2
AcMeScope
  3
AcMeServices
 90
        0
280
     0
281
     0
  0
CLASS
  1
ACMECOMMANDHISTORY
  2
AcMeCommandHistory
  3
AcMeServices
 90
        0
280
     0
281
     0
  0
CLASS
  1
ACIMSYSVARMAN
  2
AcImSysVarManager
  3
AcMeServices
 90
        0
280
     0
281
     0
  0
CLASS
  1
ACIMREALSYSVAR
  2
AcImRealSysVar
  3
AcMeServices
 90
        0
280
     0
281
     0
  0
CLASS
  1
ACIMINTSYSVAR
  2
AcImIntSysVar
  3
AcMeServices
 90
        0
280
     0
281
     0
  0
CLASS
  1
ACMEDRAWINGMAN
  2
AcMeDrawingMan
  3
AcMeServices
 90
        0
280
     0
281
     0
  0
CLASS
  1
ACMEVIEW
  2
AcMeView
  3
AcMeServices
 90
        0
280
     0
281
     0
  0
CLASS
  1
ACDBENTITYCACHE
  2
AcMeEntityCache
  3
AcMeServices
 90
        0
280
     0
281
     0
  0
CLASS
  1
GSMANAGER
  2
AcMeGSManager
  3
AcMeServices
 90
        0
280
     0
281
     0
  0
CLASS
  1
AMDTINTERNALREACTOR
  2
AmdtInternalReactor
  3
AcMeServices
 90
        0
280
     0
281
     0
  0
CLASS
  1
ACMESTATEMGR
  2
AcMeStateMgr
  3
AcMeServices
 90
        0
280
     0
281
     0
  0
CLASS
  1
ACGREFMASTER
  2
AcGrefMaster
  3
AcAttribServices
 90
        0
280
     0
281
     0
  0
CLASS
  1
AM_DRAWING_MGR
  2
AcDmDwgMgr
  3
AcMechDwgViewMgmt
 90
        0
280
     0
281
     0
  0
CLASS
  1
AM_DWG_DOCUMENT
  2
AcDmDwgDocument
  3
AcMechDwgViewMgmt
 90
        0
280
     0
281
     0
  0
CLASS
  1
AM_DWG_SHEET
  2
AcDmSheet
  3
AcMechDwgViewMgmt
 90
        0
280
     0
281
     0
  0
CLASS
  1
AM_VIEWDIMPARMAP
  2
AcDmViewDimParMap
  3
AcMechDwgViewMgmt
 90
        0
280
     0
281
     0
  0
CLASS
  1
AM_DWGMGR_NAME
  2
AcDmDwgMgrName
  3
AcMechDwgViewMgmt
 90
        0
280
     0
281
     0
  0
CLASS
  1
ACME_DATABASE
  2
AcMeDbDatabase
  3
AcMeServices
 90
        0
280
     0
281
     0
  0
CLASS
  1
ACRFINSADJUSTERMGR
  2
AcRfInsAdjusterMgr
  3
AcMeServices
 90
        0
280
     0
281
     0
  0
CLASS
  1
ACGREFACADMASTER
  2
AcGrefacadMaster
  3
AcGrefServices
 90
        0
280
     0
281
     0
  0
CLASS
  1
AMDTMENUSTATEMGR
  2
AmdtMenuStateMgr
  3
McadcomServices
 90
        0
280
     0
281
     0
  0
CLASS
  1
AMDTMCOMMENUSTATE
  2
AmdtMcomMenuState
  3
McadcomServices
 90
        0
280
     0
281
     0
  0
CLASS
  1
AMIMASTER
  2
AmiMaster
  3
AmiServices
 90
        0
280
     0
281
     0
  0
CLASS
  1
ASAPP
  2
AcAsAppObject
  3
AutoSurfServices
 90
        0
280
     0
281
     0
  0
CLASS
  1
IM_STATIC_MAN
  2
AcImStaticVarManager
  3
AcMeServices
 90
        0
280
     0
281
     0
  0
CLASS
  1
ACIMSTRSYSVAR
  2
AcImStrSysVar
  3
AcMeServices
 90
        0
280
     0
281
     0
  0
CLASS
  1
ACIMDBLSTATICVAR
  2
AcImDblStaticVar
  3
AcMeServices
 90
        0
280
     0
281
     0
  0
CLASS
  1
ACIMSTRSTATICVAR
  2
AcImStrStaticVar
  3
AcMeServices
 90
        0
280
     0
281
     0
  0
CLASS
  1
ACIMINTSTATICVAR
  2
AcImIntStaticVar
  3
AcMeServices
 90
        0
280
     0
281
     0
  0
CLASS
  1
ACASGREFMASTER
  2
AcAsGrefMaster
  3
AutoSurfResolverServices
 90
        0
280
     0
281
     0
  0
CLASS
  1
ACADGREFMODULE
  2
AcAdGrefModule
  3
AdGrefServices
 90
        0
280
     0
281
     0
  0
CLASS
  1
AMDTMAPISURFMOUDULE
  2
AmdtMApiSurfModule
  3
MApiSurfServices
 90
    32768
280
     0
281
     0
  0
CLASS
  1
MAPIAMMOUDLE
  2
MApiAmModule
  3
MApiAmServices
 90
        0
280
     0
281
     0
  0
CLASS
  1
AMDTADMENUSTATE
  2
AmdtAdMenuState
  3
DesignerServices
 90
        0
280
     0
281
     0
  0
CLASS
  1
ADAPPL
  2
AcAdAppl
  3
DesignerServices
 90
        0
280
     0
281
     0
  0
CLASS
  1
DEPMGR
  2
AcAdDepMgr
  3
DesignerServices
 90
        0
280
     0
281
     0
  0
CLASS
  1
PARAMMGR
  2
AcAdParamMgr
  3
DesignerServices
 90
        0
280
     0
281
     0
  0
CLASS
  1
PARAMSCOPE
  2
AcAdParamScope
  3
DesignerServices
 90
        0
280
     0
281
     0
  0
CLASS
  1
NAMEDAPPL
  2
AcAdNamedAppl
  3
DesignerServices
 90
        0
280
     0
281
     0
  0
CLASS
  1
AMDTDMMENUSTATE
  2
AmdtDmMenuState
  3
AcMechDwgViewMgmt
 90
        0
280
     0
281
     0
  0
CLASS
  1
MAPIADMODULE
  2
MApiAdModule
  3
MApiAdServices
 90
        0
280
     0
281
     0
  0
CLASS
  1
AMDTAMMENUSTATE
  2
AmdtAmMenuState
  3
DesignerAssemblies
 90
        0
280
     0
281
     0
  0
CLASS
  1
ACAMPROJECT
  2
AcAmProject
  3
DesignerAssemblies
 90
        0
280
     0
281
     0
  0
CLASS
  1
ACAMGRCOMPDEF
  2
AcAmGrCompDef
  3
DesignerAssemblies
 90
        0
280
     0
281
     0
  0
CLASS
  1
ACCMCONTEXT
  2
AcCmContext
  3
DesignerAssemblies
 90
        0
280
     0
281
     0
  0
CLASS
  1
ACAMCOMPDEF
  2
AcAmCompDef
  3
DesignerAssemblies
 90
        0
280
     0
281
     0
  0
CLASS
  1
ACAMCOMPDEFMGR
  2
AcAmCompDefMgr
  3
DesignerAssemblies
 90
        0
280
     0
281
     0
  0
CLASS
  1
AMCONTEXTMGR
  2
AcAmContextMgr
  3
DesignerAssemblies
 90
        0
280
     0
281
     0
  0
CLASS
  1
ACAMCONTEXTMODELER
  2
AcAmContextModeler
  3
DesignerAssemblies
 90
        0
280
     0
281
     0
  0
CLASS
  1
ACMDATADICTIONARY
  2
AcmDataDictionary
  3
"AcmSymBB|Product Description: AutoCAD Mechanical 2000|Company: Autodesk"
 90
        0
280
     0
281
     0
  0
CLASS
  1
ACMDATAENTRYBLOCK
  2
AcmDataEntryBlock
  3
"AcmSymBB|Product Description: AutoCAD Mechanical 2000|Company: Autodesk"
 90
        0
280
     0
281
     0
  0
CLASS
  1
CATALOGSTATE
  2
AcAmCatalogState
  3
DesignerAssemblies
 90
        0
280
     0
281
     0
  0
CLASS
  1
ACAMGRCOMPDEFSET
  2
AcAmGrCompDefSet
  3
DesignerAssemblies
 90
        0
280
     0
281
     0
  0
CLASS
  1
AMDTBROWSERDBTAB
  2
AmdtBrowserDbTab
  3
McadcomServices
 90
        0
280
     0
281
     0
  0
CLASS
  1
CBROWSERAPPOBJECT
  2
CBrowserAppObject
  3
McadcomServices
 90
        0
280
     0
281
     0
  0
CLASS
  1
DM_PLACEHOLDER
  2
AcDmSelsetPlaceholder
  3
AcMechDwgViewMgmt
 90
        0
280
     0
281
     0
  0
CLASS
  1
AMGOBJPROPCFG
  2
AmgObjPropCfg
  3
"AmgLay|Product Description: AutoCAD Mechanical 2000|Company: Autodesk"
 90
        1
280
     0
281
     0
  0
CLASS
  1
ACAMGFILTERDAT
  2
AcAmgFilterDat
  3
"AcadM|Product Description: AutoCAD Mechanical 2000|Company: Autodesk"
 90
        0
280
     0
281
     0
  0
CLASS
  1
LAYER_INDEX
  2
AcDbLayerIndex
  3
AutoCAD 2000
 90
        0
280
     0
281
     0
  0
CLASS
  1
IDBUFFER
  2
AcDbIdBuffer
  3
AutoCAD 2000
 90
        0
280
     0
281
     0
  0
CLASS
  1
DICTIONARYVAR
  2
AcDbDictionaryVar
  3
AutoCAD 2000
 90
        0
280
     0
281
     0
  0
CLASS
  1
AMDTFORMULAUPDATEDISPATCHER
  2
AmdtFormulaUpdateDispatcher
  3
AcMeServices
 90
        0
280
     0
281
     0
  0
ENDSEC
  0
SECTION
  2
TABLES
  0
TABLE
  2
VPORT
  5
8
330
0
100
AcDbSymbolTable
 70
     3
  0
VPORT
  5
747
330
8
100
AcDbSymbolTableRecord
100
AcDbViewportTableRecord
  2
*Active
 70
     0
 10
0.0
 20
0.0
 11
1.0
 21
1.0
 12
0.0
 22
0.0
 13
0.0
 23
0.0
 14
0.5
 24
0.5
 15
1.0
 25
1.0
 16
0.0
 26
0.0
 36
1.0
 17
400.0000000000002
 27
350.0
 37
0.0
 40
705.072463768116
 41
1.489721886336154
 42
50.0
 43
0.0
 44
0.0
 50
0.0
 51
0.0
 71
     0
 72
  2000
 73
     1
 74
     1
 75
     0
 76
     0
 77
     0
 78
     0
281
     0
 65
     0
110
0.0
120
0.0
130
0.0
111
1.0
121
0.0
131
0.0
112
0.0
122
1.0
132
0.0
 79
     0
146
0.0
  0
ENDTAB
  0
TABLE
  2
LTYPE
  5
5
330
0
100
AcDbSymbolTable
 70
    18
  0
LTYPE
  5
13
330
5
100
AcDbSymbolTableRecord
100
AcDbLinetypeTableRecord
  2
ByBlock
 70
     0
  3

 72
    65
 73
     0
 40
0.0
  0
LTYPE
  5
14
330
5
100
AcDbSymbolTableRecord
100
AcDbLinetypeTableRecord
  2
ByLayer
 70
     0
  3

 72
    65
 73
     0
 40
0.0
  0
LTYPE
  5
15
330
5
100
AcDbSymbolTableRecord
100
AcDbLinetypeTableRecord
  2
CONTINUOUS
 70
     0
  3
Solid line
 72
    65
 73
     0
 40
0.0
  0
LTYPE
  5
24
330
5
100
AcDbSymbolTableRecord
100
AcDbLinetypeTableRecord
  2
ITTEN1
 70
     0
  3

 72
    65
 73
     4
 40
8.199999999999999
 49
5.0
 74
     0
 49
-1.0
 74
     0
 49
1.199999999999999
 74
     0
 49
-1.0
 74
     0
  0
LTYPE
  5
25
330
5
100
AcDbSymbolTableRecord
100
AcDbLinetypeTableRecord
  2
TENSEN2
 70
     0
  3

 72
    65
 73
     2
 40
2.1
 49
1.5
 74
     0
 49
-0.6
 74
     0
  0
LTYPE
  5
114
330
5
100
AcDbSymbolTableRecord
100
AcDbLinetypeTableRecord
  2
HIDDEN
 70
     0
  3
Hidden __ __ __ __ __ __ __ __ __ __ __ __ __ _
 72
    65
 73
     2
 40
0.375
 49
0.25
 74
     0
 49
-0.125
 74
     0
  0
LTYPE
  5
115
330
5
100
AcDbSymbolTableRecord
100
AcDbLinetypeTableRecord
  2
PHANTOM2
 70
     0
  3
Phantom (.5x) ___ _ _ ___ _ _ ___ _ _ ___ _ _
 72
    65
 73
     6
 40
1.25
 49
0.625
 74
     0
 49
-0.125
 74
     0
 49
0.125
 74
     0
 49
-0.125
 74
     0
 49
0.125
 74
     0
 49
-0.125
 74
     0
  0
LTYPE
  5
116
330
5
100
AcDbSymbolTableRecord
100
AcDbLinetypeTableRecord
  2
CENTER
 70
     0
  3
Center ____ _ ____ _ ____ _ ____ _ ____ _ ____
 72
    65
 73
     4
 40
2.0
 49
1.25
 74
     0
 49
-0.25
 74
     0
 49
0.25
 74
     0
 49
-0.25
 74
     0
  0
LTYPE
  5
178
330
5
100
AcDbSymbolTableRecord
100
AcDbLinetypeTableRecord
  2
ASULTYPE
 70
     0
  3
実線
 72
    65
 73
     2
 40
3.0
 49
2.5
 74
     0
 49
0.5
 74
     0
  0
LTYPE
  5
179
330
5
100
AcDbSymbolTableRecord
100
AcDbLinetypeTableRecord
  2
ASVLTYPE
 70
     0
  3
__ __ __ __ __ __ __ __ __ __ __ __ __ __ __ __ __ __ __ __ __
 72
    65
 73
     2
 40
0.75
 49
0.5
 74
     0
 49
-0.25
 74
     0
  0
LTYPE
  5
1BA
330
5
100
AcDbSymbolTableRecord
100
AcDbLinetypeTableRecord
  2
AM_ISO02W050
 70
     0
  3
__ __ __ __ __ __ __ __ __ __ __ __ __ __ __
 72
    65
 73
     2
 40
7.5
 49
6.0
 74
     0
 49
-1.5
 74
     0
  0
LTYPE
  5
1BB
330
5
100
AcDbSymbolTableRecord
100
AcDbLinetypeTableRecord
  2
AM_ISO08W050
 70
     0
  3
____ . ____ . ____ . ____ . ____ . ____ . ____
 72
    65
 73
     4
 40
18.0
 49
12.0
 74
     0
 49
-1.5
 74
     0
 49
3.0
 74
     0
 49
-1.5
 74
     0
  0
LTYPE
  5
1BC
330
5
100
AcDbSymbolTableRecord
100
AcDbLinetypeTableRecord
  2
AM_ISO09W050
 70
     0
  3
_____ . . _____ . . _____ . . ____ .. ____
 72
    65
 73
     6
 40
22.5
 49
12.0
 74
     0
 49
-1.5
 74
     0
 49
3.0
 74
     0
 49
-1.5
 74
     0
 49
3.0
 74
     0
 49
-1.5
 74
     0
  0
LTYPE
  5
1BD
330
5
100
AcDbSymbolTableRecord
100
AcDbLinetypeTableRecord
  2
Amconstr
 70
     0
  3
_______________________
 72
    65
 73
     2
 40
9999.0
 49
9999.0
 74
     0
 49
0.0
 74
     0
  0
LTYPE
  5
1BE
330
5
100
AcDbSymbolTableRecord
100
AcDbLinetypeTableRecord
  2
AM_ISO08W050x2
 70
     0
  3
__ . __ . __ . __ . __ . __
 72
    65
 73
     4
 40
9.0
 49
6.0
 74
     0
 49
-0.75
 74
     0
 49
1.5
 74
     0
 49
-0.75
 74
     0
  0
LTYPE
  5
1BF
330
5
100
AcDbSymbolTableRecord
100
AcDbLinetypeTableRecord
  2
AM_ISO02W050x2
 70
     0
  3
 _ _ _ _ _ _ _ _ _ _ _ _
 72
    65
 73
     2
 40
3.75
 49
3.0
 74
     0
 49
-0.75
 74
     0
  0
LTYPE
  5
1C2
330
5
100
AcDbSymbolTableRecord
100
AcDbLinetypeTableRecord
  2
Amzigzag
 70
     0
  3
/\/-/\/-/\/-/\/-/\/-/\/
 72
    65
 73
     2
 40
11.00009999999999
 49
0.0001
 74
     4
 75
   135
340
1C1
 46
0.04
 50
0.0
 44
0.0
 45
0.0
 49
-11.0
 74
     0
  0
LTYPE
  5
1C3
330
5
100
AcDbSymbolTableRecord
100
AcDbLinetypeTableRecord
  2
CENTER2
 70
     0
  3
Center (.5x) ___ _ ___ _ ___ _ ___ _ ___ _ ___
 72
    65
 73
     4
 40
1.125
 49
0.75
 74
     0
 49
-0.125
 74
     0
 49
0.125
 74
     0
 49
-0.125
 74
     0
  0
LTYPE
  5
1C4
330
5
100
AcDbSymbolTableRecord
100
AcDbLinetypeTableRecord
  2
HIDDEN2
 70
     0
  3
Hidden (.5x) _ _ _ _ _ _ _ _ _ _ _ _ _ _ _ _ _
 72
    65
 73
     2
 40
0.1875
 49
0.125
 74
     0
 49
-0.0625
 74
     0
  0
LTYPE
  5
1C5
330
5
100
AcDbSymbolTableRecord
100
AcDbLinetypeTableRecord
  2
Amzigzag2
 70
     0
  3
/\/-/\/-/\/-/\/-/\/-/\/
 72
    65
 73
     2
 40
0.4401
 49
0.0001
 74
     4
 75
   135
340
1C1
 46
0.0016
 50
0.0
 44
0.0
 45
0.0
 49
-0.4400000000000002
 74
     0
  0
ENDTAB
  0
TABLE
  2
LAYER
  5
2
330
0
100
AcDbSymbolTable
 70
     7
  0
LAYER
  5
10
330
2
100
AcDbSymbolTableRecord
100
AcDbLayerTableRecord
  2
0
 70
     0
 62
     7
  6
CONTINUOUS
370
    -3
390
F
  0
LAYER
  5
26
330
2
100
AcDbSymbolTableRecord
100
AcDbLayerTableRecord
  2
1
 70
     0
 62
     1
  6
ITTEN1
370
    -3
390
F
  0
LAYER
  5
27
330
2
100
AcDbSymbolTableRecord
100
AcDbLayerTableRecord
  2
2
 70
     0
 62
     2
  6
TENSEN2
370
    -3
390
F
  0
LAYER
  5
28
330
2
100
AcDbSymbolTableRecord
100
AcDbLayerTableRecord
  2
3
 70
     0
 62
     3
  6
CONTINUOUS
370
    -3
390
F
  0
LAYER
  5
1CF
330
2
100
AcDbSymbolTableRecord
100
AcDbLayerTableRecord
  2
Defpoints
 70
     0
 62
     7
  6
CONTINUOUS
290
     0
370
    -3
390
F
  0
LAYER
  5
2A1
330
2
100
AcDbSymbolTableRecord
100
AcDbLayerTableRecord
  2
4
 70
     0
 62
     6
  6
CONTINUOUS
370
    -3
390
F
  0
LAYER
  5
2A2
330
2
100
AcDbSymbolTableRecord
100
AcDbLayerTableRecord
  2
5
 70
     0
 62
     6
  6
TENSEN2
370
    -3
390
F
  0
ENDTAB
  0
TABLE
  2
STYLE
  5
3
330
0
100
AcDbSymbolTable
 70
     3
  0
STYLE
  5
11
330
3
100
AcDbSymbolTableRecord
100
AcDbTextStyleTableRecord
  2
STANDARD
 70
     0
 40
0.0
 41
1.0
 50
0.0
 71
     0
 42
0.2
  3
txt
  4

  0
STYLE
  5
22
330
3
100
AcDbSymbolTableRecord
100
AcDbTextStyleTableRecord
  2
BIGFONT
 70
     0
 40
16.0
 41
0.8
 50
0.0
 71
     0
 42
16.0
  3

  4
bigfont
  0
STYLE
  5
1C1
330
3
100
AcDbSymbolTableRecord
100
AcDbTextStyleTableRecord
  2

 70
     1
 40
0.0
 41
1.0
 50
0.0
 71
     0
 42
16.0
  3
ltypeshp.shx
  4

  0
ENDTAB
  0
TABLE
  2
VIEW
  5
6
330
0
100
AcDbSymbolTable
 70
     0
  0
ENDTAB
  0
TABLE
  2
UCS
  5
7
330
0
100
AcDbSymbolTable
 70
     0
  0
ENDTAB
  0
TABLE
  2
APPID
  5
9
330
0
100
AcDbSymbolTable
 70
    12
  0
APPID
  5
12
330
9
100
AcDbSymbolTableRecord
100
AcDbRegAppTableRecord
  2
ACAD
 70
     0
  0
APPID
  5
F3
330
9
100
AcDbSymbolTableRecord
100
AcDbRegAppTableRecord
  2
GENIUS_GENDIM_13
 70
     0
  0
APPID
  5
F4
330
9
100
AcDbSymbolTableRecord
100
AcDbRegAppTableRecord
  2
GENIUS_GENDTOL_13
 70
     0
  0
APPID
  5
F5
330
9
100
AcDbSymbolTableRecord
100
AcDbRegAppTableRecord
  2
GENIUS_GE3DTOL_13
 70
     0
  0
APPID
  5
F7
330
9
100
AcDbSymbolTableRecord
100
AcDbRegAppTableRecord
  2
MCAD_NO_VIS
 70
     0
  0
APPID
  5
F8
330
9
100
AcDbSymbolTableRecord
100
AcDbRegAppTableRecord
  2
ACAD_TEMP_GRAPHIC
 70
     0
  0
APPID
  5
12B
330
9
100
AcDbSymbolTableRecord
100
AcDbRegAppTableRecord
  2
AD_DRAW
 70
     0
  0
APPID
  5
12E
330
9
100
AcDbSymbolTableRecord
100
AcDbRegAppTableRecord
  2
ACATTRIBSERVICES
 70
     0
  0
APPID
  5
17A
330
9
100
AcDbSymbolTableRecord
100
AcDbRegAppTableRecord
  2
ASURF_PCURVE_APPNAME
 70
     0
  0
APPID
  5
1A9
330
9
100
AcDbSymbolTableRecord
100
AcDbRegAppTableRecord
  2
DESIGNERASSEMBLIES
 70
     0
  0
APPID
  5
1B1
330
9
100
AcDbSymbolTableRecord
100
AcDbRegAppTableRecord
  2
ACADM_DIM_EDIT
 70
     0
  0
APPID
  5
1B2
330
9
100
AcDbSymbolTableRecord
100
AcDbRegAppTableRecord
  2
AMDT_DM_ADJ
 70
     0
  0
ENDTAB
  0
TABLE
  2
DIMSTYLE
  5
A
330
0
100
AcDbSymbolTable
 70
     1
100
AcDbDimStyleTable
 71
     1
340
29
  0
DIMSTYLE
105
29
330
A
100
AcDbSymbolTableRecord
100
AcDbDimStyleTableRecord
  2
STANDARD
 70
     0
279
     2
340
22
  0
ENDTAB
  0
TABLE
  2
BLOCK_RECORD
  5
1
330
0
100
AcDbSymbolTable
 70
    14
  0
BLOCK_RECORD
  5
1E
102
{ACAD_XDICTIONARY
360
292
102
}
330
1
100
AcDbSymbolTableRecord
100
AcDbBlockTableRecord
  2
*Model_Space
340
21
  0
BLOCK_RECORD
  5
1A
330
1
100
AcDbSymbolTableRecord
100
AcDbBlockTableRecord
  2
*Paper_Space
340
1D
  0
BLOCK_RECORD
  5
1A0
330
1
100
AcDbSymbolTableRecord
100
AcDbBlockTableRecord
  2
*U0
340
0
  0
BLOCK_RECORD
  5
1D0
330
1
100
AcDbSymbolTableRecord
100
AcDbBlockTableRecord
  2
*D1
340
0
  0
BLOCK_RECORD
  5
1DE
330
1
100
AcDbSymbolTableRecord
100
AcDbBlockTableRecord
  2
*D2
340
0
  0
BLOCK_RECORD
  5
1EC
330
1
100
AcDbSymbolTableRecord
100
AcDbBlockTableRecord
  2
*D3
340
0
  0
BLOCK_RECORD
  5
1FA
330
1
100
AcDbSymbolTableRecord
100
AcDbBlockTableRecord
  2
*D4
340
0
  0
BLOCK_RECORD
  5
20D
330
1
100
AcDbSymbolTableRecord
100
AcDbBlockTableRecord
  2
*D5
340
0
  0
BLOCK_RECORD
  5
222
330
1
100
AcDbSymbolTableRecord
100
AcDbBlockTableRecord
  2
*D6
340
0
  0
BLOCK_RECORD
  5
248
330
1
100
AcDbSymbolTableRecord
100
AcDbBlockTableRecord
  2
*D7
340
0
  0
BLOCK_RECORD
  5
5BB
330
1
100
AcDbSymbolTableRecord
100
AcDbBlockTableRecord
  2
*D8
340
0
  0
BLOCK_RECORD
  5
5C9
330
1
100
AcDbSymbolTableRecord
100
AcDbBlockTableRecord
  2
*D9
340
0
  0
BLOCK_RECORD
  5
658
330
1
100
AcDbSymbolTableRecord
100
AcDbBlockTableRecord
  2
*D10
340
0
  0
BLOCK_RECORD
  5
666
330
1
100
AcDbSymbolTableRecord
100
AcDbBlockTableRecord
  2
*D11
340
0
  0
BLOCK_RECORD
  5
674
330
1
100
AcDbSymbolTableRecord
100
AcDbBlockTableRecord
  2
*D12
340
0
  0
BLOCK_RECORD
  5
72F
330
1
100
AcDbSymbolTableRecord
100
AcDbBlockTableRecord
  2
*U13
340
0
  0
ENDTAB
  0
ENDSEC
  0
SECTION
  2
BLOCKS
  0
BLOCK
  5
1F
330
1E
100
AcDbEntity
  8
0
100
AcDbBlockBegin
  2
*Model_Space
 70
     0
 10
0.0
 20
0.0
 30
0.0
  3
*Model_Space
  1

  0
ENDBLK
  5
20
330
1E
100
AcDbEntity
  8
0
100
AcDbBlockEnd
  0
BLOCK
  5
1B
330
1A
100
AcDbEntity
 67
     1
  8
0
100
AcDbBlockBegin
  2
*Paper_Space
 70
     0
 10
0.0
 20
0.0
 30
0.0
  3
*Paper_Space
  1

  0
ENDBLK
  5
1C
330
1A
100
AcDbEntity
 67
     1
  8
0
100
AcDbBlockEnd
  0
BLOCK
  5
1A1
330
1A0
100
AcDbEntity
  8
0
100
AcDbBlockBegin
  2
*U0
 70
     1
 10
0.0
 20
0.0
 30
0.0
  3
*U0
  1

  0
ENDBLK
  5
1A2
330
1A0
100
AcDbEntity
  8
0
100
AcDbBlockEnd
  0
BLOCK
  5
1DB
330
1D0
100
AcDbEntity
  8
0
100
AcDbBlockBegin
  2
*D1
 70
     1
 10
0.0
 20
0.0
 30
0.0
  3
*D1
  1

  0
LINE
  5
1D1
330
1D0
100
AcDbEntity
  8
0
 62
     0
370
    -2
100
AcDbLine
 10
656.0624999999999
 20
440.4999999999998
 30
0.0
 11
731.4066474320108
 21
440.4999999999998
 31
0.0
  0
LINE
  5
1D2
330
1D0
100
AcDbEntity
  8
0
 62
     0
370
    -2
100
AcDbLine
 10
656.0624999999999
 20
261.0
 30
0.0
 11
731.4066474320108
 21
261.0
 31
0.0
  0
LINE
  5
1D3
330
1D0
100
AcDbEntity
  8
0
 62
     0
370
    -2
100
AcDbLine
 10
731.2266474320108
 20
440.3199999999998
 30
0.0
 11
731.2266474320108
 21
350.9299999999998
 31
0.0
  0
LINE
  5
1D4
330
1D0
100
AcDbEntity
  8
0
 62
     0
370
    -2
100
AcDbLine
 10
731.2266474320108
 20
261.18
 30
0.0
 11
731.2266474320108
 21
350.5699999999998
 31
0.0
  0
SOLID
  5
1D5
330
1D0
100
AcDbEntity
  8
0
 62
     0
100
AcDbTrace
 10
731.1966474320107
 20
440.3199999999998
 30
0.0
 11
731.2566474320107
 21
440.3199999999998
 31
0.0
 12
731.2266474320108
 22
440.4999999999998
 32
0.0
 13
731.2266474320108
 23
440.4999999999998
 33
0.0
  0
SOLID
  5
1D6
330
1D0
100
AcDbEntity
  8
0
 62
     0
100
AcDbTrace
 10
731.1966474320107
 20
261.18
 30
0.0
 11
731.2566474320107
 21
261.18
 31
0.0
 12
731.2266474320108
 22
261.0
 32
0.0
 13
731.2266474320108
 23
261.0
 33
0.0
  0
MTEXT
  5
1D7
330
1D0
100
AcDbEntity
  8
0
 62
     0
100
AcDbMText
 10
731.2266474320106
 20
350.75
 30
0.0
 40
0.18
 41
0.0
 71
     5
 72
     1
  1
\A1;179.5000
 73
     1
 44
1.0
  0
POINT
  5
1D8
330
1D0
100
AcDbEntity
  8
Defpoints
 62
     0
100
AcDbPoint
 10
656.0
 20
440.4999999999998
 30
0.0
  0
POINT
  5
1D9
330
1D0
100
AcDbEntity
  8
Defpoints
 62
     0
100
AcDbPoint
 10
656.0
 20
261.0
 30
0.0
  0
POINT
  5
1DA
330
1D0
100
AcDbEntity
  8
Defpoints
 62
     0
100
AcDbPoint
 10
731.2266474320108
 20
261.0
 30
0.0
  0
ENDBLK
  5
1DC
330
1D0
100
AcDbEntity
  8
0
100
AcDbBlockEnd
  0
BLOCK
  5
1E9
330
1DE
100
AcDbEntity
  8
0
100
AcDbBlockBegin
  2
*D2
 70
     1
 10
0.0
 20
0.0
 30
0.0
  3
*D2
  1

  0
LINE
  5
1DF
330
1DE
100
AcDbEntity
  8
0
 62
     0
370
    -2
100
AcDbLine
 10
678.5
 20
418.0624999999998
 30
0.0
 11
678.5
 21
490.8446679004224
 31
0.0
  0
LINE
  5
1E0
330
1DE
100
AcDbEntity
  8
0
 62
     0
370
    -2
100
AcDbLine
 10
633.4999999999999
 20
418.0624999999998
 30
0.0
 11
633.4999999999999
 21
490.8446679004224
 31
0.0
  0
LINE
  5
1E1
330
1DE
100
AcDbEntity
  8
0
 62
     0
370
    -2
100
AcDbLine
 10
678.32
 20
490.6646679004224
 30
0.0
 11
656.57
 21
490.6646679004224
 31
0.0
  0
LINE
  5
1E2
330
1DE
100
AcDbEntity
  8
0
 62
     0
370
    -2
100
AcDbLine
 10
633.6799999999998
 20
490.6646679004224
 30
0.0
 11
655.4299999999998
 21
490.6646679004224
 31
0.0
  0
SOLID
  5
1E3
330
1DE
100
AcDbEntity
  8
0
 62
     0
100
AcDbTrace
 10
678.32
 20
490.6946679004225
 30
0.0
 11
678.32
 21
490.6346679004226
 31
0.0
 12
678.5
 22
490.6646679004224
 32
0.0
 13
678.5
 23
490.6646679004224
 33
0.0
  0
SOLID
  5
1E4
330
1DE
100
AcDbEntity
  8
0
 62
     0
100
AcDbTrace
 10
633.6799999999998
 20
490.6946679004225
 30
0.0
 11
633.6799999999998
 21
490.6346679004226
 31
0.0
 12
633.4999999999999
 22
490.6646679004224
 32
0.0
 13
633.4999999999999
 23
490.6646679004224
 33
0.0
  0
MTEXT
  5
1E5
330
1DE
100
AcDbEntity
  8
0
 62
     0
100
AcDbMText
 10
656.0
 20
490.6646679004224
 30
0.0
 40
0.18
 41
0.0
 71
     5
 72
     1
  1
\A1;45.0000
 73
     1
 44
1.0
  0
POINT
  5
1E6
330
1DE
100
AcDbEntity
  8
Defpoints
 62
     0
100
AcDbPoint
 10
678.5
 20
417.9999999999997
 30
0.0
  0
POINT
  5
1E7
330
1DE
100
AcDbEntity
  8
Defpoints
 62
     0
100
AcDbPoint
 10
633.4999999999999
 20
417.9999999999997
 30
0.0
  0
POINT
  5
1E8
330
1DE
100
AcDbEntity
  8
Defpoints
 62
     0
100
AcDbPoint
 10
633.4999999999999
 20
490.6646679004224
 30
0.0
  0
ENDBLK
  5
1EA
330
1DE
100
AcDbEntity
  8
0
100
AcDbBlockEnd
  0
BLOCK
  5
1F7
330
1EC
100
AcDbEntity
  8
0
100
AcDbBlockBegin
  2
*D3
 70
     1
 10
0.0
 20
0.0
 30
0.0
  3
*D3
  1

  0
LINE
  5
1ED
330
1EC
100
AcDbEntity
  8
0
 62
     0
370
    -2
100
AcDbLine
 10
691.0625
 20
417.9999999999997
 30
0.0
 11
706.5388117238276
 21
417.9999999999997
 31
0.0
  0
LINE
  5
1EE
330
1EC
100
AcDbEntity
  8
0
 62
     0
370
    -2
100
AcDbLine
 10
656.0624999999999
 20
261.0
 30
0.0
 11
706.5388117238276
 21
261.0
 31
0.0
  0
LINE
  5
1EF
330
1EC
100
AcDbEntity
  8
0
 62
     0
370
    -2
100
AcDbLine
 10
706.3588117238277
 20
417.8199999999998
 30
0.0
 11
706.3588117238277
 21
339.6799999999998
 31
0.0
  0
LINE
  5
1F0
330
1EC
100
AcDbEntity
  8
0
 62
     0
370
    -2
100
AcDbLine
 10
706.3588117238277
 20
261.18
 30
0.0
 11
706.3588117238277
 21
339.3199999999998
 31
0.0
  0
SOLID
  5
1F1
330
1EC
100
AcDbEntity
  8
0
 62
     0
100
AcDbTrace
 10
706.3288117238276
 20
417.8199999999998
 30
0.0
 11
706.3888117238276
 21
417.8199999999998
 31
0.0
 12
706.3588117238277
 22
417.9999999999997
 32
0.0
 13
706.3588117238277
 23
417.9999999999997
 33
0.0
  0
SOLID
  5
1F2
330
1EC
100
AcDbEntity
  8
0
 62
     0
100
AcDbTrace
 10
706.3288117238276
 20
261.18
 30
0.0
 11
706.3888117238276
 21
261.18
 31
0.0
 12
706.3588117238277
 22
261.0
 32
0.0
 13
706.3588117238277
 23
261.0
 33
0.0
  0
MTEXT
  5
1F3
330
1EC
100
AcDbEntity
  8
0
 62
     0
100
AcDbMText
 10
706.3588117238275
 20
339.5
 30
0.0
 40
0.18
 41
0.0
 71
     5
 72
     1
  1
\A1;157.0000
 73
     1
 44
1.0
  0
POINT
  5
1F4
330
1EC
100
AcDbEntity
  8
Defpoints
 62
     0
100
AcDbPoint
 10
691.0
 20
417.9999999999997
 30
0.0
  0
POINT
  5
1F5
330
1EC
100
AcDbEntity
  8
Defpoints
 62
     0
100
AcDbPoint
 10
656.0
 20
261.0
 30
0.0
  0
POINT
  5
1F6
330
1EC
100
AcDbEntity
  8
Defpoints
 62
     0
100
AcDbPoint
 10
706.3588117238277
 20
261.0
 30
0.0
  0
ENDBLK
  5
1F8
330
1EC
100
AcDbEntity
  8
0
100
AcDbBlockEnd
  0
BLOCK
  5
205
330
1FA
100
AcDbEntity
  8
0
100
AcDbBlockBegin
  2
*D4
 70
     1
 10
0.0
 20
0.0
 30
0.0
  3
*D4
  1

  0
LINE
  5
1FB
330
1FA
100
AcDbEntity
  8
0
 62
     0
370
    -2
100
AcDbLine
 10
655.9375
 20
440.9999999999998
 30
0.0
 11
577.580862008495
 21
441.0
 31
0.0
  0
LINE
  5
1FC
330
1FA
100
AcDbEntity
  8
0
 62
     0
370
    -2
100
AcDbLine
 10
655.9375
 20
261.0
 30
0.0
 11
577.580862008495
 21
261.0
 31
0.0
  0
LINE
  5
1FD
330
1FA
100
AcDbEntity
  8
0
 62
     0
370
    -2
100
AcDbLine
 10
577.7608620084951
 20
440.8199999999998
 30
0.0
 11
577.7608620084951
 21
351.18
 31
0.0
  0
LINE
  5
1FE
330
1FA
100
AcDbEntity
  8
0
 62
     0
370
    -2
100
AcDbLine
 10
577.7608620084951
 20
261.18
 30
0.0
 11
577.7608620084951
 21
350.8199999999998
 31
0.0
  0
SOLID
  5
1FF
330
1FA
100
AcDbEntity
  8
0
 62
     0
100
AcDbTrace
 10
577.7308620084951
 20
440.8199999999998
 30
0.0
 11
577.7908620084949
 21
440.8199999999998
 31
0.0
 12
577.7608620084951
 22
441.0
 32
0.0
 13
577.7608620084951
 23
441.0
 33
0.0
  0
SOLID
  5
200
330
1FA
100
AcDbEntity
  8
0
 62
     0
100
AcDbTrace
 10
577.7308620084951
 20
261.18
 30
0.0
 11
577.7908620084949
 21
261.18
 31
0.0
 12
577.7608620084951
 22
261.0
 32
0.0
 13
577.7608620084951
 23
261.0
 33
0.0
  0
MTEXT
  5
201
330
1FA
100
AcDbEntity
  8
0
 62
     0
100
AcDbMText
 10
577.760862008495
 20
351.0
 30
0.0
 40
0.18
 41
0.0
 71
     5
 72
     1
  1
\A1;180.0000
 73
     1
 44
1.0
  0
POINT
  5
202
330
1FA
100
AcDbEntity
  8
Defpoints
 62
     0
100
AcDbPoint
 10
656.0
 20
440.9999999999998
 30
0.0
  0
POINT
  5
203
330
1FA
100
AcDbEntity
  8
Defpoints
 62
     0
100
AcDbPoint
 10
656.0
 20
261.0
 30
0.0
  0
POINT
  5
204
330
1FA
100
AcDbEntity
  8
Defpoints
 62
     0
100
AcDbPoint
 10
577.7608620084951
 20
261.0
 30
0.0
  0
ENDBLK
  5
206
330
1FA
100
AcDbEntity
  8
0
100
AcDbBlockEnd
  0
BLOCK
  5
218
330
20D
100
AcDbEntity
  8
0
100
AcDbBlockBegin
  2
*D5
 70
     1
 10
0.0
 20
0.0
 30
0.0
  3
*D5
  1

  0
LINE
  5
20E
330
20D
100
AcDbEntity
  8
0
 62
     0
370
    -2
100
AcDbLine
 10
675.4999999999999
 20
280.4374999999999
 30
0.0
 11
675.4999999999999
 21
234.6903262812228
 31
0.0
  0
LINE
  5
20F
330
20D
100
AcDbEntity
  8
0
 62
     0
370
    -2
100
AcDbLine
 10
636.5
 20
280.4374999999999
 30
0.0
 11
636.5
 21
234.6903262812228
 31
0.0
  0
LINE
  5
210
330
20D
100
AcDbEntity
  8
0
 62
     0
370
    -2
100
AcDbLine
 10
675.32
 20
234.8703262812227
 30
0.0
 11
656.57
 21
234.8703262812227
 31
0.0
  0
LINE
  5
211
330
20D
100
AcDbEntity
  8
0
 62
     0
370
    -2
100
AcDbLine
 10
636.6799999999998
 20
234.8703262812227
 30
0.0
 11
655.4299999999998
 21
234.8703262812227
 31
0.0
  0
SOLID
  5
212
330
20D
100
AcDbEntity
  8
0
 62
     0
100
AcDbTrace
 10
675.32
 20
234.9003262812228
 30
0.0
 11
675.32
 21
234.8403262812228
 31
0.0
 12
675.4999999999999
 22
234.8703262812227
 32
0.0
 13
675.4999999999999
 23
234.8703262812227
 33
0.0
  0
SOLID
  5
213
330
20D
100
AcDbEntity
  8
0
 62
     0
100
AcDbTrace
 10
636.6799999999998
 20
234.9003262812228
 30
0.0
 11
636.6799999999998
 21
234.8403262812228
 31
0.0
 12
636.5
 22
234.8703262812227
 32
0.0
 13
636.5
 23
234.8703262812227
 33
0.0
  0
MTEXT
  5
214
330
20D
100
AcDbEntity
  8
0
 62
     0
100
AcDbMText
 10
656.0
 20
234.8703262812227
 30
0.0
 40
0.18
 41
0.0
 71
     5
 72
     1
  1
\A1;39.0000
 73
     1
 44
1.0
  0
POINT
  5
215
330
20D
100
AcDbEntity
  8
Defpoints
 62
     0
100
AcDbPoint
 10
675.4999999999999
 20
280.5
 30
0.0
  0
POINT
  5
216
330
20D
100
AcDbEntity
  8
Defpoints
 62
     0
100
AcDbPoint
 10
636.5
 20
280.5
 30
0.0
  0
POINT
  5
217
330
20D
100
AcDbEntity
  8
Defpoints
 62
     0
100
AcDbPoint
 10
636.5
 20
234.8703262812227
 30
0.0
  0
ENDBLK
  5
219
330
20D
100
AcDbEntity
  8
0
100
AcDbBlockEnd
  0
BLOCK
  5
22D
330
222
100
AcDbEntity
  8
0
100
AcDbBlockBegin
  2
*D6
 70
     1
 10
0.0
 20
0.0
 30
0.0
  3
*D6
  1

  0
LINE
  5
223
330
222
100
AcDbEntity
  8
0
 62
     0
370
    -2
100
AcDbLine
 10
691.0625
 20
417.9999999999997
 30
0.0
 11
704.7576758250007
 21
417.9999999999997
 31
0.0
  0
LINE
  5
224
330
222
100
AcDbEntity
  8
0
 62
     0
370
    -2
100
AcDbLine
 10
656.0624999999999
 20
260.4999999999999
 30
0.0
 11
704.7576758250007
 21
260.4999999999999
 31
0.0
  0
LINE
  5
225
330
222
100
AcDbEntity
  8
0
 62
     0
370
    -2
100
AcDbLine
 10
704.5776758250005
 20
417.8199999999998
 30
0.0
 11
704.5776758250005
 21
339.4299999999998
 31
0.0
  0
LINE
  5
226
330
222
100
AcDbEntity
  8
0
 62
     0
370
    -2
100
AcDbLine
 10
704.5776758250005
 20
260.68
 30
0.0
 11
704.5776758250005
 21
339.0699999999998
 31
0.0
  0
SOLID
  5
227
330
222
100
AcDbEntity
  8
0
 62
     0
100
AcDbTrace
 10
704.5476758250007
 20
417.8199999999998
 30
0.0
 11
704.6076758250007
 21
417.8199999999998
 31
0.0
 12
704.5776758250005
 22
417.9999999999997
 32
0.0
 13
704.5776758250005
 23
417.9999999999997
 33
0.0
  0
SOLID
  5
228
330
222
100
AcDbEntity
  8
0
 62
     0
100
AcDbTrace
 10
704.5476758250007
 20
260.68
 30
0.0
 11
704.6076758250007
 21
260.68
 31
0.0
 12
704.5776758250005
 22
260.4999999999999
 32
0.0
 13
704.5776758250005
 23
260.4999999999999
 33
0.0
  0
MTEXT
  5
229
330
222
100
AcDbEntity
  8
0
 62
     0
100
AcDbMText
 10
704.5776758250005
 20
339.25
 30
0.0
 40
0.18
 41
0.0
 71
     5
 72
     1
  1
\A1;157.5000
 73
     1
 44
1.0
  0
POINT
  5
22A
330
222
100
AcDbEntity
  8
Defpoints
 62
     0
100
AcDbPoint
 10
691.0
 20
417.9999999999997
 30
0.0
  0
POINT
  5
22B
330
222
100
AcDbEntity
  8
Defpoints
 62
     0
100
AcDbPoint
 10
656.0
 20
260.4999999999999
 30
0.0
  0
POINT
  5
22C
330
222
100
AcDbEntity
  8
Defpoints
 62
     0
100
AcDbPoint
 10
704.5776758250005
 20
260.4999999999999
 30
0.0
  0
ENDBLK
  5
22E
330
222
100
AcDbEntity
  8
0
100
AcDbBlockEnd
  0
BLOCK
  5
253
330
248
100
AcDbEntity
  8
0
100
AcDbBlockBegin
  2
*D7
 70
     1
 10
0.0
 20
0.0
 30
0.0
  3
*D7
  1

  0
LINE
  5
249
330
248
100
AcDbEntity
  8
0
 62
     0
370
    -2
100
AcDbLine
 10
656.0624999999999
 20
441.0
 30
0.0
 11
766.002139222598
 21
441.0
 31
0.0
  0
LINE
  5
24A
330
248
100
AcDbEntity
  8
0
 62
     0
370
    -2
100
AcDbLine
 10
656.0624999999999
 20
261.0
 30
0.0
 11
766.002139222598
 21
261.0
 31
0.0
  0
LINE
  5
24B
330
248
100
AcDbEntity
  8
0
 62
     0
370
    -2
100
AcDbLine
 10
765.8221392225981
 20
440.8199999999998
 30
0.0
 11
765.8221392225981
 21
351.18
 31
0.0
  0
LINE
  5
24C
330
248
100
AcDbEntity
  8
0
 62
     0
370
    -2
100
AcDbLine
 10
765.8221392225981
 20
261.18
 30
0.0
 11
765.8221392225981
 21
350.8199999999999
 31
0.0
  0
SOLID
  5
24D
330
248
100
AcDbEntity
  8
0
 62
     0
100
AcDbTrace
 10
765.7921392225981
 20
440.8199999999998
 30
0.0
 11
765.852139222598
 21
440.8199999999998
 31
0.0
 12
765.8221392225981
 22
441.0
 32
0.0
 13
765.8221392225981
 23
441.0
 33
0.0
  0
SOLID
  5
24E
330
248
100
AcDbEntity
  8
0
 62
     0
100
AcDbTrace
 10
765.7921392225981
 20
261.18
 30
0.0
 11
765.852139222598
 21
261.18
 31
0.0
 12
765.8221392225981
 22
261.0
 32
0.0
 13
765.8221392225981
 23
261.0
 33
0.0
  0
MTEXT
  5
24F
330
248
100
AcDbEntity
  8
0
 62
     0
100
AcDbMText
 10
765.8221392225978
 20
351.0000000000001
 30
0.0
 40
0.18
 41
0.0
 71
     5
 72
     1
  1
\A1;180.0000
 73
     1
 44
1.0
  0
POINT
  5
250
330
248
100
AcDbEntity
  8
Defpoints
 62
     0
100
AcDbPoint
 10
656.0
 20
441.0
 30
0.0
  0
POINT
  5
251
330
248
100
AcDbEntity
  8
Defpoints
 62
     0
100
AcDbPoint
 10
656.0
 20
261.0
 30
0.0
  0
POINT
  5
252
330
248
100
AcDbEntity
  8
Defpoints
 62
     0
100
AcDbPoint
 10
765.8221392225981
 20
261.0
 30
0.0
  0
ENDBLK
  5
254
330
248
100
AcDbEntity
  8
0
100
AcDbBlockEnd
  0
BLOCK
  5
5C6
330
5BB
100
AcDbEntity
  8
0
100
AcDbBlockBegin
  2
*D8
 70
     1
 10
0.0
 20
0.0
 30
0.0
  3
*D8
  1

  0
LINE
  5
5BC
330
5BB
100
AcDbEntity
  8
0
 62
     0
370
    -2
100
AcDbLine
 10
457.9363711048269
 20
115.3223576055998
 30
0.0
 11
457.9363711048269
 21
96.37491038967517
 31
0.0
  0
LINE
  5
5BD
330
5BB
100
AcDbEntity
  8
0
 62
     0
370
    -2
100
AcDbLine
 10
443.4363711048269
 20
114.3223576055998
 30
0.0
 11
443.4363711048269
 21
96.37491038967517
 31
0.0
  0
LINE
  5
5BE
330
5BB
100
AcDbEntity
  8
0
 62
     0
370
    -2
100
AcDbLine
 10
457.7563711048268
 20
96.55491038967518
 30
0.0
 11
451.2413711048268
 21
96.55491038967518
 31
0.0
  0
LINE
  5
5BF
330
5BB
100
AcDbEntity
  8
0
 62
     0
370
    -2
100
AcDbLine
 10
443.6163711048268
 20
96.55491038967518
 30
0.0
 11
450.1313711048267
 21
96.55491038967518
 31
0.0
  0
SOLID
  5
5C0
330
5BB
100
AcDbEntity
  8
0
 62
     0
100
AcDbTrace
 10
457.7563711048268
 20
96.58491038967518
 30
0.0
 11
457.7563711048268
 21
96.52491038967518
 31
0.0
 12
457.9363711048269
 22
96.55491038967518
 32
0.0
 13
457.9363711048269
 23
96.55491038967518
 33
0.0
  0
SOLID
  5
5C1
330
5BB
100
AcDbEntity
  8
0
 62
     0
100
AcDbTrace
 10
443.6163711048268
 20
96.58491038967518
 30
0.0
 11
443.6163711048268
 21
96.52491038967518
 31
0.0
 12
443.4363711048269
 22
96.55491038967518
 32
0.0
 13
443.4363711048269
 23
96.55491038967518
 33
0.0
  0
MTEXT
  5
5C2
330
5BB
100
AcDbEntity
  8
0
 62
     0
100
AcDbMText
 10
450.6863711048269
 20
96.55491038967518
 30
0.0
 40
0.18
 41
0.0
 71
     5
 72
     1
  1
\A1;14.5000
 73
     1
 44
1.0
  0
POINT
  5
5C3
330
5BB
100
AcDbEntity
  8
Defpoints
 62
     0
100
AcDbPoint
 10
457.9363711048269
 20
115.3848576055997
 30
0.0
  0
POINT
  5
5C4
330
5BB
100
AcDbEntity
  8
Defpoints
 62
     0
100
AcDbPoint
 10
443.4363711048269
 20
114.3848576055997
 30
0.0
  0
POINT
  5
5C5
330
5BB
100
AcDbEntity
  8
Defpoints
 62
     0
100
AcDbPoint
 10
443.4363711048269
 20
96.55491038967518
 30
0.0
  0
ENDBLK
  5
5C7
330
5BB
100
AcDbEntity
  8
0
100
AcDbBlockEnd
  0
BLOCK
  5
5D4
330
5C9
100
AcDbEntity
  8
0
100
AcDbBlockBegin
  2
*D9
 70
     1
 10
0.0
 20
0.0
 30
0.0
  3
*D9
  1

  0
LINE
  5
5CA
330
5C9
100
AcDbEntity
  8
0
 62
     0
370
    -2
100
AcDbLine
 10
423.0624999999998
 20
150.9999999999998
 30
0.0
 11
481.897072702223
 21
150.9999999999998
 31
0.0
  0
LINE
  5
5CB
330
5C9
100
AcDbEntity
  8
0
 62
     0
370
    -2
100
AcDbLine
 10
423.0624999999998
 20
108.0
 30
0.0
 11
481.8970727022229
 21
107.9999999999998
 31
0.0
  0
LINE
  5
5CC
330
5C9
100
AcDbEntity
  8
0
 62
     0
370
    -2
100
AcDbLine
 10
481.7170727022229
 20
150.8199999999998
 30
0.0
 11
481.7170727022229
 21
129.6799999999999
 31
0.0
  0
LINE
  5
5CD
330
5C9
100
AcDbEntity
  8
0
 62
     0
370
    -2
100
AcDbLine
 10
481.7170727022229
 20
108.1799999999999
 30
0.0
 11
481.7170727022229
 21
129.3199999999999
 31
0.0
  0
SOLID
  5
5CE
330
5C9
100
AcDbEntity
  8
0
 62
     0
100
AcDbTrace
 10
481.6870727022229
 20
150.8199999999998
 30
0.0
 11
481.747072702223
 21
150.8199999999998
 31
0.0
 12
481.7170727022229
 22
150.9999999999998
 32
0.0
 13
481.7170727022229
 23
150.9999999999998
 33
0.0
  0
SOLID
  5
5CF
330
5C9
100
AcDbEntity
  8
0
 62
     0
100
AcDbTrace
 10
481.6870727022228
 20
108.1799999999999
 30
0.0
 11
481.7470727022229
 21
108.1799999999999
 31
0.0
 12
481.7170727022229
 22
107.9999999999998
 32
0.0
 13
481.7170727022229
 23
107.9999999999998
 33
0.0
  0
MTEXT
  5
5D0
330
5C9
100
AcDbEntity
  8
0
 62
     0
100
AcDbMText
 10
481.7170727022229
 20
129.4999999999999
 30
0.0
 40
0.18
 41
0.0
 71
     5
 72
     1
  1
\A1;43.0000
 73
     1
 44
1.0
  0
POINT
  5
5D1
330
5C9
100
AcDbEntity
  8
Defpoints
 62
     0
100
AcDbPoint
 10
423.0
 20
150.9999999999998
 30
0.0
  0
POINT
  5
5D2
330
5C9
100
AcDbEntity
  8
Defpoints
 62
     0
100
AcDbPoint
 10
423.0
 20
108.0
 30
0.0
  0
POINT
  5
5D3
330
5C9
100
AcDbEntity
  8
Defpoints
 62
     0
100
AcDbPoint
 10
481.7170727022229
 20
107.9999999999998
 30
0.0
  0
ENDBLK
  5
5D5
330
5C9
100
AcDbEntity
  8
0
100
AcDbBlockEnd
  0
BLOCK
  5
663
330
658
100
AcDbEntity
  8
0
100
AcDbBlockBegin
  2
*D10
 70
     1
 10
0.0
 20
0.0
 30
0.0
  3
*D10
  1

  0
LINE
  5
659
330
658
100
AcDbEntity
  8
0
 62
     0
370
    -2
100
AcDbLine
 10
423.0624999999998
 20
439.5
 30
0.0
 11
499.7295678341362
 21
439.5
 31
0.0
  0
LINE
  5
65A
330
658
100
AcDbEntity
  8
0
 62
     0
370
    -2
100
AcDbLine
 10
423.0624999999998
 20
398.0
 30
0.0
 11
499.7295678341362
 21
398.0
 31
0.0
  0
LINE
  5
65B
330
658
100
AcDbEntity
  8
0
 62
     0
370
    -2
100
AcDbLine
 10
499.549567834136
 20
439.32
 30
0.0
 11
499.549567834136
 21
418.93
 31
0.0
  0
LINE
  5
65C
330
658
100
AcDbEntity
  8
0
 62
     0
370
    -2
100
AcDbLine
 10
499.549567834136
 20
398.18
 30
0.0
 11
499.549567834136
 21
418.5699999999997
 31
0.0
  0
SOLID
  5
65D
330
658
100
AcDbEntity
  8
0
 62
     0
100
AcDbTrace
 10
499.5195678341361
 20
439.32
 30
0.0
 11
499.5795678341361
 21
439.32
 31
0.0
 12
499.549567834136
 22
439.5
 32
0.0
 13
499.549567834136
 23
439.5
 33
0.0
  0
SOLID
  5
65E
330
658
100
AcDbEntity
  8
0
 62
     0
100
AcDbTrace
 10
499.5195678341361
 20
398.18
 30
0.0
 11
499.5795678341361
 21
398.18
 31
0.0
 12
499.549567834136
 22
398.0
 32
0.0
 13
499.549567834136
 23
398.0
 33
0.0
  0
MTEXT
  5
65F
330
658
100
AcDbEntity
  8
0
 62
     0
100
AcDbMText
 10
499.5495678341359
 20
418.75
 30
0.0
 40
0.18
 41
0.0
 71
     5
 72
     1
  1
\A1;41.5000
 73
     1
 44
1.0
  0
POINT
  5
660
330
658
100
AcDbEntity
  8
Defpoints
 62
     0
100
AcDbPoint
 10
423.0
 20
439.5
 30
0.0
  0
POINT
  5
661
330
658
100
AcDbEntity
  8
Defpoints
 62
     0
100
AcDbPoint
 10
423.0
 20
398.0
 30
0.0
  0
POINT
  5
662
330
658
100
AcDbEntity
  8
Defpoints
 62
     0
100
AcDbPoint
 10
499.549567834136
 20
398.0
 30
0.0
  0
ENDBLK
  5
664
330
658
100
AcDbEntity
  8
0
100
AcDbBlockEnd
  0
BLOCK
  5
671
330
666
100
AcDbEntity
  8
0
100
AcDbBlockBegin
  2
*D11
 70
     1
 10
0.0
 20
0.0
 30
0.0
  3
*D11
  1

  0
LINE
  5
667
330
666
100
AcDbEntity
  8
0
 62
     0
370
    -2
100
AcDbLine
 10
423.0624999999998
 20
439.5
 30
0.0
 11
505.9691712752738
 21
439.5
 31
0.0
  0
LINE
  5
668
330
666
100
AcDbEntity
  8
0
 62
     0
370
    -2
100
AcDbLine
 10
472.5624999999998
 20
419.4999999999998
 30
0.0
 11
505.9691712752738
 21
419.4999999999998
 31
0.0
  0
LINE
  5
669
330
666
100
AcDbEntity
  8
0
 62
     0
370
    -2
100
AcDbLine
 10
505.7891712752738
 20
439.32
 30
0.0
 11
505.7891712752738
 21
429.68
 31
0.0
  0
LINE
  5
66A
330
666
100
AcDbEntity
  8
0
 62
     0
370
    -2
100
AcDbLine
 10
505.7891712752738
 20
419.6799999999998
 30
0.0
 11
505.7891712752738
 21
429.3199999999997
 31
0.0
  0
SOLID
  5
66B
330
666
100
AcDbEntity
  8
0
 62
     0
100
AcDbTrace
 10
505.7591712752738
 20
439.32
 30
0.0
 11
505.8191712752736
 21
439.32
 31
0.0
 12
505.7891712752738
 22
439.5
 32
0.0
 13
505.7891712752738
 23
439.5
 33
0.0
  0
SOLID
  5
66C
330
666
100
AcDbEntity
  8
0
 62
     0
100
AcDbTrace
 10
505.7591712752738
 20
419.6799999999998
 30
0.0
 11
505.8191712752736
 21
419.6799999999998
 31
0.0
 12
505.7891712752738
 22
419.4999999999998
 32
0.0
 13
505.7891712752738
 23
419.4999999999998
 33
0.0
  0
MTEXT
  5
66D
330
666
100
AcDbEntity
  8
0
 62
     0
100
AcDbMText
 10
505.7891712752736
 20
429.4999999999999
 30
0.0
 40
0.18
 41
0.0
 71
     5
 72
     1
  1
\A1;20.0000
 73
     1
 44
1.0
  0
POINT
  5
66E
330
666
100
AcDbEntity
  8
Defpoints
 62
     0
100
AcDbPoint
 10
423.0
 20
439.5
 30
0.0
  0
POINT
  5
66F
330
666
100
AcDbEntity
  8
Defpoints
 62
     0
100
AcDbPoint
 10
472.5
 20
419.4999999999998
 30
0.0
  0
POINT
  5
670
330
666
100
AcDbEntity
  8
Defpoints
 62
     0
100
AcDbPoint
 10
505.7891712752738
 20
419.4999999999998
 30
0.0
  0
ENDBLK
  5
672
330
666
100
AcDbEntity
  8
0
100
AcDbBlockEnd
  0
BLOCK
  5
67F
330
674
100
AcDbEntity
  8
0
100
AcDbBlockBegin
  2
*D12
 70
     1
 10
0.0
 20
0.0
 30
0.0
  3
*D12
  1

  0
LINE
  5
675
330
674
100
AcDbEntity
  8
0
 62
     0
370
    -2
100
AcDbLine
 10
472.5624999999998
 20
419.5
 30
0.0
 11
509.5143991819255
 21
419.5
 31
0.0
  0
LINE
  5
676
330
674
100
AcDbEntity
  8
0
 62
     0
370
    -2
100
AcDbLine
 10
423.0624999999998
 20
398.0
 30
0.0
 11
509.5143991819255
 21
398.0
 31
0.0
  0
LINE
  5
677
330
674
100
AcDbEntity
  8
0
 62
     0
370
    -2
100
AcDbLine
 10
509.3343991819255
 20
419.32
 30
0.0
 11
509.3343991819255
 21
408.9299999999998
 31
0.0
  0
LINE
  5
678
330
674
100
AcDbEntity
  8
0
 62
     0
370
    -2
100
AcDbLine
 10
509.3343991819255
 20
398.18
 30
0.0
 11
509.3343991819255
 21
408.57
 31
0.0
  0
SOLID
  5
679
330
674
100
AcDbEntity
  8
0
 62
     0
100
AcDbTrace
 10
509.3043991819255
 20
419.32
 30
0.0
 11
509.3643991819255
 21
419.32
 31
0.0
 12
509.3343991819255
 22
419.5
 32
0.0
 13
509.3343991819255
 23
419.5
 33
0.0
  0
SOLID
  5
67A
330
674
100
AcDbEntity
  8
0
 62
     0
100
AcDbTrace
 10
509.3043991819255
 20
398.18
 30
0.0
 11
509.3643991819255
 21
398.18
 31
0.0
 12
509.3343991819255
 22
398.0
 32
0.0
 13
509.3343991819255
 23
398.0
 33
0.0
  0
MTEXT
  5
67B
330
674
100
AcDbEntity
  8
0
 62
     0
100
AcDbMText
 10
509.3343991819253
 20
408.75
 30
0.0
 40
0.18
 41
0.0
 71
     5
 72
     1
  1
\A1;21.5000
 73
     1
 44
1.0
  0
POINT
  5
67C
330
674
100
AcDbEntity
  8
Defpoints
 62
     0
100
AcDbPoint
 10
472.4999999999998
 20
419.5
 30
0.0
  0
POINT
  5
67D
330
674
100
AcDbEntity
  8
Defpoints
 62
     0
100
AcDbPoint
 10
423.0
 20
398.0
 30
0.0
  0
POINT
  5
67E
330
674
100
AcDbEntity
  8
Defpoints
 62
     0
100
AcDbPoint
 10
509.3343991819255
 20
398.0
 30
0.0
  0
ENDBLK
  5
680
330
674
100
AcDbEntity
  8
0
100
AcDbBlockEnd
  0
BLOCK
  5
730
330
72F
100
AcDbEntity
  8
0
100
AcDbBlockBegin
  2
*U13
 70
     1
 10
0.0
 20
0.0
 30
0.0
  3
*U13
  1

  0
ENDBLK
  5
731
330
72F
100
AcDbEntity
  8
0
100
AcDbBlockEnd
  0
ENDSEC
  0
SECTION
  2
ENTITIES
  0
TEXT
  5
38
330
1E
100
AcDbEntity
  8
3
100
AcDbText
 10
639.804500587769
 20
54.72178663947826
 30
0.0
 40
12.6
  1
アルミ・スパンナー
 41
0.8
  7
BIGFONT
100
AcDbText
  0
ARC
  5
45
330
1E
100
AcDbEntity
  8
0
100
AcDbCircle
 10
208.9999999999998
 20
381.4999999999998
 30
0.0
 40
5.5
100
AcDbArc
 50
0.0
 51
180.0
  0
LINE
  5
46
330
1E
100
AcDbEntity
  8
0
100
AcDbLine
 10
214.5
 20
280.5
 30
0.0
 11
214.5
 21
381.4999999999998
 31
0.0
  0
LINE
  5
47
330
1E
100
AcDbEntity
  8
0
100
AcDbLine
 10
203.5
 20
280.5
 30
0.0
 11
203.5
 21
381.4999999999998
 31
0.0
  0
LINE
  5
48
330
1E
100
AcDbEntity
  8
1
100
AcDbLine
 10
208.9999999999998
 20
453.5
 30
0.0
 11
208.9999999999998
 21
247.5
 31
0.0
  0
LINE
  5
49
330
1E
100
AcDbEntity
  8
1
100
AcDbLine
 10
174.5
 20
419.4999999999998
 30
0.0
 11
243.9999999999999
 21
419.4999999999998
 31
0.0
  0
ARC
  5
4A
330
1E
100
AcDbEntity
  8
0
100
AcDbCircle
 10
208.9999999999998
 20
280.5
 30
0.0
 40
5.5
100
AcDbArc
 50
180.0
 51
0.0
  0
CIRCLE
  5
4B
330
1E
100
AcDbEntity
  8
0
100
AcDbCircle
 10
208.9999999999998
 20
419.4999999999998
 30
0.0
 40
10.0
  0
CIRCLE
  5
4C
330
1E
100
AcDbEntity
  8
3
100
AcDbCircle
 10
208.9999999999998
 20
419.4999999999998
 30
0.0
 40
8.0
  0
CIRCLE
  5
4D
330
1E
100
AcDbEntity
  8
2
100
AcDbCircle
 10
208.9999999999998
 20
419.4999999999998
 30
0.0
 40
15.5
  0
LINE
  5
4E
330
1E
100
AcDbEntity
  8
2
100
AcDbLine
 10
231.0
 20
422.4999999999998
 30
0.0
 11
224.5
 21
422.4999999999998
 31
0.0
  0
LINE
  5
4F
330
1E
100
AcDbEntity
  8
2
100
AcDbLine
 10
231.0
 20
422.0
 30
0.0
 11
224.5
 21
422.0
 31
0.0
  0
LINE
  5
50
330
1E
100
AcDbEntity
  8
2
100
AcDbLine
 10
231.0
 20
417.0
 30
0.0
 11
224.5
 21
417.0
 31
0.0
  0
LINE
  5
51
330
1E
100
AcDbEntity
  8
2
100
AcDbLine
 10
231.0
 20
416.5
 30
0.0
 11
224.5
 21
416.5
 31
0.0
  0
LINE
  5
52
330
1E
100
AcDbEntity
  8
2
100
AcDbLine
 10
224.5
 20
422.0
 30
0.0
 11
224.5
 21
417.0
 31
0.0
  0
LINE
  5
53
330
1E
100
AcDbEntity
  8
2
100
AcDbLine
 10
224.5
 20
417.0
 30
0.0
 11
225.0
 21
416.5
 31
0.0
  0
LINE
  5
54
330
1E
100
AcDbEntity
  8
2
100
AcDbLine
 10
225.0
 20
416.5
 30
0.0
 11
225.0
 21
422.4999999999998
 31
0.0
  0
LINE
  5
55
330
1E
100
AcDbEntity
  8
2
100
AcDbLine
 10
225.0
 20
422.4999999999998
 30
0.0
 11
224.5
 21
422.0
 31
0.0
  0
LINE
  5
56
330
1E
100
AcDbEntity
  8
2
100
AcDbLine
 10
229.0
 20
422.4999999999998
 30
0.0
 11
229.0
 21
421.0
 31
0.0
  0
LINE
  5
57
330
1E
100
AcDbEntity
  8
2
100
AcDbLine
 10
229.0
 20
421.0
 30
0.0
 11
228.0
 21
421.0
 31
0.0
  0
LINE
  5
58
330
1E
100
AcDbEntity
  8
2
100
AcDbLine
 10
228.0
 20
421.0
 30
0.0
 11
228.0
 21
418.0
 31
0.0
  0
LINE
  5
59
330
1E
100
AcDbEntity
  8
2
100
AcDbLine
 10
228.0
 20
418.0
 30
0.0
 11
229.0
 21
418.0
 31
0.0
  0
LINE
  5
5A
330
1E
100
AcDbEntity
  8
2
100
AcDbLine
 10
229.0
 20
418.0
 30
0.0
 11
229.0
 21
416.5
 31
0.0
  0
LINE
  5
5B
330
1E
100
AcDbEntity
  8
2
100
AcDbLine
 10
229.0
 20
416.5
 30
0.0
 11
229.4999999999999
 21
417.0
 31
0.0
  0
LINE
  5
5C
330
1E
100
AcDbEntity
  8
2
100
AcDbLine
 10
229.4999999999999
 20
417.0
 30
0.0
 11
229.4999999999999
 21
418.0
 31
0.0
  0
LINE
  5
5D
330
1E
100
AcDbEntity
  8
2
100
AcDbLine
 10
229.4999999999999
 20
418.0
 30
0.0
 11
229.0
 21
418.0
 31
0.0
  0
LINE
  5
5E
330
1E
100
AcDbEntity
  8
2
100
AcDbLine
 10
229.0
 20
421.0
 30
0.0
 11
229.4999999999999
 21
421.0
 31
0.0
  0
LINE
  5
5F
330
1E
100
AcDbEntity
  8
2
100
AcDbLine
 10
229.4999999999999
 20
421.0
 30
0.0
 11
229.4999999999999
 21
422.0
 31
0.0
  0
LINE
  5
60
330
1E
100
AcDbEntity
  8
2
100
AcDbLine
 10
229.4999999999999
 20
422.0
 30
0.0
 11
229.0
 21
422.4999999999998
 31
0.0
  0
LINE
  5
61
330
1E
100
AcDbEntity
  8
0
100
AcDbLine
 10
462.9999999999998
 20
440.5
 30
0.0
 11
462.9999999999998
 21
260.4999999999999
 31
0.0
  0
LINE
  5
62
330
1E
100
AcDbEntity
  8
0
100
AcDbLine
 10
423.0
 20
417.9999999999997
 30
0.0
 11
423.0
 21
441.0
 31
0.0
  0
LINE
  5
63
330
1E
100
AcDbEntity
  8
0
100
AcDbLine
 10
423.0
 20
417.9999999999997
 30
0.0
 11
423.0
 21
398.0
 31
0.0
  0
LINE
  5
64
330
1E
100
AcDbEntity
  8
0
100
AcDbLine
 10
462.9999999999998
 20
260.4999999999999
 30
0.0
 11
445.0
 21
260.9999999999998
 31
0.0
  0
LINE
  5
65
330
1E
100
AcDbEntity
  8
0
100
AcDbLine
 10
445.0
 20
260.9999999999998
 30
0.0
 11
445.0
 21
407.5
 31
0.0
  0
LINE
  5
66
330
1E
100
AcDbEntity
  8
0
100
AcDbLine
 10
423.0
 20
398.0
 30
0.0
 11
445.0112429731418
 21
397.4497189256713
 31
0.0
  0
LINE
  5
67
330
1E
100
AcDbEntity
  8
0
100
AcDbLine
 10
423.0
 20
441.0
 30
0.0
 11
462.9999999999998
 21
442.0
 31
0.0
  0
LINE
  5
68
330
1E
100
AcDbEntity
  8
0
100
AcDbLine
 10
462.9999999999998
 20
407.5
 30
0.0
 11
445.0
 21
407.5
 31
0.0
  0
LINE
  5
69
330
1E
100
AcDbEntity
  8
2
100
AcDbLine
 10
442.9999999999998
 20
404.0
 30
0.0
 11
442.9999999999998
 21
434.9999999999998
 31
0.0
  0
LINE
  5
6A
330
1E
100
AcDbEntity
  8
2
100
AcDbLine
 10
442.9999999999998
 20
434.9999999999998
 30
0.0
 11
462.9999999999998
 21
434.9999999999998
 31
0.0
  0
LINE
  5
6B
330
1E
100
AcDbEntity
  8
2
100
AcDbLine
 10
442.9999999999998
 20
404.0
 30
0.0
 11
462.9999999999998
 21
404.0
 31
0.0
  0
LINE
  5
6C
330
1E
100
AcDbEntity
  8
2
100
AcDbLine
 10
442.9999999999998
 20
429.4999999999998
 30
0.0
 11
423.0
 21
429.4999999999998
 31
0.0
  0
LINE
  5
6D
330
1E
100
AcDbEntity
  8
2
100
AcDbLine
 10
442.4999999999998
 20
427.4999999999998
 30
0.0
 11
442.9999999999998
 21
427.4999999999998
 31
0.0
  0
LINE
  5
6E
330
1E
100
AcDbEntity
  8
2
100
AcDbLine
 10
442.9999999999998
 20
427.4999999999998
 30
0.0
 11
423.0
 21
427.4999999999998
 31
0.0
  0
LINE
  5
6F
330
1E
100
AcDbEntity
  8
2
100
AcDbLine
 10
442.9999999999998
 20
409.4999999999997
 30
0.0
 11
423.0
 21
409.4999999999997
 31
0.0
  0
LINE
  5
70
330
1E
100
AcDbEntity
  8
2
100
AcDbLine
 10
442.9999999999998
 20
411.4999999999998
 30
0.0
 11
423.0
 21
411.4999999999998
 31
0.0
  0
LINE
  5
71
330
1E
100
AcDbEntity
  8
1
100
AcDbLine
 10
433.9999999999998
 20
413.4999999999998
 30
0.0
 11
433.9999999999998
 21
426.4999999999998
 31
0.0
  0
CIRCLE
  5
72
330
1E
100
AcDbEntity
  8
0
100
AcDbCircle
 10
433.9999999999998
 20
419.4999999999998
 30
0.0
 40
3.0
  0
CIRCLE
  5
73
330
1E
100
AcDbEntity
  8
0
100
AcDbCircle
 10
433.9999999999998
 20
419.4999999999998
 30
0.0
 40
2.5
  0
POLYLINE
  5
74
330
1E
100
AcDbEntity
  8
0
100
AcDb2dPolyline
 66
     1
 10
0.0
 20
0.0
 30
0.0
 70
     1
  0
VERTEX
  5
75
330
74
100
AcDbEntity
  8
0
100
AcDbVertex
100
AcDb2dVertex
 10
433.9999999999998
 20
421.0
 30
0.0
  0
VERTEX
  5
76
330
74
100
AcDbEntity
  8
0
100
AcDbVertex
100
AcDb2dVertex
 10
432.7009618943232
 20
420.2499999999998
 30
0.0
  0
VERTEX
  5
77
330
74
100
AcDbEntity
  8
0
100
AcDbVertex
100
AcDb2dVertex
 10
432.7009618943232
 20
418.75
 30
0.0
  0
VERTEX
  5
78
330
74
100
AcDbEntity
  8
0
100
AcDbVertex
100
AcDb2dVertex
 10
433.9999999999998
 20
418.0
 30
0.0
  0
VERTEX
  5
79
330
74
100
AcDbEntity
  8
0
100
AcDbVertex
100
AcDb2dVertex
 10
435.2990381056764
 20
418.75
 30
0.0
  0
VERTEX
  5
7A
330
74
100
AcDbEntity
  8
0
100
AcDbVertex
100
AcDb2dVertex
 10
435.2990381056764
 20
420.2499999999998
 30
0.0
  0
SEQEND
  5
7B
330
74
100
AcDbEntity
  8
0
  0
LINE
  5
7C
330
1E
100
AcDbEntity
  8
2
100
AcDbLine
 10
462.9999999999998
 20
387.0
 30
0.0
 11
445.0
 21
387.0
 31
0.0
  0
LINE
  5
7D
330
1E
100
AcDbEntity
  8
2
100
AcDbLine
 10
462.9999999999998
 20
275.0
 30
0.0
 11
445.0
 21
275.0
 31
0.0
  0
LINE
  5
7E
330
1E
100
AcDbEntity
  8
1
100
AcDbLine
 10
472.5
 20
419.4999999999998
 30
0.0
 11
403.3952022059996
 21
419.4999999999998
 31
0.0
  0
LINE
  5
7F
330
1E
100
AcDbEntity
  8
1
100
AcDbLine
 10
401.9298062868934
 20
588.4999999999998
 30
0.0
 11
472.5
 21
588.4999999999998
 31
0.0
  0
LINE
  5
80
330
1E
100
AcDbEntity
  8
2
100
AcDbLine
 10
442.9999999999998
 20
573.0
 30
0.0
 11
442.9999999999998
 21
604.0
 31
0.0
  0
LINE
  5
81
330
1E
100
AcDbEntity
  8
0
100
AcDbLine
 10
423.0
 20
588.4999999999998
 30
0.0
 11
423.0
 21
566.9999999999999
 31
0.0
  0
LINE
  5
82
330
1E
100
AcDbEntity
  8
2
100
AcDbLine
 10
442.9999999999998
 20
573.0
 30
0.0
 11
462.9999999999998
 21
573.0
 31
0.0
  0
LINE
  5
83
330
1E
100
AcDbEntity
  8
2
100
AcDbLine
 10
442.9999999999998
 20
580.4999999999997
 30
0.0
 11
423.0
 21
580.4999999999997
 31
0.0
  0
LINE
  5
84
330
1E
100
AcDbEntity
  8
2
100
AcDbLine
 10
442.9999999999998
 20
578.5
 30
0.0
 11
423.0
 21
578.5
 31
0.0
  0
LINE
  5
85
330
1E
100
AcDbEntity
  8
2
100
AcDbLine
 10
442.9999999999998
 20
596.4999999999998
 30
0.0
 11
423.0
 21
596.4999999999998
 31
0.0
  0
LINE
  5
86
330
1E
100
AcDbEntity
  8
2
100
AcDbLine
 10
442.9999999999998
 20
598.5
 30
0.0
 11
423.0
 21
598.5
 31
0.0
  0
LINE
  5
87
330
1E
100
AcDbEntity
  8
0
100
AcDbLine
 10
423.0
 20
610.0
 30
0.0
 11
462.9999999999998
 21
611.0
 31
0.0
  0
LINE
  5
88
330
1E
100
AcDbEntity
  8
0
100
AcDbLine
 10
423.0
 20
588.4999999999998
 30
0.0
 11
423.0
 21
610.0
 31
0.0
  0
LINE
  5
89
330
1E
100
AcDbEntity
  8
0
100
AcDbLine
 10
462.9999999999998
 20
578.0
 30
0.0
 11
445.0
 21
578.0
 31
0.0
  0
LINE
  5
8A
330
1E
100
AcDbEntity
  8
2
100
AcDbLine
 10
442.4999999999998
 20
596.4999999999998
 30
0.0
 11
442.9999999999998
 21
596.4999999999998
 31
0.0
  0
LINE
  5
8B
330
1E
100
AcDbEntity
  8
2
100
AcDbLine
 10
442.9999999999998
 20
604.0
 30
0.0
 11
462.9999999999998
 21
604.0
 31
0.0
  0
LINE
  5
8C
330
1E
100
AcDbEntity
  8
0
100
AcDbLine
 10
462.9999999999998
 20
611.0
 30
0.0
 11
462.9999999999998
 21
566.0
 31
0.0
  0
LINE
  5
8D
330
1E
100
AcDbEntity
  8
2
100
AcDbLine
 10
462.9999999999998
 20
608.0
 30
0.0
 11
445.0
 21
607.5
 31
0.0
  0
LINE
  5
8E
330
1E
100
AcDbEntity
  8
2
100
AcDbLine
 10
445.0
 20
607.5
 30
0.0
 11
445.0
 21
569.5
 31
0.0
  0
LINE
  5
8F
330
1E
100
AcDbEntity
  8
2
100
AcDbLine
 10
445.0
 20
569.5
 30
0.0
 11
462.9999999999998
 21
569.0
 31
0.0
  0
LINE
  5
90
330
1E
100
AcDbEntity
  8
1
100
AcDbLine
 10
405.2016520017605
 20
129.4999999999997
 30
0.0
 11
472.5
 21
129.4999999999997
 31
0.0
  0
LINE
  5
91
330
1E
100
AcDbEntity
  8
0
100
AcDbLine
 10
462.9999999999998
 20
152.0
 30
0.0
 11
462.9999999999998
 21
107.0
 31
0.0
  0
LINE
  5
92
330
1E
100
AcDbEntity
  8
0
100
AcDbLine
 10
423.0
 20
129.4999999999997
 30
0.0
 11
423.0
 21
150.9999999999998
 31
0.0
  0
LINE
  5
93
330
1E
100
AcDbEntity
  8
2
100
AcDbLine
 10
442.9999999999998
 20
114.0
 30
0.0
 11
442.9999999999998
 21
145.0
 31
0.0
  0
LINE
  5
95
330
1E
100
AcDbEntity
  8
2
100
AcDbLine
 10
442.9999999999998
 20
139.5
 30
0.0
 11
423.0
 21
139.5
 31
0.0
  0
LINE
  5
96
330
1E
100
AcDbEntity
  8
2
100
AcDbLine
 10
442.9999999999998
 20
137.5
 30
0.0
 11
423.0
 21
137.5
 31
0.0
  0
LINE
  5
97
330
1E
100
AcDbEntity
  8
2
100
AcDbLine
 10
442.9999999999998
 20
119.5
 30
0.0
 11
423.0
 21
119.5
 31
0.0
  0
LINE
  5
98
330
1E
100
AcDbEntity
  8
2
100
AcDbLine
 10
442.9999999999998
 20
121.5
 30
0.0
 11
423.0
 21
121.5
 31
0.0
  0
LINE
  5
99
330
1E
100
AcDbEntity
  8
0
100
AcDbLine
 10
423.0
 20
129.4999999999997
 30
0.0
 11
423.0
 21
108.0
 31
0.0
  0
LINE
  5
9A
330
1E
100
AcDbEntity
  8
2
100
AcDbLine
 10
442.9999999999998
 20
114.0
 30
0.0
 11
462.9999999999998
 21
114.0
 31
0.0
  0
LINE
  5
9B
330
1E
100
AcDbEntity
  8
0
100
AcDbLine
 10
462.9999999999998
 20
118.9999999999999
 30
0.0
 11
445.0
 21
118.9999999999999
 31
0.0
  0
LINE
  5
9C
330
1E
100
AcDbEntity
  8
2
100
AcDbLine
 10
442.4999999999998
 20
137.5
 30
0.0
 11
442.9999999999998
 21
137.5
 31
0.0
  0
LINE
  5
9D
330
1E
100
AcDbEntity
  8
0
100
AcDbLine
 10
423.0
 20
150.9999999999998
 30
0.0
 11
462.9999999999998
 21
152.0
 31
0.0
  0
LINE
  5
9E
330
1E
100
AcDbEntity
  8
2
100
AcDbLine
 10
442.9999999999998
 20
145.0
 30
0.0
 11
462.9999999999998
 21
145.0
 31
0.0
  0
LINE
  5
9F
330
1E
100
AcDbEntity
  8
1
100
AcDbLine
 10
656.0
 20
453.5
 30
0.0
 11
656.0
 21
247.5
 31
0.0
  0
LINE
  5
A0
330
1E
100
AcDbEntity
  8
0
100
AcDbLine
 10
650.4999999999999
 20
280.5
 30
0.0
 11
650.4999999999999
 21
381.4999999999998
 31
0.0
  0
LINE
  5
A1
330
1E
100
AcDbEntity
  8
0
100
AcDbLine
 10
661.5
 20
280.5
 30
0.0
 11
661.5
 21
381.4999999999998
 31
0.0
  0
ARC
  5
A4
330
1E
100
AcDbEntity
  8
0
100
AcDbCircle
 10
656.0
 20
280.5
 30
0.0
 40
5.5
100
AcDbArc
 50
180.0
 51
0.0
  0
ARC
  5
A6
330
1E
100
AcDbEntity
  8
0
100
AcDbCircle
 10
656.0
 20
381.4999999999998
 30
0.0
 40
5.5
100
AcDbArc
 50
0.0
 51
180.0
  0
LINE
  5
A7
330
1E
100
AcDbEntity
  8
1
100
AcDbLine
 10
621.4999999999998
 20
419.5000000000002
 30
0.0
 11
691.0
 21
419.5000000000002
 31
0.0
  0
LINE
  5
A8
330
1E
100
AcDbEntity
  8
2
100
AcDbLine
 10
642.5340348843461
 20
418.0000000000001
 30
0.0
 11
641.5340348843463
 21
418.0000000000001
 31
0.0
  0
LINE
  5
A9
330
1E
100
AcDbEntity
  8
2
100
AcDbLine
 10
641.5340348843463
 20
421.0000000000001
 30
0.0
 11
642.5340348843461
 21
421.0000000000001
 31
0.0
  0
LINE
  5
AA
330
1E
100
AcDbEntity
  8
2
100
AcDbLine
 10
633.9999999999998
 20
416.5000000000001
 30
0.0
 11
646.0340348843462
 21
416.5000000000001
 31
0.0
  0
LINE
  5
AB
330
1E
100
AcDbEntity
  8
2
100
AcDbLine
 10
633.9999999999998
 20
417.0000000000001
 30
0.0
 11
646.0340348843462
 21
417.0000000000001
 31
0.0
  0
LINE
  5
AC
330
1E
100
AcDbEntity
  8
2
100
AcDbLine
 10
633.9999999999998
 20
422.0000000000001
 30
0.0
 11
646.0340348843462
 21
422.0000000000001
 31
0.0
  0
LINE
  5
AD
330
1E
100
AcDbEntity
  8
2
100
AcDbLine
 10
633.9999999999998
 20
422.5000000000001
 30
0.0
 11
646.0340348843462
 21
422.5000000000001
 31
0.0
  0
LINE
  5
AE
330
1E
100
AcDbEntity
  8
2
100
AcDbLine
 10
642.5340348843461
 20
421.0000000000001
 30
0.0
 11
642.5340348843461
 21
418.0000000000001
 31
0.0
  0
LINE
  5
AF
330
1E
100
AcDbEntity
  8
2
100
AcDbLine
 10
645.5340348843463
 20
416.5000000000001
 30
0.0
 11
645.5340348843463
 21
422.5000000000001
 31
0.0
  0
LINE
  5
B0
330
1E
100
AcDbEntity
  8
2
100
AcDbLine
 10
646.0340348843462
 20
422.0000000000001
 30
0.0
 11
646.0340348843462
 21
417.0000000000001
 31
0.0
  0
LINE
  5
B1
330
1E
100
AcDbEntity
  8
2
100
AcDbLine
 10
646.0340348843462
 20
417.0000000000001
 30
0.0
 11
645.5340348843463
 21
416.5000000000001
 31
0.0
  0
LINE
  5
B2
330
1E
100
AcDbEntity
  8
2
100
AcDbLine
 10
645.5340348843463
 20
422.5000000000001
 30
0.0
 11
646.0340348843462
 21
422.0000000000001
 31
0.0
  0
LINE
  5
B3
330
1E
100
AcDbEntity
  8
2
100
AcDbLine
 10
641.0340348843463
 20
418.0000000000001
 30
0.0
 11
641.5340348843463
 21
418.0000000000001
 31
0.0
  0
LINE
  5
B4
330
1E
100
AcDbEntity
  8
2
100
AcDbLine
 10
641.0340348843463
 20
417.0000000000001
 30
0.0
 11
641.0340348843463
 21
418.0000000000001
 31
0.0
  0
LINE
  5
B5
330
1E
100
AcDbEntity
  8
2
100
AcDbLine
 10
641.5340348843463
 20
416.5000000000001
 30
0.0
 11
641.0340348843463
 21
417.0000000000001
 31
0.0
  0
LINE
  5
B6
330
1E
100
AcDbEntity
  8
2
100
AcDbLine
 10
641.5340348843463
 20
418.0000000000001
 30
0.0
 11
641.5340348843463
 21
416.5000000000001
 31
0.0
  0
LINE
  5
B7
330
1E
100
AcDbEntity
  8
2
100
AcDbLine
 10
641.0340348843463
 20
422.0000000000001
 30
0.0
 11
641.5340348843463
 21
422.5000000000001
 31
0.0
  0
LINE
  5
B8
330
1E
100
AcDbEntity
  8
2
100
AcDbLine
 10
641.0340348843463
 20
421.0000000000001
 30
0.0
 11
641.0340348843463
 21
422.0000000000001
 31
0.0
  0
LINE
  5
B9
330
1E
100
AcDbEntity
  8
2
100
AcDbLine
 10
641.5340348843463
 20
421.0000000000001
 30
0.0
 11
641.0340348843463
 21
421.0000000000001
 31
0.0
  0
LINE
  5
BA
330
1E
100
AcDbEntity
  8
2
100
AcDbLine
 10
641.5340348843463
 20
422.5000000000001
 30
0.0
 11
641.5340348843463
 21
421.0000000000001
 31
0.0
  0
LINE
  5
BC
330
1E
100
AcDbEntity
  8
0
100
AcDbLine
 10
675.5524313421741
 20
406.8697268971662
 30
0.0
 11
675.5004646590225
 21
406.7778489675102
 31
0.0
  0
LINE
  5
BD
330
1E
100
AcDbEntity
  8
0
100
AcDbLine
 10
636.4381062365032
 20
406.8867038599806
 30
0.0
 11
636.5000693993257
 21
406.798820022032
 31
0.0
  0
CIRCLE
  5
BE
330
1E
100
AcDbEntity
  8
0
100
AcDbCircle
 10
656.0
 20
419.5000000000002
 30
0.0
 40
15.5
  0
LINE
  5
BF
330
1E
100
AcDbEntity
  8
0
100
AcDbLine
 10
462.9999999999998
 20
566.0
 30
0.0
 11
423.0
 21
566.9999999999999
 31
0.0
  0
LINE
  5
C0
330
1E
100
AcDbEntity
  8
1
100
AcDbLine
 10
433.9999999999998
 20
558.0
 30
0.0
 11
433.9999999999998
 21
562.5
 31
0.0
  0
LINE
  5
C1
330
1E
100
AcDbEntity
  8
1
100
AcDbLine
 10
433.9999999999998
 20
562.5
 30
0.0
 11
433.9999999999998
 21
594.0
 31
0.0
  0
LINE
  5
C2
330
1E
100
AcDbEntity
  8
2
100
AcDbLine
 10
431.0
 20
566.8488163206567
 30
0.0
 11
431.0
 21
578.5
 31
0.0
  0
LINE
  5
C3
330
1E
100
AcDbEntity
  8
2
100
AcDbLine
 10
431.5
 20
566.9130064879368
 30
0.0
 11
431.5
 21
578.5
 31
0.0
  0
LINE
  5
C4
330
1E
100
AcDbEntity
  8
2
100
AcDbLine
 10
436.5
 20
566.7204387501732
 30
0.0
 11
436.5
 21
578.5
 31
0.0
  0
LINE
  5
C5
330
1E
100
AcDbEntity
  8
2
100
AcDbLine
 10
437.0
 20
566.7204387501732
 30
0.0
 11
437.0
 21
578.5
 31
0.0
  0
LINE
  5
C6
330
1E
100
AcDbEntity
  8
2
100
AcDbLine
 10
436.5
 20
578.5
 30
0.0
 11
437.0
 21
578.0
 31
0.0
  0
LINE
  5
C7
330
1E
100
AcDbEntity
  8
2
100
AcDbLine
 10
437.0
 20
578.0
 30
0.0
 11
431.0
 21
578.0
 31
0.0
  0
LINE
  5
C8
330
1E
100
AcDbEntity
  8
2
100
AcDbLine
 10
431.0
 20
578.0
 30
0.0
 11
431.5
 21
578.5
 31
0.0
  0
LINE
  5
C9
330
1E
100
AcDbEntity
  8
2
100
AcDbLine
 10
437.0
 20
573.0
 30
0.0
 11
435.5
 21
573.0
 31
0.0
  0
LINE
  5
CA
330
1E
100
AcDbEntity
  8
2
100
AcDbLine
 10
435.5
 20
573.0
 30
0.0
 11
435.5
 21
574.0
 31
0.0
  0
LINE
  5
CB
330
1E
100
AcDbEntity
  8
2
100
AcDbLine
 10
435.5
 20
574.0
 30
0.0
 11
432.5
 21
574.0
 31
0.0
  0
LINE
  5
CC
330
1E
100
AcDbEntity
  8
2
100
AcDbLine
 10
432.5
 20
574.0
 30
0.0
 11
432.5
 21
573.0
 31
0.0
  0
LINE
  5
CD
330
1E
100
AcDbEntity
  8
2
100
AcDbLine
 10
432.5
 20
573.0
 30
0.0
 11
431.0
 21
573.0
 31
0.0
  0
LINE
  5
CE
330
1E
100
AcDbEntity
  8
2
100
AcDbLine
 10
431.0
 20
573.0
 30
0.0
 11
431.5
 21
572.5
 31
0.0
  0
LINE
  5
CF
330
1E
100
AcDbEntity
  8
2
100
AcDbLine
 10
431.5
 20
572.5
 30
0.0
 11
432.5
 21
572.5
 31
0.0
  0
LINE
  5
D0
330
1E
100
AcDbEntity
  8
2
100
AcDbLine
 10
432.5
 20
572.5
 30
0.0
 11
432.5
 21
573.0
 31
0.0
  0
LINE
  5
D1
330
1E
100
AcDbEntity
  8
2
100
AcDbLine
 10
435.5
 20
573.0
 30
0.0
 11
435.5
 21
572.5
 31
0.0
  0
LINE
  5
D2
330
1E
100
AcDbEntity
  8
2
100
AcDbLine
 10
435.5
 20
572.5
 30
0.0
 11
436.5
 21
572.5
 31
0.0
  0
LINE
  5
D3
330
1E
100
AcDbEntity
  8
2
100
AcDbLine
 10
436.5
 20
572.5
 30
0.0
 11
437.0
 21
573.0
 31
0.0
  0
LINE
  5
D4
330
1E
100
AcDbEntity
  8
1
100
AcDbLine
 10
433.9999999999998
 20
162.5
 30
0.0
 11
433.9999999999998
 21
123.9999999999999
 31
0.0
  0
LINE
  5
D5
330
1E
100
AcDbEntity
  8
2
100
AcDbLine
 10
431.0
 20
140.0
 30
0.0
 11
431.0
 21
139.5
 31
0.0
  0
LINE
  5
D6
330
1E
100
AcDbEntity
  8
2
100
AcDbLine
 10
431.5
 20
139.5
 30
0.0
 11
431.0
 21
140.0
 31
0.0
  0
LINE
  5
D7
330
1E
100
AcDbEntity
  8
2
100
AcDbLine
 10
431.0
 20
140.0
 30
0.0
 11
437.0
 21
140.0
 31
0.0
  0
LINE
  5
D8
330
1E
100
AcDbEntity
  8
2
100
AcDbLine
 10
437.0
 20
140.0
 30
0.0
 11
436.5
 21
139.5
 31
0.0
  0
LINE
  5
D9
330
1E
100
AcDbEntity
  8
2
100
AcDbLine
 10
431.0
 20
145.5
 30
0.0
 11
432.5
 21
145.5
 31
0.0
  0
LINE
  5
DA
330
1E
100
AcDbEntity
  8
2
100
AcDbLine
 10
432.5
 20
145.5
 30
0.0
 11
432.5
 21
144.5
 31
0.0
  0
LINE
  5
DB
330
1E
100
AcDbEntity
  8
2
100
AcDbLine
 10
432.5
 20
144.5
 30
0.0
 11
435.5
 21
144.5
 31
0.0
  0
LINE
  5
DC
330
1E
100
AcDbEntity
  8
2
100
AcDbLine
 10
435.5
 20
144.5
 30
0.0
 11
435.5
 21
145.5
 31
0.0
  0
LINE
  5
DD
330
1E
100
AcDbEntity
  8
2
100
AcDbLine
 10
435.5
 20
145.5
 30
0.0
 11
437.0
 21
145.5
 31
0.0
  0
LINE
  5
DE
330
1E
100
AcDbEntity
  8
2
100
AcDbLine
 10
437.0
 20
145.5
 30
0.0
 11
436.5
 21
145.9999999999998
 31
0.0
  0
LINE
  5
DF
330
1E
100
AcDbEntity
  8
2
100
AcDbLine
 10
436.5
 20
145.9999999999998
 30
0.0
 11
435.5
 21
145.9999999999998
 31
0.0
  0
LINE
  5
E0
330
1E
100
AcDbEntity
  8
2
100
AcDbLine
 10
435.5
 20
145.9999999999998
 30
0.0
 11
435.5
 21
145.5
 31
0.0
  0
LINE
  5
E1
330
1E
100
AcDbEntity
  8
2
100
AcDbLine
 10
432.5
 20
145.5
 30
0.0
 11
432.5
 21
145.9999999999998
 31
0.0
  0
LINE
  5
E2
330
1E
100
AcDbEntity
  8
2
100
AcDbLine
 10
432.5
 20
145.9999999999998
 30
0.0
 11
431.5
 21
145.9999999999998
 31
0.0
  0
LINE
  5
E3
330
1E
100
AcDbEntity
  8
2
100
AcDbLine
 10
431.5
 20
145.9999999999998
 30
0.0
 11
431.0
 21
145.5
 31
0.0
  0
LINE
  5
E4
330
1E
100
AcDbEntity
  8
2
100
AcDbLine
 10
437.0
 20
151.2817286291804
 30
0.0
 11
437.0
 21
139.5
 31
0.0
  0
LINE
  5
E5
330
1E
100
AcDbEntity
  8
2
100
AcDbLine
 10
436.5
 20
151.2817286291804
 30
0.0
 11
436.5
 21
139.5
 31
0.0
  0
LINE
  5
E6
330
1E
100
AcDbEntity
  8
2
100
AcDbLine
 10
431.5
 20
151.154824311901
 30
0.0
 11
431.5
 21
139.5
 31
0.0
  0
LINE
  5
E7
330
1E
100
AcDbEntity
  8
2
100
AcDbLine
 10
431.0
 20
151.1379053947104
 30
0.0
 11
431.0
 21
139.5
 31
0.0
  0
LINE
  5
E8
330
1E
100
AcDbEntity
  8
0
100
AcDbLine
 10
462.9999999999998
 20
149.0
 30
0.0
 11
445.0
 21
148.5
 31
0.0
  0
LINE
  5
E9
330
1E
100
AcDbEntity
  8
0
100
AcDbLine
 10
462.9999999999998
 20
110.0
 30
0.0
 11
445.0
 21
110.4999999999999
 31
0.0
  0
LINE
  5
EA
330
1E
100
AcDbEntity
  8
0
100
AcDbLine
 10
445.0
 20
110.4999999999999
 30
0.0
 11
445.0
 21
148.5
 31
0.0
  0
ARC
  5
20B
330
1E
100
AcDbEntity
  8
0
100
AcDbCircle
 10
656.0
 20
419.5
 30
0.0
 40
21.49999999999999
100
AcDbArc
 50
338.4710955944281
 51
201.5289044055719
  0
ARC
  5
230
330
1E
100
AcDbEntity
  8
0
100
AcDbCircle
 10
656.0
 20
281.0
 30
0.0
 40
20.0
100
AcDbArc
 50
180.0
 51
0.0
  0
LINE
  5
231
330
1E
100
AcDbEntity
  8
0
100
AcDbLine
 10
676.0
 20
281.0
 30
0.0
 11
676.0
 21
411.6101330809701
 31
0.0
  0
LINE
  5
232
330
1E
100
AcDbEntity
  8
0
100
AcDbLine
 10
636.0
 20
281.0
 30
0.0
 11
636.0
 21
411.6101330809701
 31
0.0
  0
ARC
  5
233
330
1E
100
AcDbEntity
  8
0
100
AcDbCircle
 10
208.9999999999998
 20
419.5
 30
0.0
 40
21.49999999999999
100
AcDbArc
 50
338.4710955944281
 51
201.5289044055719
  0
LINE
  5
234
330
1E
100
AcDbEntity
  8
0
100
AcDbLine
 10
228.9999999999998
 20
281.0
 30
0.0
 11
228.9999999999998
 21
411.6101330809701
 31
0.0
  0
ARC
  5
235
330
1E
100
AcDbEntity
  8
0
100
AcDbCircle
 10
208.9999999999998
 20
281.0
 30
0.0
 40
20.0
100
AcDbArc
 50
180.0
 51
0.0
  0
LINE
  5
236
330
1E
100
AcDbEntity
  8
0
100
AcDbLine
 10
188.9999999999998
 20
281.0
 30
0.0
 11
188.9999999999998
 21
411.6101330809701
 31
0.0
  0
ARC
  5
23A
330
1E
100
AcDbEntity
  8
0
100
AcDbCircle
 10
208.9999999999998
 20
419.5
 30
0.0
 40
21.49999999999998
100
AcDbArc
 50
201.5289044055718
 51
338.4710955944278
  0
LINE
  5
583
330
1E
100
AcDbEntity
  8
4
100
AcDbLine
 10
367.0892595447326
 20
114.3848576055997
 30
0.0
 11
367.0892595447326
 21
144.3848576055998
 31
0.0
  0
LINE
  5
584
330
1E
100
AcDbEntity
  8
4
100
AcDbLine
 10
379.0892595447326
 20
144.3848576055998
 30
0.0
 11
379.0892595447326
 21
114.3848576055997
 31
0.0
  0
LINE
  5
585
330
1E
100
AcDbEntity
  8
4
100
AcDbLine
 10
391.0892595447326
 20
114.3848576055997
 30
0.0
 11
391.0892595447326
 21
144.3848576055998
 31
0.0
  0
ARC
  5
586
330
1E
100
AcDbEntity
  8
4
100
AcDbCircle
 10
362.0892595447326
 20
129.3848576055997
 30
0.0
 40
17.0
100
AcDbArc
 50
331.9275130641455
 51
28.07248693585449
  0
LINE
  5
587
330
1E
100
AcDbEntity
  8
4
100
AcDbLine
 10
355.0892595447326
 20
119.3848576055998
 30
0.0
 11
355.0892595447326
 21
139.3848576055997
 31
0.0
  0
LINE
  5
588
330
1E
100
AcDbEntity
  8
4
100
AcDbLine
 10
353.0892595447326
 20
137.3848576055997
 30
0.0
 11
353.0892595447326
 21
121.3848576055998
 31
0.0
  0
ARC
  5
589
330
1E
100
AcDbEntity
  8
4
100
AcDbCircle
 10
384.0892595447326
 20
129.3848576055997
 30
0.0
 40
17.0
100
AcDbArc
 50
151.9275130641455
 51
208.0724869358545
  0
ARC
  5
58A
330
1E
100
AcDbEntity
  8
4
100
AcDbCircle
 10
408.0892595447326
 20
129.3848576055997
 30
0.0
 40
17.0
100
AcDbArc
 50
151.9275130641455
 51
208.0724869358545
  0
LINE
  5
58B
330
1E
100
AcDbEntity
  8
4
100
AcDbLine
 10
403.0892595447324
 20
144.3848576055998
 30
0.0
 11
403.0892595447324
 21
114.3848576055997
 31
0.0
  0
ARC
  5
58C
330
1E
100
AcDbEntity
  8
4
100
AcDbCircle
 10
386.0892595447326
 20
129.3848576055997
 30
0.0
 40
17.0
100
AcDbArc
 50
331.9275130641455
 51
28.07248693585449
  0
LINE
  5
58D
330
1E
100
AcDbEntity
  8
1
100
AcDbLine
 10
343.0
 20
129.4999999999997
 30
0.0
 11
472.4999999999998
 21
129.4999999999997
 31
0.0
  0
LINE
  5
58E
330
1E
100
AcDbEntity
  8
4
100
AcDbLine
 10
369.0892595447326
 20
121.3848576055998
 30
0.0
 11
377.0892595447326
 21
121.3848576055998
 31
0.0
  0
LINE
  5
58F
330
1E
100
AcDbEntity
  8
4
100
AcDbLine
 10
377.0892595447326
 20
112.3848576055997
 30
0.0
 11
369.0892595447326
 21
112.3848576055997
 31
0.0
  0
LINE
  5
590
330
1E
100
AcDbEntity
  8
4
100
AcDbLine
 10
367.0892595447326
 20
119.3848576055998
 30
0.0
 11
355.0892595447326
 21
119.3848576055998
 31
0.0
  0
LINE
  5
591
330
1E
100
AcDbEntity
  8
4
100
AcDbLine
 10
353.0892595447326
 20
121.3848576055998
 30
0.0
 11
367.0892595447326
 21
121.3848576055998
 31
0.0
  0
LINE
  5
592
330
1E
100
AcDbEntity
  8
4
100
AcDbLine
 10
353.0892595447326
 20
121.3848576055998
 30
0.0
 11
355.0892595447326
 21
119.3848576055998
 31
0.0
  0
ARC
  5
593
330
1E
100
AcDbEntity
  8
4
100
AcDbCircle
 10
373.1517595447326
 20
116.8848576055998
 30
0.0
 40
6.0625
100
AcDbArc
 50
132.0750220508425
 51
227.9249779491573
  0
LINE
  5
594
330
1E
100
AcDbEntity
  8
4
100
AcDbLine
 10
369.0892595447326
 20
112.3848576055997
 30
0.0
 11
367.0892595447326
 21
114.3848576055997
 31
0.0
  0
LINE
  5
595
330
1E
100
AcDbEntity
  8
4
100
AcDbLine
 10
423.0892595447325
 20
121.3848576055998
 30
0.0
 11
403.0892595447324
 21
121.3848576055998
 31
0.0
  0
LINE
  5
596
330
1E
100
AcDbEntity
  8
4
100
AcDbLine
 10
423.0892595447325
 20
119.3848576055998
 30
0.0
 11
403.0892595447324
 21
119.3848576055998
 31
0.0
  0
LINE
  5
597
330
1E
100
AcDbEntity
  8
4
100
AcDbLine
 10
393.0892595447326
 20
112.3848576055997
 30
0.0
 11
391.0892595447326
 21
114.3848576055997
 31
0.0
  0
ARC
  5
598
330
1E
100
AcDbEntity
  8
4
100
AcDbCircle
 10
397.1517595447325
 20
116.8848576055998
 30
0.0
 40
6.0625
100
AcDbArc
 50
132.0750220508425
 51
227.9249779491573
  0
ARC
  5
599
330
1E
100
AcDbEntity
  8
4
100
AcDbCircle
 10
373.0267595447326
 20
116.8848576055998
 30
0.0
 40
6.0625
100
AcDbArc
 50
312.0750220508427
 51
47.92497794915729
  0
LINE
  5
59A
330
1E
100
AcDbEntity
  8
4
100
AcDbLine
 10
379.0892595447326
 20
114.3848576055997
 30
0.0
 11
377.0892595447326
 21
112.3848576055997
 31
0.0
  0
LINE
  5
59B
330
1E
100
AcDbEntity
  8
4
100
AcDbLine
 10
391.0892595447326
 20
119.3848576055998
 30
0.0
 11
379.0892595447326
 21
119.3848576055998
 31
0.0
  0
LINE
  5
59C
330
1E
100
AcDbEntity
  8
4
100
AcDbLine
 10
379.0892595447326
 20
121.3848576055998
 30
0.0
 11
391.0892595447326
 21
121.3848576055998
 31
0.0
  0
ARC
  5
59D
330
1E
100
AcDbEntity
  8
4
100
AcDbCircle
 10
397.0267595447326
 20
116.8848576055998
 30
0.0
 40
6.0625
100
AcDbArc
 50
312.0750220508427
 51
47.92497794915729
  0
LINE
  5
59E
330
1E
100
AcDbEntity
  8
4
100
AcDbLine
 10
401.0892595447326
 20
112.3848576055997
 30
0.0
 11
393.0892595447326
 21
112.3848576055997
 31
0.0
  0
LINE
  5
59F
330
1E
100
AcDbEntity
  8
4
100
AcDbLine
 10
403.0892595447324
 20
114.3848576055997
 30
0.0
 11
401.0892595447326
 21
112.3848576055997
 31
0.0
  0
LINE
  5
5A0
330
1E
100
AcDbEntity
  8
4
100
AcDbLine
 10
393.0892595447326
 20
121.3848576055998
 30
0.0
 11
401.0892595447326
 21
121.3848576055998
 31
0.0
  0
LINE
  5
5A1
330
1E
100
AcDbEntity
  8
4
100
AcDbLine
 10
369.0892595447326
 20
146.3848576055996
 30
0.0
 11
377.0892595447326
 21
146.3848576055996
 31
0.0
  0
LINE
  5
5A2
330
1E
100
AcDbEntity
  8
4
100
AcDbLine
 10
369.0892595447326
 20
137.3848576055997
 30
0.0
 11
377.0892595447326
 21
137.3848576055997
 31
0.0
  0
LINE
  5
5A3
330
1E
100
AcDbEntity
  8
4
100
AcDbLine
 10
367.0892595447326
 20
139.3848576055997
 30
0.0
 11
355.0892595447326
 21
139.3848576055997
 31
0.0
  0
LINE
  5
5A4
330
1E
100
AcDbEntity
  8
4
100
AcDbLine
 10
353.0892595447326
 20
137.3848576055997
 30
0.0
 11
367.0892595447326
 21
137.3848576055997
 31
0.0
  0
LINE
  5
5A5
330
1E
100
AcDbEntity
  8
4
100
AcDbLine
 10
355.0892595447326
 20
139.3848576055997
 30
0.0
 11
353.0892595447326
 21
137.3848576055997
 31
0.0
  0
ARC
  5
5A6
330
1E
100
AcDbEntity
  8
4
100
AcDbCircle
 10
373.1517595447326
 20
141.8848576055996
 30
0.0
 40
6.0625
100
AcDbArc
 50
132.0750220508425
 51
227.9249779491573
  0
LINE
  5
5A7
330
1E
100
AcDbEntity
  8
4
100
AcDbLine
 10
367.0892595447326
 20
144.3848576055998
 30
0.0
 11
369.0892595447326
 21
146.3848576055996
 31
0.0
  0
LINE
  5
5A8
330
1E
100
AcDbEntity
  8
4
100
AcDbLine
 10
423.0892595447325
 20
139.3848576055997
 30
0.0
 11
403.0892595447324
 21
139.3848576055997
 31
0.0
  0
LINE
  5
5A9
330
1E
100
AcDbEntity
  8
4
100
AcDbLine
 10
423.0892595447325
 20
137.3848576055997
 30
0.0
 11
403.0892595447324
 21
137.3848576055997
 31
0.0
  0
ARC
  5
5AA
330
1E
100
AcDbEntity
  8
4
100
AcDbCircle
 10
397.1517595447325
 20
141.8848576055996
 30
0.0
 40
6.0625
100
AcDbArc
 50
132.0750220508425
 51
227.9249779491573
  0
LINE
  5
5AB
330
1E
100
AcDbEntity
  8
4
100
AcDbLine
 10
391.0892595447326
 20
144.3848576055998
 30
0.0
 11
393.0892595447326
 21
146.3848576055996
 31
0.0
  0
ARC
  5
5AC
330
1E
100
AcDbEntity
  8
4
100
AcDbCircle
 10
373.0267595447326
 20
141.8848576055996
 30
0.0
 40
6.0625
100
AcDbArc
 50
312.0750220508427
 51
47.92497794915729
  0
LINE
  5
5AD
330
1E
100
AcDbEntity
  8
4
100
AcDbLine
 10
379.0892595447326
 20
137.3848576055997
 30
0.0
 11
391.0892595447326
 21
137.3848576055997
 31
0.0
  0
LINE
  5
5AE
330
1E
100
AcDbEntity
  8
4
100
AcDbLine
 10
391.0892595447326
 20
139.3848576055997
 30
0.0
 11
379.0892595447326
 21
139.3848576055997
 31
0.0
  0
LINE
  5
5AF
330
1E
100
AcDbEntity
  8
4
100
AcDbLine
 10
377.0892595447326
 20
146.3848576055996
 30
0.0
 11
379.0892595447326
 21
144.3848576055998
 31
0.0
  0
ARC
  5
5B0
330
1E
100
AcDbEntity
  8
4
100
AcDbCircle
 10
397.0267595447326
 20
141.8848576055996
 30
0.0
 40
6.0625
100
AcDbArc
 50
312.0750220508427
 51
47.92497794915729
  0
LINE
  5
5B1
330
1E
100
AcDbEntity
  8
4
100
AcDbLine
 10
393.0892595447326
 20
137.3848576055997
 30
0.0
 11
401.0892595447326
 21
137.3848576055997
 31
0.0
  0
LINE
  5
5B2
330
1E
100
AcDbEntity
  8
4
100
AcDbLine
 10
393.0892595447326
 20
146.3848576055996
 30
0.0
 11
401.0892595447326
 21
146.3848576055996
 31
0.0
  0
LINE
  5
5B3
330
1E
100
AcDbEntity
  8
4
100
AcDbLine
 10
401.0892595447326
 20
146.3848576055996
 30
0.0
 11
403.0892595447324
 21
144.3848576055998
 31
0.0
  0
LINE
  5
5B4
330
1E
100
AcDbEntity
  8
4
100
AcDbLine
 10
456.4363711048269
 20
144.3848576055998
 30
0.0
 11
442.9363711048268
 21
144.3848576055998
 31
0.0
  0
LINE
  5
5B5
330
1E
100
AcDbEntity
  8
4
100
AcDbLine
 10
457.4363711048269
 20
143.3848576055996
 30
0.0
 11
457.4363711048269
 21
115.3848576055997
 31
0.0
  0
LINE
  5
5B6
330
1E
100
AcDbEntity
  8
4
100
AcDbLine
 10
456.4363711048269
 20
144.3848576055998
 30
0.0
 11
457.4363711048269
 21
143.3848576055996
 31
0.0
  0
LINE
  5
5B7
330
1E
100
AcDbEntity
  8
4
100
AcDbLine
 10
456.4363711048269
 20
114.3848576055997
 30
0.0
 11
442.9363711048268
 21
114.3848576055997
 31
0.0
  0
LINE
  5
5B8
330
1E
100
AcDbEntity
  8
2
100
AcDbLine
 10
442.9999999999998
 20
114.0
 30
0.0
 11
462.9999999999998
 21
114.0
 31
0.0
  0
LINE
  5
5B9
330
1E
100
AcDbEntity
  8
4
100
AcDbLine
 10
457.4363711048269
 20
115.3848576055997
 30
0.0
 11
456.4363711048269
 21
114.3848576055997
 31
0.0
  0
LINE
  5
5D6
330
1E
100
AcDbEntity
  8
0
100
AcDbLine
 10
462.9999999999998
 20
107.0
 30
0.0
 11
423.0
 21
108.0
 31
0.0
  0
LINE
  5
5D7
330
1E
100
AcDbEntity
  8
4
100
AcDbLine
 10
393.0892595447326
 20
436.3848576055999
 30
0.0
 11
401.0892595447326
 21
436.3848576055999
 31
0.0
  0
LINE
  5
5D8
330
1E
100
AcDbEntity
  8
4
100
AcDbLine
 10
393.0892595447326
 20
427.3848576055999
 30
0.0
 11
401.0892595447326
 21
427.3848576055999
 31
0.0
  0
LINE
  5
5D9
330
1E
100
AcDbEntity
  8
4
100
AcDbLine
 10
393.0892595447326
 20
411.3848576055999
 30
0.0
 11
401.0892595447326
 21
411.3848576055999
 31
0.0
  0
LINE
  5
5DA
330
1E
100
AcDbEntity
  8
4
100
AcDbLine
 10
401.0892595447326
 20
402.3848576055999
 30
0.0
 11
393.0892595447326
 21
402.3848576055999
 31
0.0
  0
LINE
  5
5DB
330
1E
100
AcDbEntity
  8
1
100
AcDbLine
 10
343.0
 20
419.5
 30
0.0
 11
472.4999999999998
 21
419.5
 31
0.0
  0
ARC
  5
5DC
330
1E
100
AcDbEntity
  8
4
100
AcDbCircle
 10
408.0892595447326
 20
419.3848576055999
 30
0.0
 40
17.0
100
AcDbArc
 50
151.9275130641455
 51
208.0724869358545
  0
ARC
  5
5DD
330
1E
100
AcDbEntity
  8
4
100
AcDbCircle
 10
384.0892595447326
 20
419.3848576055999
 30
0.0
 40
17.0
100
AcDbArc
 50
151.9275130641455
 51
208.0724869358545
  0
LINE
  5
5DE
330
1E
100
AcDbEntity
  8
4
100
AcDbLine
 10
353.0892595447326
 20
427.3848576055999
 30
0.0
 11
353.0892595447326
 21
411.3848576055999
 31
0.0
  0
LINE
  5
5DF
330
1E
100
AcDbEntity
  8
4
100
AcDbLine
 10
355.0892595447326
 20
409.3848576055998
 30
0.0
 11
355.0892595447326
 21
429.3848576055999
 31
0.0
  0
ARC
  5
5E0
330
1E
100
AcDbEntity
  8
4
100
AcDbCircle
 10
362.0892595447326
 20
419.3848576055999
 30
0.0
 40
17.0
100
AcDbArc
 50
331.9275130641455
 51
28.07248693585449
  0
LINE
  5
5E1
330
1E
100
AcDbEntity
  8
4
100
AcDbLine
 10
391.0892595447326
 20
404.3848576055999
 30
0.0
 11
391.0892595447326
 21
434.3848576055998
 31
0.0
  0
LINE
  5
5E2
330
1E
100
AcDbEntity
  8
4
100
AcDbLine
 10
379.0892595447326
 20
434.3848576055998
 30
0.0
 11
379.0892595447326
 21
404.3848576055999
 31
0.0
  0
LINE
  5
5E3
330
1E
100
AcDbEntity
  8
4
100
AcDbLine
 10
367.0892595447326
 20
404.3848576055999
 30
0.0
 11
367.0892595447326
 21
434.3848576055998
 31
0.0
  0
LINE
  5
5E4
330
1E
100
AcDbEntity
  8
4
100
AcDbLine
 10
369.0892595447326
 20
402.3848576055999
 30
0.0
 11
367.0892595447326
 21
404.3848576055999
 31
0.0
  0
ARC
  5
5E5
330
1E
100
AcDbEntity
  8
4
100
AcDbCircle
 10
373.1517595447326
 20
406.8848576055999
 30
0.0
 40
6.0625
100
AcDbArc
 50
132.0750220508425
 51
227.9249779491573
  0
LINE
  5
5E6
330
1E
100
AcDbEntity
  8
4
100
AcDbLine
 10
353.0892595447326
 20
411.3848576055999
 30
0.0
 11
355.0892595447326
 21
409.3848576055998
 31
0.0
  0
LINE
  5
5E7
330
1E
100
AcDbEntity
  8
4
100
AcDbLine
 10
353.0892595447326
 20
411.3848576055999
 30
0.0
 11
367.0892595447326
 21
411.3848576055999
 31
0.0
  0
LINE
  5
5E8
330
1E
100
AcDbEntity
  8
4
100
AcDbLine
 10
367.0892595447326
 20
409.3848576055998
 30
0.0
 11
355.0892595447326
 21
409.3848576055998
 31
0.0
  0
LINE
  5
5E9
330
1E
100
AcDbEntity
  8
4
100
AcDbLine
 10
379.0892595447326
 20
411.3848576055999
 30
0.0
 11
391.0892595447326
 21
411.3848576055999
 31
0.0
  0
LINE
  5
5EA
330
1E
100
AcDbEntity
  8
4
100
AcDbLine
 10
391.0892595447326
 20
409.3848576055998
 30
0.0
 11
379.0892595447326
 21
409.3848576055998
 31
0.0
  0
ARC
  5
5EB
330
1E
100
AcDbEntity
  8
4
100
AcDbCircle
 10
373.0267595447326
 20
406.8848576055999
 30
0.0
 40
6.0625
100
AcDbArc
 50
312.0750220508427
 51
47.92497794915729
  0
LINE
  5
5EC
330
1E
100
AcDbEntity
  8
4
100
AcDbLine
 10
377.0892595447326
 20
402.3848576055999
 30
0.0
 11
369.0892595447326
 21
402.3848576055999
 31
0.0
  0
LINE
  5
5ED
330
1E
100
AcDbEntity
  8
4
100
AcDbLine
 10
379.0892595447326
 20
404.3848576055999
 30
0.0
 11
377.0892595447326
 21
402.3848576055999
 31
0.0
  0
LINE
  5
5EE
330
1E
100
AcDbEntity
  8
4
100
AcDbLine
 10
369.0892595447326
 20
411.3848576055999
 30
0.0
 11
377.0892595447326
 21
411.3848576055999
 31
0.0
  0
ARC
  5
5EF
330
1E
100
AcDbEntity
  8
4
100
AcDbCircle
 10
397.1517595447325
 20
406.8848576055999
 30
0.0
 40
6.0625
100
AcDbArc
 50
132.0750220508425
 51
227.9249779491573
  0
LINE
  5
5F0
330
1E
100
AcDbEntity
  8
4
100
AcDbLine
 10
393.0892595447326
 20
402.3848576055999
 30
0.0
 11
391.0892595447326
 21
404.3848576055999
 31
0.0
  0
LINE
  5
5F1
330
1E
100
AcDbEntity
  8
4
100
AcDbLine
 10
367.0892595447326
 20
434.3848576055998
 30
0.0
 11
369.0892595447326
 21
436.3848576055999
 31
0.0
  0
ARC
  5
5F2
330
1E
100
AcDbEntity
  8
4
100
AcDbCircle
 10
373.1517595447326
 20
431.8848576055999
 30
0.0
 40
6.0625
100
AcDbArc
 50
132.0750220508425
 51
227.9249779491573
  0
LINE
  5
5F3
330
1E
100
AcDbEntity
  8
4
100
AcDbLine
 10
355.0892595447326
 20
429.3848576055999
 30
0.0
 11
353.0892595447326
 21
427.3848576055999
 31
0.0
  0
LINE
  5
5F4
330
1E
100
AcDbEntity
  8
4
100
AcDbLine
 10
353.0892595447326
 20
427.3848576055999
 30
0.0
 11
367.0892595447326
 21
427.3848576055999
 31
0.0
  0
LINE
  5
5F5
330
1E
100
AcDbEntity
  8
4
100
AcDbLine
 10
367.0892595447326
 20
429.3848576055999
 30
0.0
 11
355.0892595447326
 21
429.3848576055999
 31
0.0
  0
LINE
  5
5F6
330
1E
100
AcDbEntity
  8
4
100
AcDbLine
 10
391.0892595447326
 20
429.3848576055999
 30
0.0
 11
379.0892595447326
 21
429.3848576055999
 31
0.0
  0
LINE
  5
5F7
330
1E
100
AcDbEntity
  8
4
100
AcDbLine
 10
379.0892595447326
 20
427.3848576055999
 30
0.0
 11
391.0892595447326
 21
427.3848576055999
 31
0.0
  0
LINE
  5
5F8
330
1E
100
AcDbEntity
  8
4
100
AcDbLine
 10
377.0892595447326
 20
436.3848576055999
 30
0.0
 11
379.0892595447326
 21
434.3848576055998
 31
0.0
  0
ARC
  5
5F9
330
1E
100
AcDbEntity
  8
4
100
AcDbCircle
 10
373.0267595447326
 20
431.8848576055999
 30
0.0
 40
6.0625
100
AcDbArc
 50
312.0750220508427
 51
47.92497794915729
  0
LINE
  5
5FA
330
1E
100
AcDbEntity
  8
4
100
AcDbLine
 10
369.0892595447326
 20
427.3848576055999
 30
0.0
 11
377.0892595447326
 21
427.3848576055999
 31
0.0
  0
LINE
  5
5FB
330
1E
100
AcDbEntity
  8
4
100
AcDbLine
 10
369.0892595447326
 20
436.3848576055999
 30
0.0
 11
377.0892595447326
 21
436.3848576055999
 31
0.0
  0
LINE
  5
5FC
330
1E
100
AcDbEntity
  8
4
100
AcDbLine
 10
391.0892595447326
 20
434.3848576055998
 30
0.0
 11
393.0892595447326
 21
436.3848576055999
 31
0.0
  0
ARC
  5
5FD
330
1E
100
AcDbEntity
  8
4
100
AcDbCircle
 10
397.1517595447325
 20
431.8848576055999
 30
0.0
 40
6.0625
100
AcDbArc
 50
132.0750220508425
 51
227.9249779491573
  0
ARC
  5
5FE
330
1E
100
AcDbEntity
  8
4
100
AcDbCircle
 10
386.0892595447326
 20
419.3848576055999
 30
0.0
 40
17.0
100
AcDbArc
 50
331.9275130641455
 51
28.07248693585449
  0
LINE
  5
5FF
330
1E
100
AcDbEntity
  8
4
100
AcDbLine
 10
403.0892595447324
 20
434.3848576055998
 30
0.0
 11
403.0892595447324
 21
404.3848576055999
 31
0.0
  0
LINE
  5
600
330
1E
100
AcDbEntity
  8
1
100
AcDbLine
 10
405.2016520017605
 20
419.5
 30
0.0
 11
472.5
 21
419.5
 31
0.0
  0
LINE
  5
601
330
1E
100
AcDbEntity
  8
4
100
AcDbLine
 10
423.0892595447325
 20
409.3848576055998
 30
0.0
 11
403.0892595447324
 21
409.3848576055998
 31
0.0
  0
LINE
  5
602
330
1E
100
AcDbEntity
  8
4
100
AcDbLine
 10
423.0892595447325
 20
411.3848576055999
 30
0.0
 11
403.0892595447324
 21
411.3848576055999
 31
0.0
  0
ARC
  5
603
330
1E
100
AcDbEntity
  8
4
100
AcDbCircle
 10
397.0267595447326
 20
406.8848576055999
 30
0.0
 40
6.0625
100
AcDbArc
 50
312.0750220508427
 51
47.92497794915729
  0
LINE
  5
604
330
1E
100
AcDbEntity
  8
4
100
AcDbLine
 10
403.0892595447324
 20
404.3848576055999
 30
0.0
 11
401.0892595447326
 21
402.3848576055999
 31
0.0
  0
LINE
  5
605
330
1E
100
AcDbEntity
  8
4
100
AcDbLine
 10
423.0892595447325
 20
427.3848576055999
 30
0.0
 11
403.0892595447324
 21
427.3848576055999
 31
0.0
  0
LINE
  5
606
330
1E
100
AcDbEntity
  8
4
100
AcDbLine
 10
423.0892595447325
 20
429.3848576055999
 30
0.0
 11
403.0892595447324
 21
429.3848576055999
 31
0.0
  0
LINE
  5
607
330
1E
100
AcDbEntity
  8
4
100
AcDbLine
 10
401.0892595447326
 20
436.3848576055999
 30
0.0
 11
403.0892595447324
 21
434.3848576055998
 31
0.0
  0
ARC
  5
608
330
1E
100
AcDbEntity
  8
4
100
AcDbCircle
 10
397.0267595447326
 20
431.8848576055999
 30
0.0
 40
6.0625
100
AcDbArc
 50
312.0750220508427
 51
47.92497794915729
  0
LINE
  5
609
330
1E
100
AcDbEntity
  8
4
100
AcDbLine
 10
456.4363711048269
 20
434.3848576055998
 30
0.0
 11
442.9363711048268
 21
434.3848576055998
 31
0.0
  0
LINE
  5
60A
330
1E
100
AcDbEntity
  8
4
100
AcDbLine
 10
457.4363711048269
 20
433.3848576055999
 30
0.0
 11
457.4363711048269
 21
405.3848576055998
 31
0.0
  0
LINE
  5
60B
330
1E
100
AcDbEntity
  8
4
100
AcDbLine
 10
456.4363711048269
 20
434.3848576055998
 30
0.0
 11
457.4363711048269
 21
433.3848576055999
 31
0.0
  0
LINE
  5
60C
330
1E
100
AcDbEntity
  8
4
100
AcDbLine
 10
457.4363711048269
 20
405.3848576055998
 30
0.0
 11
456.4363711048269
 21
404.3848576055999
 31
0.0
  0
LINE
  5
60D
330
1E
100
AcDbEntity
  8
4
100
AcDbLine
 10
456.4363711048269
 20
404.3848576055999
 30
0.0
 11
442.9363711048268
 21
404.3848576055999
 31
0.0
  0
LINE
  5
60E
330
1E
100
AcDbEntity
  8
1
100
AcDbLine
 10
343.0
 20
588.4999999999998
 30
0.0
 11
472.4999999999998
 21
588.4999999999998
 31
0.0
  0
LINE
  5
60F
330
1E
100
AcDbEntity
  8
4
100
AcDbLine
 10
401.0892595447326
 20
571.3848576055998
 30
0.0
 11
393.0892595447326
 21
571.3848576055998
 31
0.0
  0
LINE
  5
610
330
1E
100
AcDbEntity
  8
4
100
AcDbLine
 10
393.0892595447326
 20
580.3848576055997
 30
0.0
 11
401.0892595447326
 21
580.3848576055997
 31
0.0
  0
LINE
  5
611
330
1E
100
AcDbEntity
  8
4
100
AcDbLine
 10
393.0892595447326
 20
596.3848576055998
 30
0.0
 11
401.0892595447326
 21
596.3848576055998
 31
0.0
  0
LINE
  5
612
330
1E
100
AcDbEntity
  8
4
100
AcDbLine
 10
393.0892595447326
 20
605.3848576055997
 30
0.0
 11
401.0892595447326
 21
605.3848576055997
 31
0.0
  0
ARC
  5
613
330
1E
100
AcDbEntity
  8
4
100
AcDbCircle
 10
397.1517595447325
 20
575.8848576055997
 30
0.0
 40
6.0625
100
AcDbArc
 50
132.0750220508425
 51
227.9249779491573
  0
ARC
  5
614
330
1E
100
AcDbEntity
  8
4
100
AcDbCircle
 10
373.0267595447326
 20
575.8848576055997
 30
0.0
 40
6.0625
100
AcDbArc
 50
312.0750220508427
 51
47.92497794915729
  0
ARC
  5
615
330
1E
100
AcDbEntity
  8
4
100
AcDbCircle
 10
373.1517595447326
 20
575.8848576055997
 30
0.0
 40
6.0625
100
AcDbArc
 50
132.0750220508425
 51
227.9249779491573
  0
LINE
  5
616
330
1E
100
AcDbEntity
  8
4
100
AcDbLine
 10
367.0892595447326
 20
573.3848576055997
 30
0.0
 11
367.0892595447326
 21
603.3848576055998
 31
0.0
  0
LINE
  5
617
330
1E
100
AcDbEntity
  8
4
100
AcDbLine
 10
379.0892595447326
 20
603.3848576055998
 30
0.0
 11
379.0892595447326
 21
573.3848576055997
 31
0.0
  0
LINE
  5
618
330
1E
100
AcDbEntity
  8
4
100
AcDbLine
 10
391.0892595447326
 20
573.3848576055997
 30
0.0
 11
391.0892595447326
 21
603.3848576055998
 31
0.0
  0
LINE
  5
619
330
1E
100
AcDbEntity
  8
4
100
AcDbLine
 10
369.0892595447326
 20
571.3848576055998
 30
0.0
 11
367.0892595447326
 21
573.3848576055997
 31
0.0
  0
LINE
  5
61A
330
1E
100
AcDbEntity
  8
4
100
AcDbLine
 10
377.0892595447326
 20
571.3848576055998
 30
0.0
 11
369.0892595447326
 21
571.3848576055998
 31
0.0
  0
LINE
  5
61B
330
1E
100
AcDbEntity
  8
4
100
AcDbLine
 10
379.0892595447326
 20
573.3848576055997
 30
0.0
 11
377.0892595447326
 21
571.3848576055998
 31
0.0
  0
LINE
  5
61C
330
1E
100
AcDbEntity
  8
4
100
AcDbLine
 10
393.0892595447326
 20
571.3848576055998
 30
0.0
 11
391.0892595447326
 21
573.3848576055997
 31
0.0
  0
ARC
  5
61D
330
1E
100
AcDbEntity
  8
4
100
AcDbCircle
 10
373.1517595447326
 20
600.8848576055997
 30
0.0
 40
6.0625
100
AcDbArc
 50
132.0750220508425
 51
227.9249779491573
  0
LINE
  5
61E
330
1E
100
AcDbEntity
  8
4
100
AcDbLine
 10
367.0892595447326
 20
603.3848576055998
 30
0.0
 11
369.0892595447326
 21
605.3848576055997
 31
0.0
  0
ARC
  5
61F
330
1E
100
AcDbEntity
  8
4
100
AcDbCircle
 10
384.0892595447326
 20
588.3848576055997
 30
0.0
 40
17.0
100
AcDbArc
 50
151.9275130641455
 51
208.0724869358545
  0
LINE
  5
620
330
1E
100
AcDbEntity
  8
4
100
AcDbLine
 10
353.0892595447326
 20
596.3848576055998
 30
0.0
 11
367.0892595447326
 21
596.3848576055998
 31
0.0
  0
LINE
  5
621
330
1E
100
AcDbEntity
  8
4
100
AcDbLine
 10
355.0892595447326
 20
598.3848576055997
 30
0.0
 11
353.0892595447326
 21
596.3848576055998
 31
0.0
  0
LINE
  5
622
330
1E
100
AcDbEntity
  8
4
100
AcDbLine
 10
353.0892595447326
 20
580.3848576055997
 30
0.0
 11
367.0892595447326
 21
580.3848576055997
 31
0.0
  0
LINE
  5
623
330
1E
100
AcDbEntity
  8
4
100
AcDbLine
 10
353.0892595447326
 20
580.3848576055997
 30
0.0
 11
355.0892595447326
 21
578.3848576055998
 31
0.0
  0
LINE
  5
624
330
1E
100
AcDbEntity
  8
4
100
AcDbLine
 10
353.0892595447326
 20
596.3848576055998
 30
0.0
 11
353.0892595447326
 21
580.3848576055997
 31
0.0
  0
LINE
  5
625
330
1E
100
AcDbEntity
  8
4
100
AcDbLine
 10
355.0892595447326
 20
578.3848576055998
 30
0.0
 11
355.0892595447326
 21
598.3848576055997
 31
0.0
  0
LINE
  5
626
330
1E
100
AcDbEntity
  8
4
100
AcDbLine
 10
367.0892595447326
 20
578.3848576055998
 30
0.0
 11
355.0892595447326
 21
578.3848576055998
 31
0.0
  0
LINE
  5
627
330
1E
100
AcDbEntity
  8
4
100
AcDbLine
 10
367.0892595447326
 20
598.3848576055997
 30
0.0
 11
355.0892595447326
 21
598.3848576055997
 31
0.0
  0
ARC
  5
628
330
1E
100
AcDbEntity
  8
4
100
AcDbCircle
 10
397.1517595447325
 20
600.8848576055997
 30
0.0
 40
6.0625
100
AcDbArc
 50
132.0750220508425
 51
227.9249779491573
  0
ARC
  5
629
330
1E
100
AcDbEntity
  8
4
100
AcDbCircle
 10
373.0267595447326
 20
600.8848576055997
 30
0.0
 40
6.0625
100
AcDbArc
 50
312.0750220508427
 51
47.92497794915729
  0
LINE
  5
62A
330
1E
100
AcDbEntity
  8
4
100
AcDbLine
 10
379.0892595447326
 20
596.3848576055998
 30
0.0
 11
391.0892595447326
 21
596.3848576055998
 31
0.0
  0
LINE
  5
62B
330
1E
100
AcDbEntity
  8
4
100
AcDbLine
 10
391.0892595447326
 20
598.3848576055997
 30
0.0
 11
379.0892595447326
 21
598.3848576055997
 31
0.0
  0
LINE
  5
62C
330
1E
100
AcDbEntity
  8
4
100
AcDbLine
 10
391.0892595447326
 20
578.3848576055998
 30
0.0
 11
379.0892595447326
 21
578.3848576055998
 31
0.0
  0
LINE
  5
62D
330
1E
100
AcDbEntity
  8
4
100
AcDbLine
 10
379.0892595447326
 20
580.3848576055997
 30
0.0
 11
391.0892595447326
 21
580.3848576055997
 31
0.0
  0
ARC
  5
62E
330
1E
100
AcDbEntity
  8
4
100
AcDbCircle
 10
362.0892595447326
 20
588.3848576055997
 30
0.0
 40
17.0
100
AcDbArc
 50
331.9275130641455
 51
28.07248693585449
  0
LINE
  5
62F
330
1E
100
AcDbEntity
  8
4
100
AcDbLine
 10
369.0892595447326
 20
580.3848576055997
 30
0.0
 11
377.0892595447326
 21
580.3848576055997
 31
0.0
  0
LINE
  5
630
330
1E
100
AcDbEntity
  8
4
100
AcDbLine
 10
369.0892595447326
 20
596.3848576055998
 30
0.0
 11
377.0892595447326
 21
596.3848576055998
 31
0.0
  0
ARC
  5
631
330
1E
100
AcDbEntity
  8
4
100
AcDbCircle
 10
408.0892595447326
 20
588.3848576055997
 30
0.0
 40
17.0
100
AcDbArc
 50
151.9275130641455
 51
208.0724869358545
  0
LINE
  5
632
330
1E
100
AcDbEntity
  8
4
100
AcDbLine
 10
369.0892595447326
 20
605.3848576055997
 30
0.0
 11
377.0892595447326
 21
605.3848576055997
 31
0.0
  0
LINE
  5
633
330
1E
100
AcDbEntity
  8
4
100
AcDbLine
 10
377.0892595447326
 20
605.3848576055997
 30
0.0
 11
379.0892595447326
 21
603.3848576055998
 31
0.0
  0
LINE
  5
634
330
1E
100
AcDbEntity
  8
4
100
AcDbLine
 10
391.0892595447326
 20
603.3848576055998
 30
0.0
 11
393.0892595447326
 21
605.3848576055997
 31
0.0
  0
LINE
  5
635
330
1E
100
AcDbEntity
  8
1
100
AcDbLine
 10
405.2016520017605
 20
588.4999999999998
 30
0.0
 11
472.5
 21
588.4999999999998
 31
0.0
  0
LINE
  5
636
330
1E
100
AcDbEntity
  8
1
100
AcDbLine
 10
472.5
 20
588.4999999999998
 30
0.0
 11
403.3952022059996
 21
588.4999999999998
 31
0.0
  0
ARC
  5
637
330
1E
100
AcDbEntity
  8
4
100
AcDbCircle
 10
397.0267595447326
 20
575.8848576055997
 30
0.0
 40
6.0625
100
AcDbArc
 50
312.0750220508427
 51
47.92497794915729
  0
LINE
  5
638
330
1E
100
AcDbEntity
  8
4
100
AcDbLine
 10
403.0892595447324
 20
603.3848576055998
 30
0.0
 11
403.0892595447324
 21
573.3848576055997
 31
0.0
  0
LINE
  5
639
330
1E
100
AcDbEntity
  8
4
100
AcDbLine
 10
403.0892595447324
 20
573.3848576055997
 30
0.0
 11
401.0892595447326
 21
571.3848576055998
 31
0.0
  0
ARC
  5
63A
330
1E
100
AcDbEntity
  8
4
100
AcDbCircle
 10
397.0267595447326
 20
600.8848576055997
 30
0.0
 40
6.0625
100
AcDbArc
 50
312.0750220508427
 51
47.92497794915729
  0
LINE
  5
63B
330
1E
100
AcDbEntity
  8
4
100
AcDbLine
 10
423.0892595447325
 20
598.3848576055997
 30
0.0
 11
403.0892595447324
 21
598.3848576055997
 31
0.0
  0
LINE
  5
63C
330
1E
100
AcDbEntity
  8
4
100
AcDbLine
 10
423.0892595447325
 20
596.3848576055998
 30
0.0
 11
403.0892595447324
 21
596.3848576055998
 31
0.0
  0
LINE
  5
63D
330
1E
100
AcDbEntity
  8
4
100
AcDbLine
 10
423.0892595447325
 20
580.3848576055997
 30
0.0
 11
403.0892595447324
 21
580.3848576055997
 31
0.0
  0
LINE
  5
63E
330
1E
100
AcDbEntity
  8
4
100
AcDbLine
 10
423.0892595447325
 20
578.3848576055998
 30
0.0
 11
403.0892595447324
 21
578.3848576055998
 31
0.0
  0
ARC
  5
63F
330
1E
100
AcDbEntity
  8
4
100
AcDbCircle
 10
386.0892595447326
 20
588.3848576055997
 30
0.0
 40
17.0
100
AcDbArc
 50
331.9275130641455
 51
28.07248693585449
  0
LINE
  5
640
330
1E
100
AcDbEntity
  8
4
100
AcDbLine
 10
401.0892595447326
 20
605.3848576055997
 30
0.0
 11
403.0892595447324
 21
603.3848576055998
 31
0.0
  0
LINE
  5
641
330
1E
100
AcDbEntity
  8
4
100
AcDbLine
 10
456.4363711048269
 20
603.3848576055998
 30
0.0
 11
442.9363711048268
 21
603.3848576055998
 31
0.0
  0
LINE
  5
642
330
1E
100
AcDbEntity
  8
4
100
AcDbLine
 10
457.4363711048269
 20
602.3848576055997
 30
0.0
 11
457.4363711048269
 21
574.3848576055998
 31
0.0
  0
LINE
  5
643
330
1E
100
AcDbEntity
  8
4
100
AcDbLine
 10
456.4363711048269
 20
603.3848576055998
 30
0.0
 11
457.4363711048269
 21
602.3848576055997
 31
0.0
  0
LINE
  5
644
330
1E
100
AcDbEntity
  8
4
100
AcDbLine
 10
457.4363711048269
 20
574.3848576055998
 30
0.0
 11
456.4363711048269
 21
573.3848576055997
 31
0.0
  0
LINE
  5
645
330
1E
100
AcDbEntity
  8
4
100
AcDbLine
 10
456.4363711048269
 20
573.3848576055997
 30
0.0
 11
442.9363711048268
 21
573.3848576055997
 31
0.0
  0
CIRCLE
  5
646
330
1E
100
AcDbEntity
  8
0
100
AcDbCircle
 10
208.9999999999998
 20
419.4999999999998
 30
0.0
 40
14.5086181285469
  0
POLYLINE
  5
647
330
1E
100
AcDbEntity
  8
0
100
AcDb2dPolyline
 66
     1
 10
0.0
 20
0.0
 30
0.0
 70
     1
  0
VERTEX
  5
648
330
647
100
AcDbEntity
  8
0
100
AcDbVertex
100
AcDb2dVertex
 10
208.9999999999998
 20
436.4999999999998
 30
0.0
  0
VERTEX
  5
649
330
647
100
AcDbEntity
  8
0
100
AcDbVertex
100
AcDb2dVertex
 10
194.2775681356645
 20
427.9999999999998
 30
0.0
  0
VERTEX
  5
64A
330
647
100
AcDbEntity
  8
0
100
AcDbVertex
100
AcDb2dVertex
 10
194.2775681356645
 20
410.9999999999998
 30
0.0
  0
VERTEX
  5
64B
330
647
100
AcDbEntity
  8
0
100
AcDbVertex
100
AcDb2dVertex
 10
208.9999999999998
 20
402.4999999999998
 30
0.0
  0
VERTEX
  5
64C
330
647
100
AcDbEntity
  8
0
100
AcDbVertex
100
AcDb2dVertex
 10
223.7224318643353
 20
410.9999999999998
 30
0.0
  0
VERTEX
  5
64D
330
647
100
AcDbEntity
  8
0
100
AcDbVertex
100
AcDb2dVertex
 10
223.7224318643353
 20
427.9999999999998
 30
0.0
  0
SEQEND
  5
64E
330
647
100
AcDbEntity
  8
0
  0
CIRCLE
  5
64F
330
1E
100
AcDbEntity
  8
0
100
AcDbCircle
 10
656.0
 20
419.5000000000002
 30
0.0
 40
14.5
  0
LINE
  5
651
330
1E
100
AcDbEntity
  8
0
100
AcDbLine
 10
657.0
 20
433.9654761414895
 30
0.0
 11
657.0
 21
405.0345238585107
 31
0.0
  0
LINE
  5
653
330
1E
100
AcDbEntity
  8
0
100
AcDbLine
 10
655.0
 20
405.0345238585107
 30
0.0
 11
655.0000000000001
 21
433.9654761414895
 31
0.0
  0
LINE
  5
656
330
1E
100
AcDbEntity
  8
0
100
AcDbLine
 10
462.9999999999998
 20
440.5
 30
0.0
 11
462.9999999999998
 21
442.0
 31
0.0
  0
TEXT
  5
681
330
1E
100
AcDbEntity
  8
0
100
AcDbText
 10
636.8212530171931
 20
25.13871092765254
 30
0.0
 40
16.0
  1
AL-2-90
 41
0.8
  7
BIGFONT
100
AcDbText
  0
ENDSEC
  0
SECTION
  2
OBJECTS
  0
DICTIONARY
  5
C
330
0
100
AcDbDictionary
281
     1
  3
ACAD_GROUP
350
D
  3
ACAD_LAYOUT
350
19
  3
ACAD_MLINESTYLE
350
16
  3
ACAD_PLOTSETTINGS
350
18
  3
ACAD_PLOTSTYLENAME
350
E
  3
AcDbVariableDictionary
350
29A
  3
AcmDictionary
350
1AA
  3
AMG
350
F0
  3
AMGSNAPSETTINGS
350
1C7
  3
DWGPROPS
350
73B
  0
DICTIONARY
  5
292
330
1E
100
AcDbDictionary
280
     1
281
     1
  3
ACAD_INDEX
360
293
  0
DICTIONARY
  5
D
102
{ACAD_REACTORS
330
C
102
}
330
C
100
AcDbDictionary
281
     1
  0
DICTIONARY
  5
19
102
{ACAD_REACTORS
330
C
102
}
330
C
100
AcDbDictionary
281
     1
  3
Model
350
21
  3
ﾚｲｱｳﾄ1
350
1D
  0
DICTIONARY
  5
16
102
{ACAD_REACTORS
330
C
102
}
330
C
100
AcDbDictionary
281
     1
  3
Standard
350
17
  0
DICTIONARY
  5
18
102
{ACAD_REACTORS
330
C
102
}
330
C
100
AcDbDictionary
281
     1
  0
ACDBDICTIONARYWDFLT
  5
E
102
{ACAD_REACTORS
330
C
102
}
330
C
100
AcDbDictionary
281
     1
  3
Normal
350
F
100
AcDbDictionaryWithDefault
340
F
  0
DICTIONARY
  5
29A
102
{ACAD_REACTORS
330
C
102
}
330
C
100
AcDbDictionary
281
     1
  3
DIMASSOC
350
29C
  3
INDEXCTL
350
29B
  0
DICTIONARY
  5
1AA
102
{ACAD_REACTORS
330
C
102
}
330
C
100
AcDbDictionary
281
     1
  3
AcmBOMDATA
350
739
  0
DICTIONARY
  5
F0
102
{ACAD_REACTORS
330
C
102
}
330
C
100
AcDbDictionary
281
     1
  3
AcMgSettings
350
F1
  3
AMGLAYCFG
350
743
  0
DICTIONARY
  5
1C7
102
{ACAD_REACTORS
330
C
102
}
330
C
100
AcDbDictionary
281
     1
  3
DIMENSION
350
1CC
  3
FEA
350
1CB
  3
HATCH (1)
350
1C8
  3
HATCH (2)
350
1C9
  3
SIMPLE WELD
350
1CD
  3
SYMBOLS
350
1CA
  0
XRECORD
  5
73B
102
{ACAD_REACTORS
330
C
102
}
330
C
100
AcDbXrecord
280
     1
  1
DWGPROPS COOKIE
  2

  3

  4

  6

  7

  8

  9

300
AmdtFileType=84
301
=
302
=
303
=
304
=
305
=
306
=
307
=
308
=
309
=
 40
0.0745299768518519
 41
2450686.776944444
 42
2456525.483431342
  1

 90
        1
  0
DICTIONARY
  5
293
102
{ACAD_REACTORS
330
292
102
}
330
292
100
AcDbDictionary
281
     1
  3
*A1
350
294
  0
LAYOUT
  5
21
102
{ACAD_REACTORS
330
19
102
}
330
19
100
AcDbPlotSettings
  1

  2
\\KONISHIDENXP\SHARP MX-2700FG
  4

  6

 40
0.0
 41
0.0
 42
0.0
 43
0.0
 44
0.0
 45
0.0
 46
0.0
 47
0.0
 48
0.0
 49
0.0
140
0.0
141
0.0
142
1.0
143
1.0
 70
  1712
 72
     0
 73
     0
 74
     0
  7

 75
     0
147
1.0
148
0.0
149
0.0
100
AcDbLayout
  1
Model
 70
     1
 71
     0
 10
0.0
 20
0.0
 11
12.0
 21
9.0
 12
0.0
 22
0.0
 32
0.0
 14
0.0
 24
0.0
 34
0.0
 15
0.0
 25
0.0
 35
0.0
146
0.0
 13
0.0
 23
0.0
 33
0.0
 16
1.0
 26
0.0
 36
0.0
 17
0.0
 27
1.0
 37
0.0
 76
     0
330
1E
  0
LAYOUT
  5
1D
102
{ACAD_REACTORS
330
19
102
}
330
19
100
AcDbPlotSettings
  1

  2
\\KONISHIDENXP\SHARP MX-2700FG
  4

  6

 40
0.0
 41
0.0
 42
0.0
 43
0.0
 44
0.0
 45
0.0
 46
0.0
 47
0.0
 48
0.0
 49
0.0
140
0.0
141
0.0
142
1.0
143
1.0
 70
   688
 72
     0
 73
     0
 74
     5
  7

 75
    16
147
1.0
148
0.0
149
0.0
100
AcDbLayout
  1
ﾚｲｱｳﾄ1
 70
     1
 71
     1
 10
0.0
 20
0.0
 11
12.0
 21
9.0
 12
0.0
 22
0.0
 32
0.0
 14
1.000000000000000E+20
 24
1.000000000000000E+20
 34
1.000000000000000E+20
 15
-1.000000000000000E+20
 25
-1.000000000000000E+20
 35
-1.000000000000000E+20
146
0.0
 13
0.0
 23
0.0
 33
0.0
 16
1.0
 26
0.0
 36
0.0
 17
0.0
 27
1.0
 37
0.0
 76
     0
330
1A
  0
MLINESTYLE
  5
17
102
{ACAD_REACTORS
330
16
102
}
330
16
100
AcDbMlineStyle
  2
STANDARD
 70
     0
  3

 62
   256
 51
90.0
 52
90.0
 71
     2
 49
0.5
 62
   256
  6
BYLAYER
 49
-0.5
 62
   256
  6
BYLAYER
  0
ACDBPLACEHOLDER
  5
F
102
{ACAD_REACTORS
330
E
102
}
330
E
  0
DICTIONARYVAR
  5
29C
102
{ACAD_REACTORS
330
29A
102
}
330
29A
100
DictionaryVariables
280
     0
  1
1
  0
DICTIONARYVAR
  5
29B
102
{ACAD_REACTORS
330
29A
102
}
330
29A
100
DictionaryVariables
280
     0
  1
1
  0
ACMDATADICTIONARY
  5
739
102
{ACAD_REACTORS
330
1AA
102
}
330
1AA
100
AcDbDictionary
281
     1
  3
*A1
350
73A
100
AcmDataDictionary
  0
DICTIONARY
  5
F1
102
{ACAD_REACTORS
330
F0
102
}
330
F0
100
AcDbDictionary
281
     1
  3
DWGSETTINGS
350
68B
  0
ACAMGFILTERDAT
  5
1CC
102
{ACAD_REACTORS
330
1C7
102
}
330
1C7
100
AcAmgFilterDat
 70
    15
  1
DIMENSION,AMDT_*_DIM
  2
*
  3
*
  4
*
  5
*
290
     1
  0
ACAMGFILTERDAT
  5
1CB
102
{ACAD_REACTORS
330
1C7
102
}
330
1C7
100
AcAmgFilterDat
 70
    15
  1
*
  2
AM_FEA-AM_*
  3
*
  4
*
  5
*
290
     1
  0
ACAMGFILTERDAT
  5
1C8
102
{ACAD_REACTORS
330
1C7
102
}
330
1C7
100
AcAmgFilterDat
 70
    15
  1
HATCH
  2
*
  3
*
  4
*
  5
*
290
     1
  0
ACAMGFILTERDAT
  5
1C9
102
{ACAD_REACTORS
330
1C7
102
}
330
1C7
100
AcAmgFilterDat
 70
    15
  1
LINE
  2
8,8N,*-8,*-8N,AM_8,AM_8N,*-AM_8,*-AM_8N
  3
*
  4
*
  5
INSERT,STDPART2D
290
     1
  0
ACAMGFILTERDAT
  5
1CD
102
{ACAD_REACTORS
330
1C7
102
}
330
1C7
100
AcAmgFilterDat
 70
    15
  1
ARC
  2
AM_5
  3
*
  4
2
  5
INSERT
290
     0
  0
ACAMGFILTERDAT
  5
1CA
102
{ACAD_REACTORS
330
1C7
102
}
330
1C7
100
AcAmgFilterDat
 70
    15
  1
ACMFCFRAME,ACMDATUMTARGET,ACMDATUMID,ACMWELDSYM,ACMSURFSYM,ACMFEATID,ACMPARTREF,ACMBALLOON,AMDTEDGESYM,AMGSCREWCALCTABLE
  2
*
  3
*
  4
*
  5
*
290
     1
  0
LAYER_INDEX
  5
294
102
{ACAD_REACTORS
330
293
102
}
330
293
100
AcDbIndex
 40
2456525.48448368
100
AcDbLayerIndex
  8
0
360
295
 90
       54
  8
1
360
296
 90
       17
  8
2
360
297
 90
      106
  8
3
360
298
 90
        2
  8
Defpoints
360
299
 90
        0
  8
4
360
682
 90
      159
  8
5
360
683
 90
        0
  0
ACMDATAENTRYBLOCK
  5
73A
102
{ACAD_REACTORS
330
739
102
}
330
739
100
AcmDataEntry
100
AcmDataEntryBlock
  0
IDBUFFER
  5
295
330
0
100
AcDbIdBuffer
330
45
330
46
330
47
330
4A
330
4B
330
61
330
62
330
63
330
64
330
65
330
66
330
67
330
68
330
72
330
73
330
74
330
81
330
87
330
88
330
89
330
8C
330
91
330
92
330
99
330
9B
330
9D
330
A0
330
A1
330
A4
330
A6
330
BC
330
BD
330
BE
330
BF
330
E8
330
E9
330
EA
330
20B
330
230
330
231
330
232
330
233
330
234
330
235
330
236
330
23A
330
5D6
330
646
330
647
330
64F
330
651
330
653
330
656
330
681
  0
IDBUFFER
  5
296
330
0
100
AcDbIdBuffer
330
48
330
49
330
71
330
7E
330
7F
330
90
330
9F
330
A7
330
C0
330
C1
330
D4
330
58D
330
5DB
330
600
330
60E
330
635
330
636
  0
IDBUFFER
  5
297
330
0
100
AcDbIdBuffer
330
4D
330
4E
330
4F
330
50
330
51
330
52
330
53
330
54
330
55
330
56
330
57
330
58
330
59
330
5A
330
5B
330
5C
330
5D
330
5E
330
5F
330
60
330
69
330
6A
330
6B
330
6C
330
6D
330
6E
330
6F
330
70
330
7C
330
7D
330
80
330
82
330
83
330
84
330
85
330
86
330
8A
330
8B
330
8D
330
8E
330
8F
330
93
330
95
330
96
330
97
330
98
330
9A
330
9C
330
9E
330
A8
330
A9
330
AA
330
AB
330
AC
330
AD
330
AE
330
AF
330
B0
330
B1
330
B2
330
B3
330
B4
330
B5
330
B6
330
B7
330
B8
330
B9
330
BA
330
C2
330
C3
330
C4
330
C5
330
C6
330
C7
330
C8
330
C9
330
CA
330
CB
330
CC
330
CD
330
CE
330
CF
330
D0
330
D1
330
D2
330
D3
330
D5
330
D6
330
D7
330
D8
330
D9
330
DA
330
DB
330
DC
330
DD
330
DE
330
DF
330
E0
330
E1
330
E2
330
E3
330
E4
330
E5
330
E6
330
E7
330
5B8
  0
IDBUFFER
  5
298
330
0
100
AcDbIdBuffer
330
38
330
4C
  0
IDBUFFER
  5
299
330
0
100
AcDbIdBuffer
  0
IDBUFFER
  5
682
330
0
100
AcDbIdBuffer
330
583
330
584
330
585
330
586
330
587
330
588
330
589
330
58A
330
58B
330
58C
330
58E
330
58F
330
590
330
591
330
592
330
593
330
594
330
595
330
596
330
597
330
598
330
599
330
59A
330
59B
330
59C
330
59D
330
59E
330
59F
330
5A0
330
5A1
330
5A2
330
5A3
330
5A4
330
5A5
330
5A6
330
5A7
330
5A8
330
5A9
330
5AA
330
5AB
330
5AC
330
5AD
330
5AE
330
5AF
330
5B0
330
5B1
330
5B2
330
5B3
330
5B4
330
5B5
330
5B6
330
5B7
330
5B9
330
5D7
330
5D8
330
5D9
330
5DA
330
5DC
330
5DD
330
5DE
330
5DF
330
5E0
330
5E1
330
5E2
330
5E3
330
5E4
330
5E5
330
5E6
330
5E7
330
5E8
330
5E9
330
5EA
330
5EB
330
5EC
330
5ED
330
5EE
330
5EF
330
5F0
330
5F1
330
5F2
330
5F3
330
5F4
330
5F5
330
5F6
330
5F7
330
5F8
330
5F9
330
5FA
330
5FB
330
5FC
330
5FD
330
5FE
330
5FF
330
601
330
602
330
603
330
604
330
605
330
606
330
607
330
608
330
609
330
60A
330
60B
330
60C
330
60D
330
60F
330
610
330
611
330
612
330
613
330
614
330
615
330
616
330
617
330
618
330
619
330
61A
330
61B
330
61C
330
61D
330
61E
330
61F
330
620
330
621
330
622
330
623
330
624
330
625
330
626
330
627
330
628
330
629
330
62A
330
62B
330
62C
330
62D
330
62E
330
62F
330
630
330
631
330
632
330
633
330
634
330
637
330
638
330
639
330
63A
330
63B
330
63C
330
63D
330
63E
330
63F
330
640
330
641
330
642
330
643
330
644
330
645
  0
IDBUFFER
  5
683
330
0
100
AcDbIdBuffer
  0
ENDSEC
  0
EOF
