  0
SECTION
  2
HEADER
  9
$ACADVER
  1
AC1014
  9
$ACADMAINTVER
 70
     0
  9
$DWGCODEPAGE
  3
ANSI_932
  9
$INSBASE
 10
0.0
 20
0.0
 30
0.0
  9
$EXTMIN
 10
-68.044899
 20
103.861714
 30
0.0
  9
$EXTMAX
 10
190.076617
 20
203.748973
 30
0.0
  9
$LIMMIN
 10
0.0
 20
0.0
  9
$LIMMAX
 10
420.0
 20
297.0
  9
$ORTHOMODE
 70
     0
  9
$REGENMODE
 70
     1
  9
$FILLMODE
 70
     1
  9
$QTEXTMODE
 70
     0
  9
$MIRRTEXT
 70
     1
  9
$DRAGMODE
 70
     2
  9
$LTSCALE
 40
0.4
  9
$OSMODE
 70
    37
  9
$ATTMODE
 70
     1
  9
$TEXTSIZE
 40
10.0
  9
$TRACEWID
 40
1.0
  9
$TEXTSTYLE
  7
BIGFONT
  9
$CLAYER
  8
0
  9
$CELTYPE
  6
BYLAYER
  9
$CECOLOR
 62
   256
  9
$CELTSCALE
 40
1.0
  9
$DELOBJ
 70
     1
  9
$DISPSILH
 70
     0
  9
$DIMSCALE
 40
1.0
  9
$DIMASZ
 40
2.5
  9
$DIMEXO
 40
0.625
  9
$DIMDLI
 40
3.75
  9
$DIMRND
 40
0.0
  9
$DIMDLE
 40
0.0
  9
$DIMEXE
 40
1.25
  9
$DIMTP
 40
0.0
  9
$DIMTM
 40
0.0
  9
$DIMTXT
 40
2.5
  9
$DIMCEN
 40
0.5
  9
$DIMTSZ
 40
0.0
  9
$DIMTOL
 70
     0
  9
$DIMLIM
 70
     0
  9
$DIMTIH
 70
     0
  9
$DIMTOH
 70
     0
  9
$DIMSE1
 70
     0
  9
$DIMSE2
 70
     0
  9
$DIMTAD
 70
     3
  9
$DIMZIN
 70
     8
  9
$DIMBLK
  1

  9
$DIMASO
 70
     1
  9
$DIMSHO
 70
     1
  9
$DIMPOST
  1

  9
$DIMAPOST
  1

  9
$DIMALT
 70
     0
  9
$DIMALTD
 70
     4
  9
$DIMALTF
 40
0.0394
  9
$DIMLFAC
 40
1.0
  9
$DIMTOFL
 70
     1
  9
$DIMTVP
 40
0.0
  9
$DIMTIX
 70
     0
  9
$DIMSOXD
 70
     0
  9
$DIMSAH
 70
     0
  9
$DIMBLK1
  1

  9
$DIMBLK2
  1

  9
$DIMSTYLE
  2
STANDARD_WS
  9
$DIMCLRD
 70
     0
  9
$DIMCLRE
 70
     0
  9
$DIMCLRT
 70
   256
  9
$DIMTFAC
 40
1.0
  9
$DIMGAP
 40
1.2
  9
$DIMJUST
 70
     0
  9
$DIMSD1
 70
     0
  9
$DIMSD2
 70
     0
  9
$DIMTOLJ
 70
     1
  9
$DIMTZIN
 70
     0
  9
$DIMALTZ
 70
     0
  9
$DIMALTTZ
 70
     0
  9
$DIMFIT
 70
     3
  9
$DIMUPT
 70
     0
  9
$DIMUNIT
 70
     2
  9
$DIMDEC
 70
     4
  9
$DIMTDEC
 70
     4
  9
$DIMALTU
 70
     8
  9
$DIMALTTD
 70
     4
  9
$DIMTXSTY
  7
BIGFONT
  9
$DIMAUNIT
 70
     0
  9
$LUNITS
 70
     2
  9
$LUPREC
 70
     4
  9
$SKETCHINC
 40
1.0
  9
$FILLETRAD
 40
0.0
  9
$AUNITS
 70
     0
  9
$AUPREC
 70
     0
  9
$MENU
  1
acad
  9
$ELEVATION
 40
0.0
  9
$PELEVATION
 40
0.0
  9
$THICKNESS
 40
0.0
  9
$LIMCHECK
 70
     0
  9
$BLIPMODE
 70
     0
  9
$CHAMFERA
 40
1.0
  9
$CHAMFERB
 40
1.0
  9
$CHAMFERC
 40
20.0
  9
$CHAMFERD
 40
0.0
  9
$SKPOLY
 70
     0
  9
$TDCREATE
 40
2451225.415346065
  9
$TDUPDATE
 40
2453594.472437419
  9
$TDINDWG
 40
0.2089039931
  9
$TDUSRTIMER
 40
0.2089039931
  9
$USRTIMER
 70
     1
  9
$ANGBASE
 50
0.0
  9
$ANGDIR
 70
     0
  9
$PDMODE
 70
     0
  9
$PDSIZE
 40
0.0
  9
$PLINEWID
 40
0.0
  9
$COORDS
 70
     1
  9
$SPLFRAME
 70
     0
  9
$SPLINETYPE
 70
     6
  9
$SPLINESEGS
 70
     8
  9
$ATTDIA
 70
     0
  9
$ATTREQ
 70
     1
  9
$HANDLING
 70
     1
  9
$HANDSEED
  5
1708
  9
$SURFTAB1
 70
     6
  9
$SURFTAB2
 70
     6
  9
$SURFTYPE
 70
     6
  9
$SURFU
 70
     6
  9
$SURFV
 70
     6
  9
$UCSNAME
  2

  9
$UCSORG
 10
0.0
 20
0.0
 30
0.0
  9
$UCSXDIR
 10
1.0
 20
0.0
 30
0.0
  9
$UCSYDIR
 10
0.0
 20
1.0
 30
0.0
  9
$PUCSNAME
  2

  9
$PUCSORG
 10
0.0
 20
0.0
 30
0.0
  9
$PUCSXDIR
 10
1.0
 20
0.0
 30
0.0
  9
$PUCSYDIR
 10
0.0
 20
1.0
 30
0.0
  9
$USERI1
 70
     0
  9
$USERI2
 70
     0
  9
$USERI3
 70
     0
  9
$USERI4
 70
     0
  9
$USERI5
 70
     0
  9
$USERR1
 40
0.0
  9
$USERR2
 40
0.0
  9
$USERR3
 40
0.0
  9
$USERR4
 40
0.0
  9
$USERR5
 40
0.0
  9
$WORLDVIEW
 70
     1
  9
$SHADEDGE
 70
     3
  9
$SHADEDIF
 70
    70
  9
$TILEMODE
 70
     1
  9
$MAXACTVP
 70
    48
  9
$PINSBASE
 10
0.0
 20
0.0
 30
0.0
  9
$PLIMCHECK
 70
     0
  9
$PEXTMIN
 10
1.000000E+20
 20
1.000000E+20
 30
1.000000E+20
  9
$PEXTMAX
 10
-1.000000E+20
 20
-1.000000E+20
 30
-1.000000E+20
  9
$PLIMMIN
 10
0.0
 20
0.0
  9
$PLIMMAX
 10
420.0
 20
297.0
  9
$UNITMODE
 70
     0
  9
$VISRETAIN
 70
     1
  9
$PLINEGEN
 70
     0
  9
$PSLTSCALE
 70
     0
  9
$TREEDEPTH
 70
  3020
  9
$PICKSTYLE
 70
     1
  9
$CMLSTYLE
  2
STANDARD
  9
$CMLJUST
 70
     0
  9
$CMLSCALE
 40
20.0
  9
$PROXYGRAPHICS
 70
     1
  9
$MEASUREMENT
 70
     0
  0
ENDSEC
  0
SECTION
  2
CLASSES
  0
CLASS
  1
DICTIONARYVAR
  2
AcDbDictionaryVar
  3
"AutoCAD"
 90
        0
280
     0
281
     0
  0
CLASS
  1
HATCH
  2
AcDbHatch
  3
"ACAD_SEDONA"
 90
        0
280
     0
281
     1
  0
CLASS
  1
LWPOLYLINE
  2
AcDbPolyline
  3
"AutoCAD"
 90
        0
280
     0
281
     1
  0
CLASS
  1
ACDBDICTIONARYWDFLT
  2
AcDbDictionaryWithDefault
  3
AutoCAD 2000
 90
        0
280
     0
281
     0
  0
CLASS
  1
ACDBPLACEHOLDER
  2
AcDbPlaceHolder
  3
AutoCAD 2000
 90
        0
280
     0
281
     0
  0
CLASS
  1
LAYOUT
  2
AcDbLayout
  3
AutoCAD 2000
 90
        0
280
     0
281
     0
  0
CLASS
  1
LONG_TRANSACTION
  2
AcDbLongTransaction
  3
AutoCAD 2000
 90
        0
280
     0
281
     0
  0
CLASS
  1
LWPOLYLINE
  2
AcDbPolyline
  3
"AutoCAD"
 90
        0
280
     0
281
     1
  0
CLASS
  1
HATCH
  2
AcDbHatch
  3
"ACAD_SEDONA"
 90
        0
280
     0
281
     1
  0
CLASS
  1
XRECORD
  2
AcDbXrecord
  3
"<Built In>"
 90
        0
280
     0
281
     0
  0
ENDSEC
  0
SECTION
  2
TABLES
  0
TABLE
  2
VPORT
  5
8
100
AcDbSymbolTable
 70
     1
  0
VPORT
  5
1703
100
AcDbSymbolTableRecord
100
AcDbViewportTableRecord
  2
*ACTIVE
 70
     0
 10
0.0
 20
0.0
 11
1.0
 21
1.0
 12
175.977551
 22
148.5
 13
0.0
 23
0.0
 14
10.0
 24
10.0
 15
10.0
 25
10.0
 16
0.0
 26
0.0
 36
1.0
 17
0.0
 27
0.0
 37
0.0
 40
341.87426
 41
1.434944
 42
50.0
 43
0.0
 44
0.0
 50
0.0
 51
0.0
 71
     0
 72
   100
 73
     1
 74
     0
 75
     0
 76
     0
 77
     0
 78
     1
  0
ENDTAB
  0
TABLE
  2
LTYPE
  5
5
100
AcDbSymbolTable
 70
     3
  0
LTYPE
  5
12
100
AcDbSymbolTableRecord
100
AcDbLinetypeTableRecord
  2
BYBLOCK
 70
     0
  3

 72
    65
 73
     0
 40
0.0
  0
LTYPE
  5
13
100
AcDbSymbolTableRecord
100
AcDbLinetypeTableRecord
  2
BYLAYER
 70
     0
  3

 72
    65
 73
     0
 40
0.0
  0
LTYPE
  5
14
100
AcDbSymbolTableRecord
100
AcDbLinetypeTableRecord
  2
CONTINUOUS
 70
     0
  3
Solid line
 72
    65
 73
     0
 40
0.0
  0
LTYPE
  5
11A
100
AcDbSymbolTableRecord
100
AcDbLinetypeTableRecord
  2
CENTER
 70
     0
  3
Center ____ _ ____ _ ____ _ ____ _ ____ _ ____
 72
    65
 73
     4
 40
50.8
 49
31.75
 74
     0
 49
-6.35
 74
     0
 49
6.35
 74
     0
 49
-6.35
 74
     0
  0
LTYPE
  5
11B
100
AcDbSymbolTableRecord
100
AcDbLinetypeTableRecord
  2
HIDDEN
 70
     0
  3
Hidden __ __ __ __ __ __ __ __ __ __ __ __ __ _
 72
    65
 73
     2
 40
9.525
 49
6.35
 74
     0
 49
-3.175
 74
     0
  0
ENDTAB
  0
TABLE
  2
LAYER
  5
2
100
AcDbSymbolTable
 70
     8
  0
LAYER
  5
E
100
AcDbSymbolTableRecord
100
AcDbLayerTableRecord
  2
0
 70
     0
 62
     7
  6
CONTINUOUS
  0
LAYER
  5
37
100
AcDbSymbolTableRecord
100
AcDbLayerTableRecord
  2
図枠
 70
     0
 62
     7
  6
CONTINUOUS
  0
LAYER
  5
38
100
AcDbSymbolTableRecord
100
AcDbLayerTableRecord
  2
図枠部品表
 70
     0
 62
     7
  6
CONTINUOUS
  0
LAYER
  5
215
100
AcDbSymbolTableRecord
100
AcDbLayerTableRecord
  2
CENTER
 70
     0
 62
     2
  6
CENTER
  0
LAYER
  5
216
100
AcDbSymbolTableRecord
100
AcDbLayerTableRecord
  2
DIM
 70
     0
 62
     4
  6
CONTINUOUS
  0
LAYER
  5
21F
100
AcDbSymbolTableRecord
100
AcDbLayerTableRecord
  2
DEFPOINTS
 70
     0
 62
     7
  6
CONTINUOUS
  0
LAYER
  5
E17
100
AcDbSymbolTableRecord
100
AcDbLayerTableRecord
  2
ZI05
 70
     0
 62
     7
  6
CONTINUOUS
  0
LAYER
  5
E18
100
AcDbSymbolTableRecord
100
AcDbLayerTableRecord
  2
ZI02
 70
     0
 62
     4
  6
CONTINUOUS
  0
ENDTAB
  0
TABLE
  2
STYLE
  5
3
100
AcDbSymbolTable
 70
     3
  0
STYLE
  5
F
100
AcDbSymbolTableRecord
100
AcDbTextStyleTableRecord
  2
STANDARD
 70
     0
 40
0.0
 41
1.0
 50
0.0
 71
     0
 42
2.5
  3
txt
  4

  0
STYLE
  5
39
100
AcDbSymbolTableRecord
100
AcDbTextStyleTableRecord
  2
BIGFONT
 70
     0
 40
0.0
 41
1.0
 50
0.0
 71
     0
 42
10.0
  3
txt.shx
  4
bigfont.shx
  0
STYLE
  5
3B
100
AcDbSymbolTableRecord
100
AcDbTextStyleTableRecord
  2
KANJI
 70
     0
 40
0.0
 41
1.0
 50
0.0
 71
     0
 42
3.0
  3
TXT
  4
BIGFONT
  0
ENDTAB
  0
TABLE
  2
VIEW
  5
6
100
AcDbSymbolTable
 70
     0
  0
ENDTAB
  0
TABLE
  2
UCS
  5
7
100
AcDbSymbolTable
 70
     0
  0
ENDTAB
  0
TABLE
  2
APPID
  5
9
100
AcDbSymbolTable
 70
    39
  0
APPID
  5
10
100
AcDbSymbolTableRecord
100
AcDbRegAppTableRecord
  2
ACAD
 70
     0
  0
APPID
  5
24
100
AcDbSymbolTableRecord
100
AcDbRegAppTableRecord
  2
CONTENTTABDATA
 70
     0
  0
APPID
  5
25
100
AcDbSymbolTableRecord
100
AcDbRegAppTableRecord
  2
CONTENTCURRENTTAB
 70
     0
  0
APPID
  5
422
100
AcDbSymbolTableRecord
100
AcDbRegAppTableRecord
  2
CONTENTBLOCKDESCRIPTION
 70
     0
  0
APPID
  5
15CF
100
AcDbSymbolTableRecord
100
AcDbRegAppTableRecord
  2
MCAD_NO_VIS
 70
     0
  0
APPID
  5
15D0
100
AcDbSymbolTableRecord
100
AcDbRegAppTableRecord
  2
ACAD_TEMP_GRAPHIC
 70
     0
  0
APPID
  5
15D1
100
AcDbSymbolTableRecord
100
AcDbRegAppTableRecord
  2
GEVID966397200
 70
     0
  0
APPID
  5
15D2
100
AcDbSymbolTableRecord
100
AcDbRegAppTableRecord
  2
GEVDC
 70
     0
  0
APPID
  5
15D3
100
AcDbSymbolTableRecord
100
AcDbRegAppTableRecord
  2
GEVCON
 70
     0
  0
APPID
  5
15D4
100
AcDbSymbolTableRecord
100
AcDbRegAppTableRecord
  2
GEVID966397201
 70
     0
  0
APPID
  5
15D5
100
AcDbSymbolTableRecord
100
AcDbRegAppTableRecord
  2
GEVID966397202
 70
     0
  0
APPID
  5
15D6
100
AcDbSymbolTableRecord
100
AcDbRegAppTableRecord
  2
GEVID966397203
 70
     0
  0
APPID
  5
15D7
100
AcDbSymbolTableRecord
100
AcDbRegAppTableRecord
  2
GEVID966397204
 70
     0
  0
APPID
  5
15D8
100
AcDbSymbolTableRecord
100
AcDbRegAppTableRecord
  2
GEVID966397205
 70
     0
  0
APPID
  5
15D9
100
AcDbSymbolTableRecord
100
AcDbRegAppTableRecord
  2
GEVID966397206
 70
     0
  0
APPID
  5
15DA
100
AcDbSymbolTableRecord
100
AcDbRegAppTableRecord
  2
GENIUS_GENBH_13
 70
     0
  0
APPID
  5
15DB
100
AcDbSymbolTableRecord
100
AcDbRegAppTableRecord
  2
GENIUS_GENODEF_13
 70
     0
  0
APPID
  5
15DC
100
AcDbSymbolTableRecord
100
AcDbRegAppTableRecord
  2
GENIUS_GENOBJ-NBEHI-BHF_13
 70
     0
  0
APPID
  5
15DD
100
AcDbSymbolTableRecord
100
AcDbRegAppTableRecord
  2
GENIUS_GENOENT_13
 70
     0
  0
APPID
  5
15DE
100
AcDbSymbolTableRecord
100
AcDbRegAppTableRecord
  2
GENIUS_GENOREF_13
 70
     0
  0
APPID
  5
15DF
100
AcDbSymbolTableRecord
100
AcDbRegAppTableRecord
  2
GENIUS_GENOLIS_13
 70
     0
  0
APPID
  5
15E0
100
AcDbSymbolTableRecord
100
AcDbRegAppTableRecord
  2
GENIUS_GENOBJ-NBEHI-BHB_13
 70
     0
  0
APPID
  5
15E1
100
AcDbSymbolTableRecord
100
AcDbRegAppTableRecord
  2
GEVID966397207
 70
     0
  0
APPID
  5
15E2
100
AcDbSymbolTableRecord
100
AcDbRegAppTableRecord
  2
GENIUS_GENOBJ-F-SCPASSM_13
 70
     0
  0
APPID
  5
15E3
100
AcDbSymbolTableRecord
100
AcDbRegAppTableRecord
  2
GENIUS_GENDTOL_13
 70
     0
  0
APPID
  5
15E4
100
AcDbSymbolTableRecord
100
AcDbRegAppTableRecord
  2
GEVID966521051
 70
     0
  0
APPID
  5
15E5
100
AcDbSymbolTableRecord
100
AcDbRegAppTableRecord
  2
GEVID966521052
 70
     0
  0
APPID
  5
15E6
100
AcDbSymbolTableRecord
100
AcDbRegAppTableRecord
  2
GEVID966521054
 70
     0
  0
APPID
  5
15E7
100
AcDbSymbolTableRecord
100
AcDbRegAppTableRecord
  2
GEVID966521055
 70
     0
  0
APPID
  5
15E8
100
AcDbSymbolTableRecord
100
AcDbRegAppTableRecord
  2
GEVID966521056
 70
     0
  0
APPID
  5
15E9
100
AcDbSymbolTableRecord
100
AcDbRegAppTableRecord
  2
GEVID966521057
 70
     0
  0
APPID
  5
15EA
100
AcDbSymbolTableRecord
100
AcDbRegAppTableRecord
  2
GEVID966521058
 70
     0
  0
APPID
  5
15EB
100
AcDbSymbolTableRecord
100
AcDbRegAppTableRecord
  2
GEVID966521059
 70
     0
  0
APPID
  5
15EC
100
AcDbSymbolTableRecord
100
AcDbRegAppTableRecord
  2
GEVID966521062
 70
     0
  0
APPID
  5
15ED
100
AcDbSymbolTableRecord
100
AcDbRegAppTableRecord
  2
GEVID966521063
 70
     0
  0
APPID
  5
15EE
100
AcDbSymbolTableRecord
100
AcDbRegAppTableRecord
  2
GEVID966521064
 70
     0
  0
APPID
  5
15EF
100
AcDbSymbolTableRecord
100
AcDbRegAppTableRecord
  2
GEVID966521065
 70
     0
  0
APPID
  5
15F0
100
AcDbSymbolTableRecord
100
AcDbRegAppTableRecord
  2
GEVID966521066
 70
     0
  0
APPID
  5
16F1
100
AcDbSymbolTableRecord
100
AcDbRegAppTableRecord
  2
ADE
 70
     0
  0
ENDTAB
  0
TABLE
  2
DIMSTYLE
  5
A
100
AcDbSymbolTable
 70
     1
  0
DIMSTYLE
105
35
100
AcDbSymbolTableRecord
100
AcDbDimStyleTableRecord
  2
STANDARD_WS
 70
     0
  3

  4

  5

  6

  7

 40
1.0
 41
2.5
 42
0.625
 43
3.75
 44
1.25
 45
0.0
 46
0.0
 47
0.0
 48
0.0
140
2.5
141
2.5
142
0.0
143
0.0394
144
1.0
145
0.0
146
1.0
147
0.625
 71
     0
 72
     0
 73
     0
 74
     0
 75
     0
 76
     0
 77
     1
 78
     8
170
     0
171
     4
172
     1
173
     0
174
     0
175
     0
176
     0
177
     0
178
     0
270
     2
271
     4
272
     4
273
     8
274
     4
340
F
275
     0
280
     0
281
     0
282
     0
283
     1
284
     0
285
     0
286
     0
287
     3
288
     0
  0
ENDTAB
  0
TABLE
  2
BLOCK_RECORD
  5
1
100
AcDbSymbolTable
 70
    12
  0
BLOCK_RECORD
  5
18
102
{ACAD_XDICTIONARY
360
16F6
102
}
100
AcDbSymbolTableRecord
100
AcDbBlockTableRecord
  2
*MODEL_SPACE
  0
BLOCK_RECORD
  5
15
102
{ACAD_XDICTIONARY
360
16F4
102
}
100
AcDbSymbolTableRecord
100
AcDbBlockTableRecord
  2
*PAPER_SPACE
  0
BLOCK_RECORD
  5
15B2
100
AcDbSymbolTableRecord
100
AcDbBlockTableRecord
  2
_OPEN30
  0
ENDTAB
  0
ENDSEC
  0
SECTION
  2
BLOCKS
  0
BLOCK
  5
19
100
AcDbEntity
  8
0
100
AcDbBlockBegin
  2
*MODEL_SPACE
 70
     2
 10
0.0
 20
0.0
 30
0.0
  3
*MODEL_SPACE
  1

  0
ENDBLK
  5
1A
100
AcDbEntity
  8
0
100
AcDbBlockEnd
  0
BLOCK
  5
16
100
AcDbEntity
 67
     1
  8
0
100
AcDbBlockBegin
  2
*PAPER_SPACE
 70
     0
 10
0.0
 20
0.0
 30
0.0
  3
*PAPER_SPACE
  1

  0
ENDBLK
  5
17
100
AcDbEntity
 67
     1
  8
0
100
AcDbBlockEnd
  0
BLOCK
  5
15B6
100
AcDbEntity
  8
0
100
AcDbBlockBegin
  2
_OPEN30
 70
     0
 10
0.0
 20
0.0
 30
0.0
  3
_OPEN30
  1

  0
LINE
  5
15B3
100
AcDbEntity
  8
0
 62
     0
100
AcDbLine
 10
-1.0
 20
0.267949
 30
0.0
 11
0.0
 21
0.0
 31
0.0
  0
LINE
  5
15B4
100
AcDbEntity
  8
0
 62
     0
100
AcDbLine
 10
0.0
 20
0.0
 30
0.0
 11
-1.0
 21
-0.267949
 31
0.0
  0
LINE
  5
15B5
100
AcDbEntity
  8
0
 62
     0
100
AcDbLine
 10
0.0
 20
0.0
 30
0.0
 11
-1.0
 21
0.0
 31
0.0
  0
ENDBLK
  5
15B7
100
AcDbEntity
  8
0
100
AcDbBlockEnd
  0
ENDSEC
  0
SECTION
  2
ENTITIES
  0
TEXT
  5
3E9
100
AcDbEntity
  8
図枠部品表
 62
     3
100
AcDbText
 10
403.65269
 20
422.521663
 30
0.0
 40
2.4325
  1

 41
0.8
  7
KANJI
 72
     1
 11
403.65269
 21
423.737913
 31
0.0
100
AcDbText
 73
     2
  0
TEXT
  5
A9F
100
AcDbEntity
  8
図枠
 62
     7
100
AcDbText
 10
162.933452
 20
10.11536
 30
0.0
 40
2.6
  1

  7
KANJI
 72
     1
 11
162.933452
 21
11.41536
 31
0.0
100
AcDbText
 73
     2
  0
TEXT
  5
E29
100
AcDbEntity
  8
ZI05
100
AcDbText
 10
1744.790154
 20
230.075351
 30
0.0
 40
6.0
  1

 50
26.0
  7
BIGFONT
100
AcDbText
  0
TEXT
  5
E2A
100
AcDbEntity
  8
ZI05
100
AcDbText
 10
1764.929928
 20
252.182822
 30
0.0
 40
6.0
  1

 50
69.333333
  7
BIGFONT
100
AcDbText
  0
TEXT
  5
E2B
100
AcDbEntity
  8
ZI05
100
AcDbText
 10
1767.467603
 20
264.121645
 30
0.0
 40
6.0
  1

 50
86.666667
  7
BIGFONT
100
AcDbText
  0
TEXT
  5
E2C
100
AcDbEntity
  8
ZI05
100
AcDbText
 10
1758.060922
 20
292.509409
 30
0.0
 40
6.0
  1

 50
130.0
  7
BIGFONT
100
AcDbText
  0
TEXT
  5
E2D
100
AcDbEntity
  8
ZI02
100
AcDbText
 10
1841.89364
 20
213.466412
 30
0.0
 40
6.0
  1

  7
BIGFONT
100
AcDbText
  0
TEXT
  5
E2E
100
AcDbEntity
  8
ZI02
100
AcDbText
 10
1871.89364
 20
213.466412
 30
0.0
 40
6.0
  1

  7
BIGFONT
100
AcDbText
  0
TEXT
  5
E2F
100
AcDbEntity
  8
ZI02
100
AcDbText
 10
1883.89364
 20
213.466412
 30
0.0
 40
6.0
  1

  7
BIGFONT
100
AcDbText
  0
TEXT
  5
E30
100
AcDbEntity
  8
ZI05
100
AcDbText
 10
2416.041258
 20
242.154398
 30
0.0
 40
6.0
  1

 50
26.0
  7
BIGFONT
100
AcDbText
  0
TEXT
  5
E31
100
AcDbEntity
  8
ZI05
100
AcDbText
 10
2436.181032
 20
264.261869
 30
0.0
 40
6.0
  1

 50
69.333333
  7
BIGFONT
100
AcDbText
  0
TEXT
  5
E32
100
AcDbEntity
  8
ZI05
100
AcDbText
 10
2438.718707
 20
276.200691
 30
0.0
 40
6.0
  1

 50
86.666667
  7
BIGFONT
100
AcDbText
  0
TEXT
  5
E33
100
AcDbEntity
  8
ZI05
100
AcDbText
 10
2429.312026
 20
304.588455
 30
0.0
 40
6.0
  1

 50
130.0
  7
BIGFONT
100
AcDbText
  0
TEXT
  5
E38
100
AcDbEntity
  8
ZI05
100
AcDbText
 10
2288.681288
 20
234.751286
 30
0.0
 40
6.0
  1

 50
26.0
  7
BIGFONT
100
AcDbText
  0
TEXT
  5
E39
100
AcDbEntity
  8
ZI05
100
AcDbText
 10
2308.821061
 20
256.858757
 30
0.0
 40
6.0
  1

 50
69.333333
  7
BIGFONT
100
AcDbText
  0
TEXT
  5
E3A
100
AcDbEntity
  8
ZI05
100
AcDbText
 10
2311.358736
 20
268.79758
 30
0.0
 40
6.0
  1

 50
86.666667
  7
BIGFONT
100
AcDbText
  0
TEXT
  5
E3B
100
AcDbEntity
  8
ZI05
100
AcDbText
 10
2301.952056
 20
297.185343
 30
0.0
 40
6.0
  1

 50
130.0
  7
BIGFONT
100
AcDbText
  0
TEXT
  5
E3C
100
AcDbEntity
  8
ZI02
100
AcDbText
 10
2385.784773
 20
218.142347
 30
0.0
 40
6.0
  1

  7
BIGFONT
100
AcDbText
  0
TEXT
  5
E3D
100
AcDbEntity
  8
ZI02
100
AcDbText
 10
2415.784773
 20
218.142347
 30
0.0
 40
6.0
  1

  7
BIGFONT
100
AcDbText
  0
TEXT
  5
E3E
100
AcDbEntity
  8
ZI02
100
AcDbText
 10
2427.784773
 20
218.142347
 30
0.0
 40
6.0
  1

  7
BIGFONT
100
AcDbText
  0
TEXT
  5
E3F
100
AcDbEntity
  8
ZI05
100
AcDbText
 10
2959.932391
 20
246.830333
 30
0.0
 40
6.0
  1

 50
26.0
  7
BIGFONT
100
AcDbText
  0
TEXT
  5
E40
100
AcDbEntity
  8
ZI05
100
AcDbText
 10
2980.072165
 20
268.937804
 30
0.0
 40
6.0
  1

 50
69.333333
  7
BIGFONT
100
AcDbText
  0
TEXT
  5
E41
100
AcDbEntity
  8
ZI05
100
AcDbText
 10
2982.60984
 20
280.876626
 30
0.0
 40
6.0
  1

 50
86.666667
  7
BIGFONT
100
AcDbText
  0
TEXT
  5
E42
100
AcDbEntity
  8
ZI05
100
AcDbText
 10
2973.20316
 20
309.26439
 30
0.0
 40
6.0
  1

 50
130.0
  7
BIGFONT
100
AcDbText
  0
TEXT
  5
E43
100
AcDbEntity
  8
ZI05
100
AcDbText
 10
2776.987689
 20
226.845524
 30
0.0
 40
6.0
  1

 50
26.0
  7
BIGFONT
100
AcDbText
  0
TEXT
  5
E44
100
AcDbEntity
  8
ZI05
100
AcDbText
 10
2797.127463
 20
248.952995
 30
0.0
 40
6.0
  1

 50
69.333333
  7
BIGFONT
100
AcDbText
  0
TEXT
  5
E45
100
AcDbEntity
  8
ZI05
100
AcDbText
 10
2799.665138
 20
260.891818
 30
0.0
 40
6.0
  1

 50
86.666667
  7
BIGFONT
100
AcDbText
  0
TEXT
  5
E46
100
AcDbEntity
  8
ZI05
100
AcDbText
 10
2790.258458
 20
289.279581
 30
0.0
 40
6.0
  1

 50
130.0
  7
BIGFONT
100
AcDbText
  0
TEXT
  5
E47
100
AcDbEntity
  8
ZI02
100
AcDbText
 10
2874.091175
 20
210.236585
 30
0.0
 40
6.0
  1

  7
BIGFONT
100
AcDbText
  0
TEXT
  5
E48
100
AcDbEntity
  8
ZI02
100
AcDbText
 10
2904.091175
 20
210.236585
 30
0.0
 40
6.0
  1

  7
BIGFONT
100
AcDbText
  0
TEXT
  5
E49
100
AcDbEntity
  8
ZI02
100
AcDbText
 10
2916.091175
 20
210.236585
 30
0.0
 40
6.0
  1

  7
BIGFONT
100
AcDbText
  0
TEXT
  5
E4A
100
AcDbEntity
  8
ZI05
100
AcDbText
 10
3448.238793
 20
238.924571
 30
0.0
 40
6.0
  1

 50
26.0
  7
BIGFONT
100
AcDbText
  0
TEXT
  5
E4B
100
AcDbEntity
  8
ZI05
100
AcDbText
 10
3468.378567
 20
261.032042
 30
0.0
 40
6.0
  1

 50
69.333333
  7
BIGFONT
100
AcDbText
  0
TEXT
  5
E4C
100
AcDbEntity
  8
ZI05
100
AcDbText
 10
3470.916242
 20
272.970864
 30
0.0
 40
6.0
  1

 50
86.666667
  7
BIGFONT
100
AcDbText
  0
TEXT
  5
E4D
100
AcDbEntity
  8
ZI05
100
AcDbText
 10
3461.509562
 20
301.358628
 30
0.0
 40
6.0
  1

 50
130.0
  7
BIGFONT
100
AcDbText
  0
TEXT
  5
E4E
100
AcDbEntity
  8
ZI05
100
AcDbText
 10
3246.656857
 20
228.580284
 30
0.0
 40
6.0
  1

 50
26.0
  7
BIGFONT
100
AcDbText
  0
TEXT
  5
E4F
100
AcDbEntity
  8
ZI05
100
AcDbText
 10
3266.796631
 20
250.687755
 30
0.0
 40
6.0
  1

 50
69.333333
  7
BIGFONT
100
AcDbText
  0
TEXT
  5
E50
100
AcDbEntity
  8
ZI05
100
AcDbText
 10
3269.334306
 20
262.626577
 30
0.0
 40
6.0
  1

 50
86.666667
  7
BIGFONT
100
AcDbText
  0
TEXT
  5
E51
100
AcDbEntity
  8
ZI05
100
AcDbText
 10
3259.927626
 20
291.014341
 30
0.0
 40
6.0
  1

 50
130.0
  7
BIGFONT
100
AcDbText
  0
TEXT
  5
E52
100
AcDbEntity
  8
ZI02
100
AcDbText
 10
3343.760343
 20
211.971344
 30
0.0
 40
6.0
  1

  7
BIGFONT
100
AcDbText
  0
TEXT
  5
E53
100
AcDbEntity
  8
ZI02
100
AcDbText
 10
3373.760343
 20
211.971344
 30
0.0
 40
6.0
  1

  7
BIGFONT
100
AcDbText
  0
TEXT
  5
E54
100
AcDbEntity
  8
ZI02
100
AcDbText
 10
3385.760343
 20
211.971344
 30
0.0
 40
6.0
  1

  7
BIGFONT
100
AcDbText
  0
TEXT
  5
E55
100
AcDbEntity
  8
ZI05
100
AcDbText
 10
3917.907961
 20
240.65933
 30
0.0
 40
6.0
  1

 50
26.0
  7
BIGFONT
100
AcDbText
  0
TEXT
  5
E56
100
AcDbEntity
  8
ZI05
100
AcDbText
 10
3938.047735
 20
262.766801
 30
0.0
 40
6.0
  1

 50
69.333333
  7
BIGFONT
100
AcDbText
  0
TEXT
  5
E57
100
AcDbEntity
  8
ZI05
100
AcDbText
 10
3940.58541
 20
274.705624
 30
0.0
 40
6.0
  1

 50
86.666667
  7
BIGFONT
100
AcDbText
  0
TEXT
  5
E58
100
AcDbEntity
  8
ZI05
100
AcDbText
 10
3931.178729
 20
303.093387
 30
0.0
 40
6.0
  1

 50
130.0
  7
BIGFONT
100
AcDbText
  0
TEXT
  5
E59
100
AcDbEntity
  8
ZI05
100
AcDbText
 10
3273.75336
 20
358.322864
 30
0.0
 40
6.0
  1

 50
26.0
  7
BIGFONT
100
AcDbText
  0
TEXT
  5
E5A
100
AcDbEntity
  8
ZI05
100
AcDbText
 10
3293.893134
 20
380.430335
 30
0.0
 40
6.0
  1

 50
69.333333
  7
BIGFONT
100
AcDbText
  0
TEXT
  5
E5B
100
AcDbEntity
  8
ZI05
100
AcDbText
 10
3296.430809
 20
392.369157
 30
0.0
 40
6.0
  1

 50
86.666667
  7
BIGFONT
100
AcDbText
  0
TEXT
  5
E5C
100
AcDbEntity
  8
ZI05
100
AcDbText
 10
3287.024128
 20
420.756921
 30
0.0
 40
6.0
  1

 50
130.0
  7
BIGFONT
100
AcDbText
  0
TEXT
  5
E5D
100
AcDbEntity
  8
ZI02
100
AcDbText
 10
3370.856846
 20
341.713924
 30
0.0
 40
6.0
  1

  7
BIGFONT
100
AcDbText
  0
TEXT
  5
E5E
100
AcDbEntity
  8
ZI02
100
AcDbText
 10
3400.856846
 20
341.713924
 30
0.0
 40
6.0
  1

  7
BIGFONT
100
AcDbText
  0
TEXT
  5
E5F
100
AcDbEntity
  8
ZI02
100
AcDbText
 10
3412.856846
 20
341.713924
 30
0.0
 40
6.0
  1

  7
BIGFONT
100
AcDbText
  0
TEXT
  5
E60
100
AcDbEntity
  8
ZI05
100
AcDbText
 10
3945.004464
 20
370.40191
 30
0.0
 40
6.0
  1

 50
26.0
  7
BIGFONT
100
AcDbText
  0
TEXT
  5
E61
100
AcDbEntity
  8
ZI05
100
AcDbText
 10
3965.144237
 20
392.509381
 30
0.0
 40
6.0
  1

 50
69.333333
  7
BIGFONT
100
AcDbText
  0
TEXT
  5
E62
100
AcDbEntity
  8
ZI05
100
AcDbText
 10
3967.681912
 20
404.448204
 30
0.0
 40
6.0
  1

 50
86.666667
  7
BIGFONT
100
AcDbText
  0
TEXT
  5
E63
100
AcDbEntity
  8
ZI05
100
AcDbText
 10
3958.275232
 20
432.835967
 30
0.0
 40
6.0
  1

 50
130.0
  7
BIGFONT
100
AcDbText
  0
TEXT
  5
E64
100
AcDbEntity
  8
ZI05
100
AcDbText
 10
3944.710092
 20
506.909448
 30
0.0
 40
6.0
  1

 50
26.0
  7
BIGFONT
100
AcDbText
  0
TEXT
  5
E65
100
AcDbEntity
  8
ZI05
100
AcDbText
 10
3964.849866
 20
529.016919
 30
0.0
 40
6.0
  1

 50
69.333333
  7
BIGFONT
100
AcDbText
  0
TEXT
  5
E66
100
AcDbEntity
  8
ZI05
100
AcDbText
 10
3967.387541
 20
540.955742
 30
0.0
 40
6.0
  1

 50
86.666667
  7
BIGFONT
100
AcDbText
  0
TEXT
  5
E67
100
AcDbEntity
  8
ZI05
100
AcDbText
 10
3957.980861
 20
569.343506
 30
0.0
 40
6.0
  1

 50
130.0
  7
BIGFONT
100
AcDbText
  0
TEXT
  5
E68
100
AcDbEntity
  8
ZI02
100
AcDbText
 10
4041.813578
 20
490.300509
 30
0.0
 40
6.0
  1

  7
BIGFONT
100
AcDbText
  0
TEXT
  5
E69
100
AcDbEntity
  8
ZI02
100
AcDbText
 10
4071.813578
 20
490.300509
 30
0.0
 40
6.0
  1

  7
BIGFONT
100
AcDbText
  0
TEXT
  5
E6A
100
AcDbEntity
  8
ZI02
100
AcDbText
 10
4083.813578
 20
490.300509
 30
0.0
 40
6.0
  1

  7
BIGFONT
100
AcDbText
  0
TEXT
  5
E6B
100
AcDbEntity
  8
ZI05
100
AcDbText
 10
4615.961196
 20
518.988495
 30
0.0
 40
6.0
  1

 50
26.0
  7
BIGFONT
100
AcDbText
  0
TEXT
  5
E6C
100
AcDbEntity
  8
ZI05
100
AcDbText
 10
4636.10097
 20
541.095966
 30
0.0
 40
6.0
  1

 50
69.333333
  7
BIGFONT
100
AcDbText
  0
TEXT
  5
E6D
100
AcDbEntity
  8
ZI05
100
AcDbText
 10
4638.638645
 20
553.034788
 30
0.0
 40
6.0
  1

 50
86.666667
  7
BIGFONT
100
AcDbText
  0
TEXT
  5
E6E
100
AcDbEntity
  8
ZI05
100
AcDbText
 10
4629.231964
 20
581.422552
 30
0.0
 40
6.0
  1

 50
130.0
  7
BIGFONT
100
AcDbText
  0
TEXT
  5
E6F
100
AcDbEntity
  8
ZI05
100
AcDbText
 10
4710.170227
 20
502.791844
 30
0.0
 40
6.0
  1

 50
26.0
  7
BIGFONT
100
AcDbText
  0
TEXT
  5
E70
100
AcDbEntity
  8
ZI05
100
AcDbText
 10
4730.310001
 20
524.899315
 30
0.0
 40
6.0
  1

 50
69.333333
  7
BIGFONT
100
AcDbText
  0
TEXT
  5
E71
100
AcDbEntity
  8
ZI05
100
AcDbText
 10
4732.847676
 20
536.838137
 30
0.0
 40
6.0
  1

 50
86.666667
  7
BIGFONT
100
AcDbText
  0
TEXT
  5
E72
100
AcDbEntity
  8
ZI05
100
AcDbText
 10
4723.440996
 20
565.225901
 30
0.0
 40
6.0
  1

 50
130.0
  7
BIGFONT
100
AcDbText
  0
TEXT
  5
E73
100
AcDbEntity
  8
ZI02
100
AcDbText
 10
4807.273713
 20
486.182904
 30
0.0
 40
6.0
  1

  7
BIGFONT
100
AcDbText
  0
TEXT
  5
E74
100
AcDbEntity
  8
ZI02
100
AcDbText
 10
4837.273713
 20
486.182904
 30
0.0
 40
6.0
  1

  7
BIGFONT
100
AcDbText
  0
TEXT
  5
E75
100
AcDbEntity
  8
ZI02
100
AcDbText
 10
4849.273713
 20
486.182904
 30
0.0
 40
6.0
  1

  7
BIGFONT
100
AcDbText
  0
TEXT
  5
E76
100
AcDbEntity
  8
ZI05
100
AcDbText
 10
5381.421331
 20
514.87089
 30
0.0
 40
6.0
  1

 50
26.0
  7
BIGFONT
100
AcDbText
  0
TEXT
  5
E77
100
AcDbEntity
  8
ZI05
100
AcDbText
 10
5401.561105
 20
536.978361
 30
0.0
 40
6.0
  1

 50
69.333333
  7
BIGFONT
100
AcDbText
  0
TEXT
  5
E78
100
AcDbEntity
  8
ZI05
100
AcDbText
 10
5404.09878
 20
548.917183
 30
0.0
 40
6.0
  1

 50
86.666667
  7
BIGFONT
100
AcDbText
  0
TEXT
  5
E79
100
AcDbEntity
  8
ZI05
100
AcDbText
 10
5394.692099
 20
577.304947
 30
0.0
 40
6.0
  1

 50
130.0
  7
BIGFONT
100
AcDbText
  0
TEXT
  5
E7A
100
AcDbEntity
  8
ZI05
100
AcDbText
 10
3924.117825
 20
506.13636
 30
0.0
 40
6.0
  1

 50
26.0
  7
BIGFONT
100
AcDbText
  0
TEXT
  5
E7B
100
AcDbEntity
  8
ZI05
100
AcDbText
 10
3944.257599
 20
528.243831
 30
0.0
 40
6.0
  1

 50
69.333333
  7
BIGFONT
100
AcDbText
  0
TEXT
  5
E7C
100
AcDbEntity
  8
ZI05
100
AcDbText
 10
3946.795274
 20
540.182653
 30
0.0
 40
6.0
  1

 50
86.666667
  7
BIGFONT
100
AcDbText
  0
TEXT
  5
E7D
100
AcDbEntity
  8
ZI05
100
AcDbText
 10
3937.388593
 20
568.570417
 30
0.0
 40
6.0
  1

 50
130.0
  7
BIGFONT
100
AcDbText
  0
TEXT
  5
E7E
100
AcDbEntity
  8
ZI02
100
AcDbText
 10
4021.221311
 20
489.52742
 30
0.0
 40
6.0
  1

  7
BIGFONT
100
AcDbText
  0
TEXT
  5
E7F
100
AcDbEntity
  8
ZI02
100
AcDbText
 10
4051.221311
 20
489.52742
 30
0.0
 40
6.0
  1

  7
BIGFONT
100
AcDbText
  0
TEXT
  5
E80
100
AcDbEntity
  8
ZI02
100
AcDbText
 10
4063.221311
 20
489.52742
 30
0.0
 40
6.0
  1

  7
BIGFONT
100
AcDbText
  0
TEXT
  5
E81
100
AcDbEntity
  8
ZI05
100
AcDbText
 10
4595.368929
 20
518.215406
 30
0.0
 40
6.0
  1

 50
26.0
  7
BIGFONT
100
AcDbText
  0
TEXT
  5
E82
100
AcDbEntity
  8
ZI05
100
AcDbText
 10
4615.508702
 20
540.322877
 30
0.0
 40
6.0
  1

 50
69.333333
  7
BIGFONT
100
AcDbText
  0
TEXT
  5
E83
100
AcDbEntity
  8
ZI05
100
AcDbText
 10
4618.046378
 20
552.261699
 30
0.0
 40
6.0
  1

 50
86.666667
  7
BIGFONT
100
AcDbText
  0
TEXT
  5
E84
100
AcDbEntity
  8
ZI05
100
AcDbText
 10
4608.639697
 20
580.649463
 30
0.0
 40
6.0
  1

 50
130.0
  7
BIGFONT
100
AcDbText
  0
TEXT
  5
E85
100
AcDbEntity
  8
ZI05
100
AcDbText
 10
1982.403975
 20
234.864299
 30
0.0
 40
6.0
  1

 50
26.0
  7
BIGFONT
100
AcDbText
  0
TEXT
  5
E86
100
AcDbEntity
  8
ZI05
100
AcDbText
 10
2002.543749
 20
256.97177
 30
0.0
 40
6.0
  1

 50
69.333333
  7
BIGFONT
100
AcDbText
  0
TEXT
  5
E87
100
AcDbEntity
  8
ZI05
100
AcDbText
 10
2005.081424
 20
268.910592
 30
0.0
 40
6.0
  1

 50
86.666667
  7
BIGFONT
100
AcDbText
  0
TEXT
  5
E88
100
AcDbEntity
  8
ZI05
100
AcDbText
 10
1995.674743
 20
297.298356
 30
0.0
 40
6.0
  1

 50
130.0
  7
BIGFONT
100
AcDbText
  0
TEXT
  5
E89
100
AcDbEntity
  8
ZI02
100
AcDbText
 10
2079.507461
 20
218.255359
 30
0.0
 40
6.0
  1

  7
BIGFONT
100
AcDbText
  0
TEXT
  5
E8A
100
AcDbEntity
  8
ZI02
100
AcDbText
 10
2109.507461
 20
218.255359
 30
0.0
 40
6.0
  1

  7
BIGFONT
100
AcDbText
  0
TEXT
  5
E8B
100
AcDbEntity
  8
ZI02
100
AcDbText
 10
2121.507461
 20
218.255359
 30
0.0
 40
6.0
  1

  7
BIGFONT
100
AcDbText
  0
TEXT
  5
E8C
100
AcDbEntity
  8
ZI05
100
AcDbText
 10
2653.655079
 20
246.943345
 30
0.0
 40
6.0
  1

 50
26.0
  7
BIGFONT
100
AcDbText
  0
TEXT
  5
E8D
100
AcDbEntity
  8
ZI05
100
AcDbText
 10
2673.794853
 20
269.050816
 30
0.0
 40
6.0
  1

 50
69.333333
  7
BIGFONT
100
AcDbText
  0
TEXT
  5
E8E
100
AcDbEntity
  8
ZI05
100
AcDbText
 10
2676.332528
 20
280.989638
 30
0.0
 40
6.0
  1

 50
86.666667
  7
BIGFONT
100
AcDbText
  0
TEXT
  5
E8F
100
AcDbEntity
  8
ZI05
100
AcDbText
 10
2666.925847
 20
309.377402
 30
0.0
 40
6.0
  1

 50
130.0
  7
BIGFONT
100
AcDbText
  0
TEXT
  5
E90
100
AcDbEntity
  8
ZI05
100
AcDbText
 10
2526.295109
 20
239.540233
 30
0.0
 40
6.0
  1

 50
26.0
  7
BIGFONT
100
AcDbText
  0
TEXT
  5
E91
100
AcDbEntity
  8
ZI05
100
AcDbText
 10
2546.434882
 20
261.647704
 30
0.0
 40
6.0
  1

 50
69.333333
  7
BIGFONT
100
AcDbText
  0
TEXT
  5
E92
100
AcDbEntity
  8
ZI05
100
AcDbText
 10
2548.972557
 20
273.586527
 30
0.0
 40
6.0
  1

 50
86.666667
  7
BIGFONT
100
AcDbText
  0
TEXT
  5
E93
100
AcDbEntity
  8
ZI05
100
AcDbText
 10
2539.565877
 20
301.97429
 30
0.0
 40
6.0
  1

 50
130.0
  7
BIGFONT
100
AcDbText
  0
TEXT
  5
E94
100
AcDbEntity
  8
ZI02
100
AcDbText
 10
2623.398594
 20
222.931294
 30
0.0
 40
6.0
  1

  7
BIGFONT
100
AcDbText
  0
TEXT
  5
E95
100
AcDbEntity
  8
ZI02
100
AcDbText
 10
2653.398594
 20
222.931294
 30
0.0
 40
6.0
  1

  7
BIGFONT
100
AcDbText
  0
TEXT
  5
E96
100
AcDbEntity
  8
ZI02
100
AcDbText
 10
2665.398594
 20
222.931294
 30
0.0
 40
6.0
  1

  7
BIGFONT
100
AcDbText
  0
TEXT
  5
E97
100
AcDbEntity
  8
ZI05
100
AcDbText
 10
3197.546212
 20
251.61928
 30
0.0
 40
6.0
  1

 50
26.0
  7
BIGFONT
100
AcDbText
  0
TEXT
  5
E98
100
AcDbEntity
  8
ZI05
100
AcDbText
 10
3217.685986
 20
273.726751
 30
0.0
 40
6.0
  1

 50
69.333333
  7
BIGFONT
100
AcDbText
  0
TEXT
  5
E99
100
AcDbEntity
  8
ZI05
100
AcDbText
 10
3220.223661
 20
285.665573
 30
0.0
 40
6.0
  1

 50
86.666667
  7
BIGFONT
100
AcDbText
  0
TEXT
  5
E9A
100
AcDbEntity
  8
ZI05
100
AcDbText
 10
3210.816981
 20
314.053337
 30
0.0
 40
6.0
  1

 50
130.0
  7
BIGFONT
100
AcDbText
  0
TEXT
  5
E9B
100
AcDbEntity
  8
ZI05
100
AcDbText
 10
3014.60151
 20
231.634471
 30
0.0
 40
6.0
  1

 50
26.0
  7
BIGFONT
100
AcDbText
  0
TEXT
  5
E9C
100
AcDbEntity
  8
ZI05
100
AcDbText
 10
3034.741284
 20
253.741942
 30
0.0
 40
6.0
  1

 50
69.333333
  7
BIGFONT
100
AcDbText
  0
TEXT
  5
E9D
100
AcDbEntity
  8
ZI05
100
AcDbText
 10
3037.278959
 20
265.680765
 30
0.0
 40
6.0
  1

 50
86.666667
  7
BIGFONT
100
AcDbText
  0
TEXT
  5
E9E
100
AcDbEntity
  8
ZI05
100
AcDbText
 10
3027.872279
 20
294.068528
 30
0.0
 40
6.0
  1

 50
130.0
  7
BIGFONT
100
AcDbText
  0
TEXT
  5
E9F
100
AcDbEntity
  8
ZI02
100
AcDbText
 10
3111.704996
 20
215.025532
 30
0.0
 40
6.0
  1

  7
BIGFONT
100
AcDbText
  0
TEXT
  5
EA0
100
AcDbEntity
  8
ZI02
100
AcDbText
 10
3141.704996
 20
215.025532
 30
0.0
 40
6.0
  1

  7
BIGFONT
100
AcDbText
  0
TEXT
  5
EA1
100
AcDbEntity
  8
ZI02
100
AcDbText
 10
3153.704996
 20
215.025532
 30
0.0
 40
6.0
  1

  7
BIGFONT
100
AcDbText
  0
TEXT
  5
EA2
100
AcDbEntity
  8
ZI05
100
AcDbText
 10
3685.852614
 20
243.713518
 30
0.0
 40
6.0
  1

 50
26.0
  7
BIGFONT
100
AcDbText
  0
TEXT
  5
EA3
100
AcDbEntity
  8
ZI05
100
AcDbText
 10
3705.992388
 20
265.820989
 30
0.0
 40
6.0
  1

 50
69.333333
  7
BIGFONT
100
AcDbText
  0
TEXT
  5
EA4
100
AcDbEntity
  8
ZI05
100
AcDbText
 10
3708.530063
 20
277.759811
 30
0.0
 40
6.0
  1

 50
86.666667
  7
BIGFONT
100
AcDbText
  0
TEXT
  5
EA5
100
AcDbEntity
  8
ZI05
100
AcDbText
 10
3699.123383
 20
306.147575
 30
0.0
 40
6.0
  1

 50
130.0
  7
BIGFONT
100
AcDbText
  0
TEXT
  5
EA6
100
AcDbEntity
  8
ZI05
100
AcDbText
 10
3484.270678
 20
233.369231
 30
0.0
 40
6.0
  1

 50
26.0
  7
BIGFONT
100
AcDbText
  0
TEXT
  5
EA7
100
AcDbEntity
  8
ZI05
100
AcDbText
 10
3504.410452
 20
255.476702
 30
0.0
 40
6.0
  1

 50
69.333333
  7
BIGFONT
100
AcDbText
  0
TEXT
  5
EA8
100
AcDbEntity
  8
ZI05
100
AcDbText
 10
3506.948127
 20
267.415524
 30
0.0
 40
6.0
  1

 50
86.666667
  7
BIGFONT
100
AcDbText
  0
TEXT
  5
EA9
100
AcDbEntity
  8
ZI05
100
AcDbText
 10
3497.541447
 20
295.803288
 30
0.0
 40
6.0
  1

 50
130.0
  7
BIGFONT
100
AcDbText
  0
TEXT
  5
EAA
100
AcDbEntity
  8
ZI02
100
AcDbText
 10
3581.374164
 20
216.760291
 30
0.0
 40
6.0
  1

  7
BIGFONT
100
AcDbText
  0
TEXT
  5
EAB
100
AcDbEntity
  8
ZI02
100
AcDbText
 10
3611.374164
 20
216.760291
 30
0.0
 40
6.0
  1

  7
BIGFONT
100
AcDbText
  0
TEXT
  5
EAC
100
AcDbEntity
  8
ZI02
100
AcDbText
 10
3623.374164
 20
216.760291
 30
0.0
 40
6.0
  1

  7
BIGFONT
100
AcDbText
  0
TEXT
  5
EAD
100
AcDbEntity
  8
ZI05
100
AcDbText
 10
4155.521782
 20
245.448277
 30
0.0
 40
6.0
  1

 50
26.0
  7
BIGFONT
100
AcDbText
  0
TEXT
  5
EAE
100
AcDbEntity
  8
ZI05
100
AcDbText
 10
4175.661556
 20
267.555748
 30
0.0
 40
6.0
  1

 50
69.333333
  7
BIGFONT
100
AcDbText
  0
TEXT
  5
EAF
100
AcDbEntity
  8
ZI05
100
AcDbText
 10
4178.199231
 20
279.494571
 30
0.0
 40
6.0
  1

 50
86.666667
  7
BIGFONT
100
AcDbText
  0
TEXT
  5
EB0
100
AcDbEntity
  8
ZI05
100
AcDbText
 10
4168.79255
 20
307.882334
 30
0.0
 40
6.0
  1

 50
130.0
  7
BIGFONT
100
AcDbText
  0
TEXT
  5
EB1
100
AcDbEntity
  8
ZI05
100
AcDbText
 10
3511.367181
 20
363.111811
 30
0.0
 40
6.0
  1

 50
26.0
  7
BIGFONT
100
AcDbText
  0
TEXT
  5
EB2
100
AcDbEntity
  8
ZI05
100
AcDbText
 10
3531.506955
 20
385.219282
 30
0.0
 40
6.0
  1

 50
69.333333
  7
BIGFONT
100
AcDbText
  0
TEXT
  5
EB3
100
AcDbEntity
  8
ZI05
100
AcDbText
 10
3534.04463
 20
397.158104
 30
0.0
 40
6.0
  1

 50
86.666667
  7
BIGFONT
100
AcDbText
  0
TEXT
  5
EB4
100
AcDbEntity
  8
ZI05
100
AcDbText
 10
3524.637949
 20
425.545868
 30
0.0
 40
6.0
  1

 50
130.0
  7
BIGFONT
100
AcDbText
  0
TEXT
  5
EB5
100
AcDbEntity
  8
ZI02
100
AcDbText
 10
3608.470667
 20
346.502871
 30
0.0
 40
6.0
  1

  7
BIGFONT
100
AcDbText
  0
TEXT
  5
EB6
100
AcDbEntity
  8
ZI02
100
AcDbText
 10
3638.470667
 20
346.502871
 30
0.0
 40
6.0
  1

  7
BIGFONT
100
AcDbText
  0
TEXT
  5
EB7
100
AcDbEntity
  8
ZI02
100
AcDbText
 10
3650.470667
 20
346.502871
 30
0.0
 40
6.0
  1

  7
BIGFONT
100
AcDbText
  0
TEXT
  5
EB8
100
AcDbEntity
  8
ZI05
100
AcDbText
 10
4182.618285
 20
375.190857
 30
0.0
 40
6.0
  1

 50
26.0
  7
BIGFONT
100
AcDbText
  0
TEXT
  5
EB9
100
AcDbEntity
  8
ZI05
100
AcDbText
 10
4202.758058
 20
397.298328
 30
0.0
 40
6.0
  1

 50
69.333333
  7
BIGFONT
100
AcDbText
  0
TEXT
  5
EBA
100
AcDbEntity
  8
ZI05
100
AcDbText
 10
4205.295733
 20
409.237151
 30
0.0
 40
6.0
  1

 50
86.666667
  7
BIGFONT
100
AcDbText
  0
TEXT
  5
EBB
100
AcDbEntity
  8
ZI05
100
AcDbText
 10
4195.889053
 20
437.624914
 30
0.0
 40
6.0
  1

 50
130.0
  7
BIGFONT
100
AcDbText
  0
TEXT
  5
EBC
100
AcDbEntity
  8
ZI05
100
AcDbText
 10
4182.323913
 20
511.698395
 30
0.0
 40
6.0
  1

 50
26.0
  7
BIGFONT
100
AcDbText
  0
TEXT
  5
EBD
100
AcDbEntity
  8
ZI05
100
AcDbText
 10
4202.463687
 20
533.805867
 30
0.0
 40
6.0
  1

 50
69.333333
  7
BIGFONT
100
AcDbText
  0
TEXT
  5
EBE
100
AcDbEntity
  8
ZI05
100
AcDbText
 10
4205.001362
 20
545.744689
 30
0.0
 40
6.0
  1

 50
86.666667
  7
BIGFONT
100
AcDbText
  0
TEXT
  5
EBF
100
AcDbEntity
  8
ZI05
100
AcDbText
 10
4195.594682
 20
574.132453
 30
0.0
 40
6.0
  1

 50
130.0
  7
BIGFONT
100
AcDbText
  0
TEXT
  5
EC0
100
AcDbEntity
  8
ZI02
100
AcDbText
 10
4279.427399
 20
495.089456
 30
0.0
 40
6.0
  1

  7
BIGFONT
100
AcDbText
  0
TEXT
  5
EC1
100
AcDbEntity
  8
ZI02
100
AcDbText
 10
4309.427399
 20
495.089456
 30
0.0
 40
6.0
  1

  7
BIGFONT
100
AcDbText
  0
TEXT
  5
EC2
100
AcDbEntity
  8
ZI02
100
AcDbText
 10
4321.427399
 20
495.089456
 30
0.0
 40
6.0
  1

  7
BIGFONT
100
AcDbText
  0
TEXT
  5
EC3
100
AcDbEntity
  8
ZI05
100
AcDbText
 10
4853.575017
 20
523.777442
 30
0.0
 40
6.0
  1

 50
26.0
  7
BIGFONT
100
AcDbText
  0
TEXT
  5
EC4
100
AcDbEntity
  8
ZI05
100
AcDbText
 10
4873.714791
 20
545.884913
 30
0.0
 40
6.0
  1

 50
69.333333
  7
BIGFONT
100
AcDbText
  0
TEXT
  5
EC5
100
AcDbEntity
  8
ZI05
100
AcDbText
 10
4876.252466
 20
557.823735
 30
0.0
 40
6.0
  1

 50
86.666667
  7
BIGFONT
100
AcDbText
  0
TEXT
  5
EC6
100
AcDbEntity
  8
ZI05
100
AcDbText
 10
4866.845785
 20
586.211499
 30
0.0
 40
6.0
  1

 50
130.0
  7
BIGFONT
100
AcDbText
  0
TEXT
  5
EC7
100
AcDbEntity
  8
ZI05
100
AcDbText
 10
4947.784048
 20
507.580791
 30
0.0
 40
6.0
  1

 50
26.0
  7
BIGFONT
100
AcDbText
  0
TEXT
  5
EC8
100
AcDbEntity
  8
ZI05
100
AcDbText
 10
4967.923822
 20
529.688262
 30
0.0
 40
6.0
  1

 50
69.333333
  7
BIGFONT
100
AcDbText
  0
TEXT
  5
EC9
100
AcDbEntity
  8
ZI05
100
AcDbText
 10
4970.461497
 20
541.627084
 30
0.0
 40
6.0
  1

 50
86.666667
  7
BIGFONT
100
AcDbText
  0
TEXT
  5
ECA
100
AcDbEntity
  8
ZI05
100
AcDbText
 10
4961.054817
 20
570.014848
 30
0.0
 40
6.0
  1

 50
130.0
  7
BIGFONT
100
AcDbText
  0
TEXT
  5
ECB
100
AcDbEntity
  8
ZI02
100
AcDbText
 10
5044.887534
 20
490.971851
 30
0.0
 40
6.0
  1

  7
BIGFONT
100
AcDbText
  0
TEXT
  5
ECC
100
AcDbEntity
  8
ZI02
100
AcDbText
 10
5074.887534
 20
490.971851
 30
0.0
 40
6.0
  1

  7
BIGFONT
100
AcDbText
  0
TEXT
  5
ECD
100
AcDbEntity
  8
ZI02
100
AcDbText
 10
5086.887534
 20
490.971851
 30
0.0
 40
6.0
  1

  7
BIGFONT
100
AcDbText
  0
TEXT
  5
ECE
100
AcDbEntity
  8
ZI05
100
AcDbText
 10
5619.035152
 20
519.659837
 30
0.0
 40
6.0
  1

 50
26.0
  7
BIGFONT
100
AcDbText
  0
TEXT
  5
ECF
100
AcDbEntity
  8
ZI05
100
AcDbText
 10
5639.174926
 20
541.767308
 30
0.0
 40
6.0
  1

 50
69.333333
  7
BIGFONT
100
AcDbText
  0
TEXT
  5
ED0
100
AcDbEntity
  8
ZI05
100
AcDbText
 10
5641.712601
 20
553.70613
 30
0.0
 40
6.0
  1

 50
86.666667
  7
BIGFONT
100
AcDbText
  0
TEXT
  5
ED1
100
AcDbEntity
  8
ZI05
100
AcDbText
 10
5632.30592
 20
582.093894
 30
0.0
 40
6.0
  1

 50
130.0
  7
BIGFONT
100
AcDbText
  0
TEXT
  5
ED2
100
AcDbEntity
  8
ZI05
100
AcDbText
 10
4161.731646
 20
510.925307
 30
0.0
 40
6.0
  1

 50
26.0
  7
BIGFONT
100
AcDbText
  0
TEXT
  5
ED3
100
AcDbEntity
  8
ZI05
100
AcDbText
 10
4181.87142
 20
533.032778
 30
0.0
 40
6.0
  1

 50
69.333333
  7
BIGFONT
100
AcDbText
  0
TEXT
  5
ED4
100
AcDbEntity
  8
ZI05
100
AcDbText
 10
4184.409095
 20
544.9716
 30
0.0
 40
6.0
  1

 50
86.666667
  7
BIGFONT
100
AcDbText
  0
TEXT
  5
ED5
100
AcDbEntity
  8
ZI05
100
AcDbText
 10
4175.002414
 20
573.359364
 30
0.0
 40
6.0
  1

 50
130.0
  7
BIGFONT
100
AcDbText
  0
TEXT
  5
ED6
100
AcDbEntity
  8
ZI02
100
AcDbText
 10
4258.835132
 20
494.316367
 30
0.0
 40
6.0
  1

  7
BIGFONT
100
AcDbText
  0
TEXT
  5
ED7
100
AcDbEntity
  8
ZI02
100
AcDbText
 10
4288.835132
 20
494.316367
 30
0.0
 40
6.0
  1

  7
BIGFONT
100
AcDbText
  0
TEXT
  5
ED8
100
AcDbEntity
  8
ZI02
100
AcDbText
 10
4300.835132
 20
494.316367
 30
0.0
 40
6.0
  1

  7
BIGFONT
100
AcDbText
  0
TEXT
  5
ED9
100
AcDbEntity
  8
ZI05
100
AcDbText
 10
4832.98275
 20
523.004353
 30
0.0
 40
6.0
  1

 50
26.0
  7
BIGFONT
100
AcDbText
  0
TEXT
  5
EDA
100
AcDbEntity
  8
ZI05
100
AcDbText
 10
4853.122523
 20
545.111824
 30
0.0
 40
6.0
  1

 50
69.333333
  7
BIGFONT
100
AcDbText
  0
TEXT
  5
EDB
100
AcDbEntity
  8
ZI05
100
AcDbText
 10
4855.660198
 20
557.050646
 30
0.0
 40
6.0
  1

 50
86.666667
  7
BIGFONT
100
AcDbText
  0
TEXT
  5
EDC
100
AcDbEntity
  8
ZI05
100
AcDbText
 10
4846.253518
 20
585.43841
 30
0.0
 40
6.0
  1

 50
130.0
  7
BIGFONT
100
AcDbText
  0
TEXT
  5
EDD
100
AcDbEntity
  8
ZI05
100
AcDbText
 10
1482.837836
 20
221.963754
 30
0.0
 40
6.0
  1

 50
26.0
  7
BIGFONT
100
AcDbText
  0
TEXT
  5
EDE
100
AcDbEntity
  8
ZI05
100
AcDbText
 10
1502.97761
 20
244.071225
 30
0.0
 40
6.0
  1

 50
69.333333
  7
BIGFONT
100
AcDbText
  0
TEXT
  5
EDF
100
AcDbEntity
  8
ZI05
100
AcDbText
 10
1505.515285
 20
256.010048
 30
0.0
 40
6.0
  1

 50
86.666667
  7
BIGFONT
100
AcDbText
  0
TEXT
  5
EE0
100
AcDbEntity
  8
ZI05
100
AcDbText
 10
1496.108604
 20
284.397811
 30
0.0
 40
6.0
  1

 50
130.0
  7
BIGFONT
100
AcDbText
  0
TEXT
  5
EE1
100
AcDbEntity
  8
ZI02
100
AcDbText
 10
1579.941322
 20
205.354815
 30
0.0
 40
6.0
  1

  7
BIGFONT
100
AcDbText
  0
TEXT
  5
EE2
100
AcDbEntity
  8
ZI02
100
AcDbText
 10
1609.941322
 20
205.354815
 30
0.0
 40
6.0
  1

  7
BIGFONT
100
AcDbText
  0
TEXT
  5
EE3
100
AcDbEntity
  8
ZI02
100
AcDbText
 10
1621.941322
 20
205.354815
 30
0.0
 40
6.0
  1

  7
BIGFONT
100
AcDbText
  0
TEXT
  5
EE4
100
AcDbEntity
  8
ZI05
100
AcDbText
 10
2154.088939
 20
234.042801
 30
0.0
 40
6.0
  1

 50
26.0
  7
BIGFONT
100
AcDbText
  0
TEXT
  5
EE5
100
AcDbEntity
  8
ZI05
100
AcDbText
 10
2174.228713
 20
256.150272
 30
0.0
 40
6.0
  1

 50
69.333333
  7
BIGFONT
100
AcDbText
  0
TEXT
  5
EE6
100
AcDbEntity
  8
ZI05
100
AcDbText
 10
2176.766388
 20
268.089094
 30
0.0
 40
6.0
  1

 50
86.666667
  7
BIGFONT
100
AcDbText
  0
TEXT
  5
EE7
100
AcDbEntity
  8
ZI05
100
AcDbText
 10
2167.359708
 20
296.476858
 30
0.0
 40
6.0
  1

 50
130.0
  7
BIGFONT
100
AcDbText
  0
TEXT
  5
EE8
100
AcDbEntity
  8
ZI05
100
AcDbText
 10
1924.576565
 20
228.397819
 30
0.0
 40
6.0
  1

 50
26.0
  7
BIGFONT
100
AcDbText
  0
TEXT
  5
EE9
100
AcDbEntity
  8
ZI05
100
AcDbText
 10
1944.716339
 20
250.50529
 30
0.0
 40
6.0
  1

 50
69.333333
  7
BIGFONT
100
AcDbText
  0
TEXT
  5
EEA
100
AcDbEntity
  8
ZI05
100
AcDbText
 10
1947.254014
 20
262.444113
 30
0.0
 40
6.0
  1

 50
86.666667
  7
BIGFONT
100
AcDbText
  0
TEXT
  5
EEB
100
AcDbEntity
  8
ZI05
100
AcDbText
 10
1937.847333
 20
290.831877
 30
0.0
 40
6.0
  1

 50
130.0
  7
BIGFONT
100
AcDbText
  0
TEXT
  5
EEC
100
AcDbEntity
  8
ZI02
100
AcDbText
 10
2021.680051
 20
211.78888
 30
0.0
 40
6.0
  1

  7
BIGFONT
100
AcDbText
  0
TEXT
  5
EED
100
AcDbEntity
  8
ZI02
100
AcDbText
 10
2051.680051
 20
211.78888
 30
0.0
 40
6.0
  1

  7
BIGFONT
100
AcDbText
  0
TEXT
  5
EEE
100
AcDbEntity
  8
ZI02
100
AcDbText
 10
2063.680051
 20
211.78888
 30
0.0
 40
6.0
  1

  7
BIGFONT
100
AcDbText
  0
TEXT
  5
EEF
100
AcDbEntity
  8
ZI05
100
AcDbText
 10
2595.827668
 20
240.476866
 30
0.0
 40
6.0
  1

 50
26.0
  7
BIGFONT
100
AcDbText
  0
TEXT
  5
EF0
100
AcDbEntity
  8
ZI05
100
AcDbText
 10
2615.967442
 20
262.584337
 30
0.0
 40
6.0
  1

 50
69.333333
  7
BIGFONT
100
AcDbText
  0
TEXT
  5
EF1
100
AcDbEntity
  8
ZI05
100
AcDbText
 10
2618.505117
 20
274.523159
 30
0.0
 40
6.0
  1

 50
86.666667
  7
BIGFONT
100
AcDbText
  0
TEXT
  5
EF2
100
AcDbEntity
  8
ZI05
100
AcDbText
 10
2609.098437
 20
302.910923
 30
0.0
 40
6.0
  1

 50
130.0
  7
BIGFONT
100
AcDbText
  0
TEXT
  5
F91
100
AcDbEntity
  8
ZI05
100
AcDbText
 10
1807.45018
 20
256.700997
 30
0.0
 40
6.0
  1

 50
26.0
  7
BIGFONT
100
AcDbText
  0
TEXT
  5
F92
100
AcDbEntity
  8
ZI05
100
AcDbText
 10
1827.589954
 20
278.808468
 30
0.0
 40
6.0
  1

 50
69.333333
  7
BIGFONT
100
AcDbText
  0
TEXT
  5
F93
100
AcDbEntity
  8
ZI05
100
AcDbText
 10
1830.127629
 20
290.74729
 30
0.0
 40
6.0
  1

 50
86.666667
  7
BIGFONT
100
AcDbText
  0
TEXT
  5
F94
100
AcDbEntity
  8
ZI05
100
AcDbText
 10
1820.720948
 20
319.135054
 30
0.0
 40
6.0
  1

 50
130.0
  7
BIGFONT
100
AcDbText
  0
TEXT
  5
F95
100
AcDbEntity
  8
ZI02
100
AcDbText
 10
1904.553666
 20
240.092057
 30
0.0
 40
6.0
  1

  7
BIGFONT
100
AcDbText
  0
TEXT
  5
F96
100
AcDbEntity
  8
ZI02
100
AcDbText
 10
1934.553666
 20
240.092057
 30
0.0
 40
6.0
  1

  7
BIGFONT
100
AcDbText
  0
TEXT
  5
F97
100
AcDbEntity
  8
ZI02
100
AcDbText
 10
1946.553666
 20
240.092057
 30
0.0
 40
6.0
  1

  7
BIGFONT
100
AcDbText
  0
TEXT
  5
F98
100
AcDbEntity
  8
ZI05
100
AcDbText
 10
2478.701283
 20
268.780043
 30
0.0
 40
6.0
  1

 50
26.0
  7
BIGFONT
100
AcDbText
  0
TEXT
  5
F99
100
AcDbEntity
  8
ZI05
100
AcDbText
 10
2498.841057
 20
290.887514
 30
0.0
 40
6.0
  1

 50
69.333333
  7
BIGFONT
100
AcDbText
  0
TEXT
  5
F9A
100
AcDbEntity
  8
ZI05
100
AcDbText
 10
2501.378732
 20
302.826337
 30
0.0
 40
6.0
  1

 50
86.666667
  7
BIGFONT
100
AcDbText
  0
TEXT
  5
F9B
100
AcDbEntity
  8
ZI05
100
AcDbText
 10
2491.972052
 20
331.2141
 30
0.0
 40
6.0
  1

 50
130.0
  7
BIGFONT
100
AcDbText
  0
TEXT
  5
F9D
100
AcDbEntity
  8
ZI05
100
AcDbText
 10
2351.341313
 20
261.376932
 30
0.0
 40
6.0
  1

 50
26.0
  7
BIGFONT
100
AcDbText
  0
TEXT
  5
F9E
100
AcDbEntity
  8
ZI05
100
AcDbText
 10
2371.481087
 20
283.484403
 30
0.0
 40
6.0
  1

 50
69.333333
  7
BIGFONT
100
AcDbText
  0
TEXT
  5
F9F
100
AcDbEntity
  8
ZI05
100
AcDbText
 10
2374.018762
 20
295.423225
 30
0.0
 40
6.0
  1

 50
86.666667
  7
BIGFONT
100
AcDbText
  0
TEXT
  5
FA0
100
AcDbEntity
  8
ZI05
100
AcDbText
 10
2364.612082
 20
323.810989
 30
0.0
 40
6.0
  1

 50
130.0
  7
BIGFONT
100
AcDbText
  0
TEXT
  5
FA1
100
AcDbEntity
  8
ZI02
100
AcDbText
 10
2448.444799
 20
244.767992
 30
0.0
 40
6.0
  1

  7
BIGFONT
100
AcDbText
  0
TEXT
  5
FA2
100
AcDbEntity
  8
ZI02
100
AcDbText
 10
2478.444799
 20
244.767992
 30
0.0
 40
6.0
  1

  7
BIGFONT
100
AcDbText
  0
TEXT
  5
FA3
100
AcDbEntity
  8
ZI02
100
AcDbText
 10
2490.444799
 20
244.767992
 30
0.0
 40
6.0
  1

  7
BIGFONT
100
AcDbText
  0
TEXT
  5
FA4
100
AcDbEntity
  8
ZI05
100
AcDbText
 10
3022.592417
 20
273.455978
 30
0.0
 40
6.0
  1

 50
26.0
  7
BIGFONT
100
AcDbText
  0
TEXT
  5
FA5
100
AcDbEntity
  8
ZI05
100
AcDbText
 10
3042.732191
 20
295.563449
 30
0.0
 40
6.0
  1

 50
69.333333
  7
BIGFONT
100
AcDbText
  0
TEXT
  5
FA6
100
AcDbEntity
  8
ZI05
100
AcDbText
 10
3045.269866
 20
307.502272
 30
0.0
 40
6.0
  1

 50
86.666667
  7
BIGFONT
100
AcDbText
  0
TEXT
  5
FA7
100
AcDbEntity
  8
ZI05
100
AcDbText
 10
3035.863185
 20
335.890035
 30
0.0
 40
6.0
  1

 50
130.0
  7
BIGFONT
100
AcDbText
  0
TEXT
  5
FA8
100
AcDbEntity
  8
ZI05
100
AcDbText
 10
2839.647715
 20
253.47117
 30
0.0
 40
6.0
  1

 50
26.0
  7
BIGFONT
100
AcDbText
  0
TEXT
  5
FA9
100
AcDbEntity
  8
ZI05
100
AcDbText
 10
2859.787489
 20
275.578641
 30
0.0
 40
6.0
  1

 50
69.333333
  7
BIGFONT
100
AcDbText
  0
TEXT
  5
FAA
100
AcDbEntity
  8
ZI05
100
AcDbText
 10
2862.325164
 20
287.517463
 30
0.0
 40
6.0
  1

 50
86.666667
  7
BIGFONT
100
AcDbText
  0
TEXT
  5
FAB
100
AcDbEntity
  8
ZI05
100
AcDbText
 10
2852.918484
 20
315.905227
 30
0.0
 40
6.0
  1

 50
130.0
  7
BIGFONT
100
AcDbText
  0
TEXT
  5
FAC
100
AcDbEntity
  8
ZI02
100
AcDbText
 10
2936.751201
 20
236.86223
 30
0.0
 40
6.0
  1

  7
BIGFONT
100
AcDbText
  0
TEXT
  5
FAD
100
AcDbEntity
  8
ZI02
100
AcDbText
 10
2966.751201
 20
236.86223
 30
0.0
 40
6.0
  1

  7
BIGFONT
100
AcDbText
  0
TEXT
  5
FAE
100
AcDbEntity
  8
ZI02
100
AcDbText
 10
2978.751201
 20
236.86223
 30
0.0
 40
6.0
  1

  7
BIGFONT
100
AcDbText
  0
TEXT
  5
FAF
100
AcDbEntity
  8
ZI05
100
AcDbText
 10
3510.898819
 20
265.550216
 30
0.0
 40
6.0
  1

 50
26.0
  7
BIGFONT
100
AcDbText
  0
TEXT
  5
FB0
100
AcDbEntity
  8
ZI05
100
AcDbText
 10
3531.038593
 20
287.657687
 30
0.0
 40
6.0
  1

 50
69.333333
  7
BIGFONT
100
AcDbText
  0
TEXT
  5
FB1
100
AcDbEntity
  8
ZI05
100
AcDbText
 10
3533.576268
 20
299.59651
 30
0.0
 40
6.0
  1

 50
86.666667
  7
BIGFONT
100
AcDbText
  0
TEXT
  5
FB2
100
AcDbEntity
  8
ZI05
100
AcDbText
 10
3524.169587
 20
327.984273
 30
0.0
 40
6.0
  1

 50
130.0
  7
BIGFONT
100
AcDbText
  0
TEXT
  5
FB3
100
AcDbEntity
  8
ZI05
100
AcDbText
 10
3309.316883
 20
255.205929
 30
0.0
 40
6.0
  1

 50
26.0
  7
BIGFONT
100
AcDbText
  0
TEXT
  5
FB4
100
AcDbEntity
  8
ZI05
100
AcDbText
 10
3329.456657
 20
277.3134
 30
0.0
 40
6.0
  1

 50
69.333333
  7
BIGFONT
100
AcDbText
  0
TEXT
  5
FB5
100
AcDbEntity
  8
ZI05
100
AcDbText
 10
3331.994332
 20
289.252223
 30
0.0
 40
6.0
  1

 50
86.666667
  7
BIGFONT
100
AcDbText
  0
TEXT
  5
FB6
100
AcDbEntity
  8
ZI05
100
AcDbText
 10
3322.587651
 20
317.639986
 30
0.0
 40
6.0
  1

 50
130.0
  7
BIGFONT
100
AcDbText
  0
TEXT
  5
FB7
100
AcDbEntity
  8
ZI02
100
AcDbText
 10
3406.420369
 20
238.596989
 30
0.0
 40
6.0
  1

  7
BIGFONT
100
AcDbText
  0
TEXT
  5
FB8
100
AcDbEntity
  8
ZI02
100
AcDbText
 10
3436.420369
 20
238.596989
 30
0.0
 40
6.0
  1

  7
BIGFONT
100
AcDbText
  0
TEXT
  5
FB9
100
AcDbEntity
  8
ZI02
100
AcDbText
 10
3448.420369
 20
238.596989
 30
0.0
 40
6.0
  1

  7
BIGFONT
100
AcDbText
  0
TEXT
  5
FBA
100
AcDbEntity
  8
ZI05
100
AcDbText
 10
3980.567987
 20
267.284976
 30
0.0
 40
6.0
  1

 50
26.0
  7
BIGFONT
100
AcDbText
  0
TEXT
  5
FBB
100
AcDbEntity
  8
ZI05
100
AcDbText
 10
4000.707761
 20
289.392447
 30
0.0
 40
6.0
  1

 50
69.333333
  7
BIGFONT
100
AcDbText
  0
TEXT
  5
FBC
100
AcDbEntity
  8
ZI05
100
AcDbText
 10
4003.245436
 20
301.331269
 30
0.0
 40
6.0
  1

 50
86.666667
  7
BIGFONT
100
AcDbText
  0
TEXT
  5
FBD
100
AcDbEntity
  8
ZI05
100
AcDbText
 10
3993.838755
 20
329.719033
 30
0.0
 40
6.0
  1

 50
130.0
  7
BIGFONT
100
AcDbText
  0
TEXT
  5
FBE
100
AcDbEntity
  8
ZI05
100
AcDbText
 10
3336.413386
 20
384.948509
 30
0.0
 40
6.0
  1

 50
26.0
  7
BIGFONT
100
AcDbText
  0
TEXT
  5
FBF
100
AcDbEntity
  8
ZI05
100
AcDbText
 10
3356.55316
 20
407.05598
 30
0.0
 40
6.0
  1

 50
69.333333
  7
BIGFONT
100
AcDbText
  0
TEXT
  5
FC0
100
AcDbEntity
  8
ZI05
100
AcDbText
 10
3359.090835
 20
418.994803
 30
0.0
 40
6.0
  1

 50
86.666667
  7
BIGFONT
100
AcDbText
  0
TEXT
  5
FC1
100
AcDbEntity
  8
ZI05
100
AcDbText
 10
3349.684154
 20
447.382566
 30
0.0
 40
6.0
  1

 50
130.0
  7
BIGFONT
100
AcDbText
  0
TEXT
  5
FC2
100
AcDbEntity
  8
ZI02
100
AcDbText
 10
3433.516871
 20
368.33957
 30
0.0
 40
6.0
  1

  7
BIGFONT
100
AcDbText
  0
TEXT
  5
FC3
100
AcDbEntity
  8
ZI02
100
AcDbText
 10
3463.516871
 20
368.33957
 30
0.0
 40
6.0
  1

  7
BIGFONT
100
AcDbText
  0
TEXT
  5
FC4
100
AcDbEntity
  8
ZI02
100
AcDbText
 10
3475.516871
 20
368.33957
 30
0.0
 40
6.0
  1

  7
BIGFONT
100
AcDbText
  0
TEXT
  5
FC5
100
AcDbEntity
  8
ZI05
100
AcDbText
 10
4007.664489
 20
397.027556
 30
0.0
 40
6.0
  1

 50
26.0
  7
BIGFONT
100
AcDbText
  0
TEXT
  5
FC6
100
AcDbEntity
  8
ZI05
100
AcDbText
 10
4027.804263
 20
419.135027
 30
0.0
 40
6.0
  1

 50
69.333333
  7
BIGFONT
100
AcDbText
  0
TEXT
  5
FC7
100
AcDbEntity
  8
ZI05
100
AcDbText
 10
4030.341938
 20
431.073849
 30
0.0
 40
6.0
  1

 50
86.666667
  7
BIGFONT
100
AcDbText
  0
TEXT
  5
FC8
100
AcDbEntity
  8
ZI05
100
AcDbText
 10
4020.935258
 20
459.461613
 30
0.0
 40
6.0
  1

 50
130.0
  7
BIGFONT
100
AcDbText
  0
TEXT
  5
FC9
100
AcDbEntity
  8
ZI05
100
AcDbText
 10
4007.370118
 20
533.535094
 30
0.0
 40
6.0
  1

 50
26.0
  7
BIGFONT
100
AcDbText
  0
TEXT
  5
FCA
100
AcDbEntity
  8
ZI05
100
AcDbText
 10
4027.509892
 20
555.642565
 30
0.0
 40
6.0
  1

 50
69.333333
  7
BIGFONT
100
AcDbText
  0
TEXT
  5
FCB
100
AcDbEntity
  8
ZI05
100
AcDbText
 10
4030.047567
 20
567.581387
 30
0.0
 40
6.0
  1

 50
86.666667
  7
BIGFONT
100
AcDbText
  0
TEXT
  5
FCC
100
AcDbEntity
  8
ZI05
100
AcDbText
 10
4020.640886
 20
595.969151
 30
0.0
 40
6.0
  1

 50
130.0
  7
BIGFONT
100
AcDbText
  0
TEXT
  5
FCD
100
AcDbEntity
  8
ZI02
100
AcDbText
 10
4104.473604
 20
516.926154
 30
0.0
 40
6.0
  1

  7
BIGFONT
100
AcDbText
  0
TEXT
  5
FCE
100
AcDbEntity
  8
ZI02
100
AcDbText
 10
4134.473604
 20
516.926154
 30
0.0
 40
6.0
  1

  7
BIGFONT
100
AcDbText
  0
TEXT
  5
FCF
100
AcDbEntity
  8
ZI02
100
AcDbText
 10
4146.473604
 20
516.926154
 30
0.0
 40
6.0
  1

  7
BIGFONT
100
AcDbText
  0
TEXT
  5
FD0
100
AcDbEntity
  8
ZI05
100
AcDbText
 10
4678.621222
 20
545.61414
 30
0.0
 40
6.0
  1

 50
26.0
  7
BIGFONT
100
AcDbText
  0
TEXT
  5
FD1
100
AcDbEntity
  8
ZI05
100
AcDbText
 10
4698.760996
 20
567.721611
 30
0.0
 40
6.0
  1

 50
69.333333
  7
BIGFONT
100
AcDbText
  0
TEXT
  5
FD2
100
AcDbEntity
  8
ZI05
100
AcDbText
 10
4701.298671
 20
579.660434
 30
0.0
 40
6.0
  1

 50
86.666667
  7
BIGFONT
100
AcDbText
  0
TEXT
  5
FD3
100
AcDbEntity
  8
ZI05
100
AcDbText
 10
4691.89199
 20
608.048197
 30
0.0
 40
6.0
  1

 50
130.0
  7
BIGFONT
100
AcDbText
  0
TEXT
  5
FD4
100
AcDbEntity
  8
ZI05
100
AcDbText
 10
4772.830253
 20
529.417489
 30
0.0
 40
6.0
  1

 50
26.0
  7
BIGFONT
100
AcDbText
  0
TEXT
  5
FD5
100
AcDbEntity
  8
ZI05
100
AcDbText
 10
4792.970027
 20
551.52496
 30
0.0
 40
6.0
  1

 50
69.333333
  7
BIGFONT
100
AcDbText
  0
TEXT
  5
FD6
100
AcDbEntity
  8
ZI05
100
AcDbText
 10
4795.507702
 20
563.463782
 30
0.0
 40
6.0
  1

 50
86.666667
  7
BIGFONT
100
AcDbText
  0
TEXT
  5
FD7
100
AcDbEntity
  8
ZI05
100
AcDbText
 10
4786.101021
 20
591.851546
 30
0.0
 40
6.0
  1

 50
130.0
  7
BIGFONT
100
AcDbText
  0
TEXT
  5
FD8
100
AcDbEntity
  8
ZI02
100
AcDbText
 10
4869.933739
 20
512.808549
 30
0.0
 40
6.0
  1

  7
BIGFONT
100
AcDbText
  0
TEXT
  5
FD9
100
AcDbEntity
  8
ZI02
100
AcDbText
 10
4899.933739
 20
512.808549
 30
0.0
 40
6.0
  1

  7
BIGFONT
100
AcDbText
  0
TEXT
  5
FDA
100
AcDbEntity
  8
ZI02
100
AcDbText
 10
4911.933739
 20
512.808549
 30
0.0
 40
6.0
  1

  7
BIGFONT
100
AcDbText
  0
TEXT
  5
FDB
100
AcDbEntity
  8
ZI05
100
AcDbText
 10
5444.081357
 20
541.496535
 30
0.0
 40
6.0
  1

 50
26.0
  7
BIGFONT
100
AcDbText
  0
TEXT
  5
FDC
100
AcDbEntity
  8
ZI05
100
AcDbText
 10
5464.22113
 20
563.604006
 30
0.0
 40
6.0
  1

 50
69.333333
  7
BIGFONT
100
AcDbText
  0
TEXT
  5
FDD
100
AcDbEntity
  8
ZI05
100
AcDbText
 10
5466.758805
 20
575.542829
 30
0.0
 40
6.0
  1

 50
86.666667
  7
BIGFONT
100
AcDbText
  0
TEXT
  5
FDE
100
AcDbEntity
  8
ZI05
100
AcDbText
 10
5457.352125
 20
603.930593
 30
0.0
 40
6.0
  1

 50
130.0
  7
BIGFONT
100
AcDbText
  0
TEXT
  5
FE0
100
AcDbEntity
  8
ZI05
100
AcDbText
 10
3986.777851
 20
532.762005
 30
0.0
 40
6.0
  1

 50
26.0
  7
BIGFONT
100
AcDbText
  0
TEXT
  5
FE1
100
AcDbEntity
  8
ZI05
100
AcDbText
 10
4006.917625
 20
554.869476
 30
0.0
 40
6.0
  1

 50
69.333333
  7
BIGFONT
100
AcDbText
  0
TEXT
  5
FE2
100
AcDbEntity
  8
ZI05
100
AcDbText
 10
4009.4553
 20
566.808298
 30
0.0
 40
6.0
  1

 50
86.666667
  7
BIGFONT
100
AcDbText
  0
TEXT
  5
FE3
100
AcDbEntity
  8
ZI05
100
AcDbText
 10
4000.048619
 20
595.196062
 30
0.0
 40
6.0
  1

 50
130.0
  7
BIGFONT
100
AcDbText
  0
TEXT
  5
FE4
100
AcDbEntity
  8
ZI02
100
AcDbText
 10
4083.881336
 20
516.153065
 30
0.0
 40
6.0
  1

  7
BIGFONT
100
AcDbText
  0
TEXT
  5
FE5
100
AcDbEntity
  8
ZI02
100
AcDbText
 10
4113.881336
 20
516.153065
 30
0.0
 40
6.0
  1

  7
BIGFONT
100
AcDbText
  0
TEXT
  5
FE6
100
AcDbEntity
  8
ZI02
100
AcDbText
 10
4125.881336
 20
516.153065
 30
0.0
 40
6.0
  1

  7
BIGFONT
100
AcDbText
  0
TEXT
  5
FE7
100
AcDbEntity
  8
ZI05
100
AcDbText
 10
4658.028954
 20
544.841051
 30
0.0
 40
6.0
  1

 50
26.0
  7
BIGFONT
100
AcDbText
  0
TEXT
  5
FE8
100
AcDbEntity
  8
ZI05
100
AcDbText
 10
4678.168728
 20
566.948522
 30
0.0
 40
6.0
  1

 50
69.333333
  7
BIGFONT
100
AcDbText
  0
TEXT
  5
FE9
100
AcDbEntity
  8
ZI05
100
AcDbText
 10
4680.706403
 20
578.887345
 30
0.0
 40
6.0
  1

 50
86.666667
  7
BIGFONT
100
AcDbText
  0
TEXT
  5
FEA
100
AcDbEntity
  8
ZI05
100
AcDbText
 10
4671.299723
 20
607.275109
 30
0.0
 40
6.0
  1

 50
130.0
  7
BIGFONT
100
AcDbText
  0
TEXT
  5
FEB
100
AcDbEntity
  8
ZI05
100
AcDbText
 10
2045.064001
 20
261.489944
 30
0.0
 40
6.0
  1

 50
26.0
  7
BIGFONT
100
AcDbText
  0
TEXT
  5
FEC
100
AcDbEntity
  8
ZI05
100
AcDbText
 10
2065.203775
 20
283.597415
 30
0.0
 40
6.0
  1

 50
69.333333
  7
BIGFONT
100
AcDbText
  0
TEXT
  5
FED
100
AcDbEntity
  8
ZI05
100
AcDbText
 10
2067.74145
 20
295.536237
 30
0.0
 40
6.0
  1

 50
86.666667
  7
BIGFONT
100
AcDbText
  0
TEXT
  5
FEE
100
AcDbEntity
  8
ZI05
100
AcDbText
 10
2058.334769
 20
323.924001
 30
0.0
 40
6.0
  1

 50
130.0
  7
BIGFONT
100
AcDbText
  0
TEXT
  5
FEF
100
AcDbEntity
  8
ZI02
100
AcDbText
 10
2142.167487
 20
244.881004
 30
0.0
 40
6.0
  1

  7
BIGFONT
100
AcDbText
  0
TEXT
  5
FF0
100
AcDbEntity
  8
ZI02
100
AcDbText
 10
2172.167487
 20
244.881004
 30
0.0
 40
6.0
  1

  7
BIGFONT
100
AcDbText
  0
TEXT
  5
FF1
100
AcDbEntity
  8
ZI02
100
AcDbText
 10
2184.167487
 20
244.881004
 30
0.0
 40
6.0
  1

  7
BIGFONT
100
AcDbText
  0
TEXT
  5
FF2
100
AcDbEntity
  8
ZI05
100
AcDbText
 10
2716.315104
 20
273.56899
 30
0.0
 40
6.0
  1

 50
26.0
  7
BIGFONT
100
AcDbText
  0
TEXT
  5
FF3
100
AcDbEntity
  8
ZI05
100
AcDbText
 10
2736.454878
 20
295.676461
 30
0.0
 40
6.0
  1

 50
69.333333
  7
BIGFONT
100
AcDbText
  0
TEXT
  5
FF4
100
AcDbEntity
  8
ZI05
100
AcDbText
 10
2738.992553
 20
307.615284
 30
0.0
 40
6.0
  1

 50
86.666667
  7
BIGFONT
100
AcDbText
  0
TEXT
  5
FF5
100
AcDbEntity
  8
ZI05
100
AcDbText
 10
2729.585873
 20
336.003048
 30
0.0
 40
6.0
  1

 50
130.0
  7
BIGFONT
100
AcDbText
  0
TEXT
  5
FF6
100
AcDbEntity
  8
ZI05
100
AcDbText
 10
2588.955134
 20
266.165879
 30
0.0
 40
6.0
  1

 50
26.0
  7
BIGFONT
100
AcDbText
  0
TEXT
  5
FF7
100
AcDbEntity
  8
ZI05
100
AcDbText
 10
2609.094908
 20
288.27335
 30
0.0
 40
6.0
  1

 50
69.333333
  7
BIGFONT
100
AcDbText
  0
TEXT
  5
FF8
100
AcDbEntity
  8
ZI05
100
AcDbText
 10
2611.632583
 20
300.212172
 30
0.0
 40
6.0
  1

 50
86.666667
  7
BIGFONT
100
AcDbText
  0
TEXT
  5
FF9
100
AcDbEntity
  8
ZI05
100
AcDbText
 10
2602.225903
 20
328.599936
 30
0.0
 40
6.0
  1

 50
130.0
  7
BIGFONT
100
AcDbText
  0
TEXT
  5
FFA
100
AcDbEntity
  8
ZI02
100
AcDbText
 10
2686.05862
 20
249.556939
 30
0.0
 40
6.0
  1

  7
BIGFONT
100
AcDbText
  0
TEXT
  5
FFB
100
AcDbEntity
  8
ZI02
100
AcDbText
 10
2716.05862
 20
249.556939
 30
0.0
 40
6.0
  1

  7
BIGFONT
100
AcDbText
  0
TEXT
  5
FFC
100
AcDbEntity
  8
ZI02
100
AcDbText
 10
2728.05862
 20
249.556939
 30
0.0
 40
6.0
  1

  7
BIGFONT
100
AcDbText
  0
TEXT
  5
FFD
100
AcDbEntity
  8
ZI05
100
AcDbText
 10
3260.206238
 20
278.244925
 30
0.0
 40
6.0
  1

 50
26.0
  7
BIGFONT
100
AcDbText
  0
TEXT
  5
FFE
100
AcDbEntity
  8
ZI05
100
AcDbText
 10
3280.346012
 20
300.352396
 30
0.0
 40
6.0
  1

 50
69.333333
  7
BIGFONT
100
AcDbText
  0
TEXT
  5
FFF
100
AcDbEntity
  8
ZI05
100
AcDbText
 10
3282.883687
 20
312.291219
 30
0.0
 40
6.0
  1

 50
86.666667
  7
BIGFONT
100
AcDbText
  0
TEXT
  5
1000
100
AcDbEntity
  8
ZI05
100
AcDbText
 10
3273.477006
 20
340.678982
 30
0.0
 40
6.0
  1

 50
130.0
  7
BIGFONT
100
AcDbText
  0
TEXT
  5
1001
100
AcDbEntity
  8
ZI05
100
AcDbText
 10
3077.261536
 20
258.260117
 30
0.0
 40
6.0
  1

 50
26.0
  7
BIGFONT
100
AcDbText
  0
TEXT
  5
1002
100
AcDbEntity
  8
ZI05
100
AcDbText
 10
3097.40131
 20
280.367588
 30
0.0
 40
6.0
  1

 50
69.333333
  7
BIGFONT
100
AcDbText
  0
TEXT
  5
1003
100
AcDbEntity
  8
ZI05
100
AcDbText
 10
3099.938985
 20
292.30641
 30
0.0
 40
6.0
  1

 50
86.666667
  7
BIGFONT
100
AcDbText
  0
TEXT
  5
1004
100
AcDbEntity
  8
ZI05
100
AcDbText
 10
3090.532305
 20
320.694174
 30
0.0
 40
6.0
  1

 50
130.0
  7
BIGFONT
100
AcDbText
  0
TEXT
  5
1005
100
AcDbEntity
  8
ZI02
100
AcDbText
 10
3174.365022
 20
241.651177
 30
0.0
 40
6.0
  1

  7
BIGFONT
100
AcDbText
  0
TEXT
  5
1006
100
AcDbEntity
  8
ZI02
100
AcDbText
 10
3204.365022
 20
241.651177
 30
0.0
 40
6.0
  1

  7
BIGFONT
100
AcDbText
  0
TEXT
  5
1007
100
AcDbEntity
  8
ZI02
100
AcDbText
 10
3216.365022
 20
241.651177
 30
0.0
 40
6.0
  1

  7
BIGFONT
100
AcDbText
  0
TEXT
  5
1008
100
AcDbEntity
  8
ZI05
100
AcDbText
 10
3748.51264
 20
270.339163
 30
0.0
 40
6.0
  1

 50
26.0
  7
BIGFONT
100
AcDbText
  0
TEXT
  5
1009
100
AcDbEntity
  8
ZI05
100
AcDbText
 10
3768.652414
 20
292.446634
 30
0.0
 40
6.0
  1

 50
69.333333
  7
BIGFONT
100
AcDbText
  0
TEXT
  5
100A
100
AcDbEntity
  8
ZI05
100
AcDbText
 10
3771.190089
 20
304.385457
 30
0.0
 40
6.0
  1

 50
86.666667
  7
BIGFONT
100
AcDbText
  0
TEXT
  5
100B
100
AcDbEntity
  8
ZI05
100
AcDbText
 10
3761.783408
 20
332.77322
 30
0.0
 40
6.0
  1

 50
130.0
  7
BIGFONT
100
AcDbText
  0
TEXT
  5
100C
100
AcDbEntity
  8
ZI05
100
AcDbText
 10
3546.930704
 20
259.994876
 30
0.0
 40
6.0
  1

 50
26.0
  7
BIGFONT
100
AcDbText
  0
TEXT
  5
100D
100
AcDbEntity
  8
ZI05
100
AcDbText
 10
3567.070478
 20
282.102347
 30
0.0
 40
6.0
  1

 50
69.333333
  7
BIGFONT
100
AcDbText
  0
TEXT
  5
100E
100
AcDbEntity
  8
ZI05
100
AcDbText
 10
3569.608153
 20
294.04117
 30
0.0
 40
6.0
  1

 50
86.666667
  7
BIGFONT
100
AcDbText
  0
TEXT
  5
100F
100
AcDbEntity
  8
ZI05
100
AcDbText
 10
3560.201472
 20
322.428933
 30
0.0
 40
6.0
  1

 50
130.0
  7
BIGFONT
100
AcDbText
  0
TEXT
  5
1010
100
AcDbEntity
  8
ZI02
100
AcDbText
 10
3644.03419
 20
243.385937
 30
0.0
 40
6.0
  1

  7
BIGFONT
100
AcDbText
  0
TEXT
  5
1011
100
AcDbEntity
  8
ZI02
100
AcDbText
 10
3674.03419
 20
243.385937
 30
0.0
 40
6.0
  1

  7
BIGFONT
100
AcDbText
  0
TEXT
  5
1012
100
AcDbEntity
  8
ZI02
100
AcDbText
 10
3686.03419
 20
243.385937
 30
0.0
 40
6.0
  1

  7
BIGFONT
100
AcDbText
  0
TEXT
  5
1013
100
AcDbEntity
  8
ZI05
100
AcDbText
 10
4218.181808
 20
272.073923
 30
0.0
 40
6.0
  1

 50
26.0
  7
BIGFONT
100
AcDbText
  0
TEXT
  5
1014
100
AcDbEntity
  8
ZI05
100
AcDbText
 10
4238.321582
 20
294.181394
 30
0.0
 40
6.0
  1

 50
69.333333
  7
BIGFONT
100
AcDbText
  0
TEXT
  5
1015
100
AcDbEntity
  8
ZI05
100
AcDbText
 10
4240.859257
 20
306.120216
 30
0.0
 40
6.0
  1

 50
86.666667
  7
BIGFONT
100
AcDbText
  0
TEXT
  5
1016
100
AcDbEntity
  8
ZI05
100
AcDbText
 10
4231.452576
 20
334.50798
 30
0.0
 40
6.0
  1

 50
130.0
  7
BIGFONT
100
AcDbText
  0
TEXT
  5
1017
100
AcDbEntity
  8
ZI05
100
AcDbText
 10
3574.027207
 20
389.737456
 30
0.0
 40
6.0
  1

 50
26.0
  7
BIGFONT
100
AcDbText
  0
TEXT
  5
1018
100
AcDbEntity
  8
ZI05
100
AcDbText
 10
3594.16698
 20
411.844927
 30
0.0
 40
6.0
  1

 50
69.333333
  7
BIGFONT
100
AcDbText
  0
TEXT
  5
1019
100
AcDbEntity
  8
ZI05
100
AcDbText
 10
3596.704656
 20
423.78375
 30
0.0
 40
6.0
  1

 50
86.666667
  7
BIGFONT
100
AcDbText
  0
TEXT
  5
101A
100
AcDbEntity
  8
ZI05
100
AcDbText
 10
3587.297975
 20
452.171513
 30
0.0
 40
6.0
  1

 50
130.0
  7
BIGFONT
100
AcDbText
  0
TEXT
  5
101B
100
AcDbEntity
  8
ZI02
100
AcDbText
 10
3671.130692
 20
373.128517
 30
0.0
 40
6.0
  1

  7
BIGFONT
100
AcDbText
  0
TEXT
  5
101C
100
AcDbEntity
  8
ZI02
100
AcDbText
 10
3701.130692
 20
373.128517
 30
0.0
 40
6.0
  1

  7
BIGFONT
100
AcDbText
  0
TEXT
  5
101D
100
AcDbEntity
  8
ZI02
100
AcDbText
 10
3713.130692
 20
373.128517
 30
0.0
 40
6.0
  1

  7
BIGFONT
100
AcDbText
  0
TEXT
  5
101E
100
AcDbEntity
  8
ZI05
100
AcDbText
 10
4245.27831
 20
401.816503
 30
0.0
 40
6.0
  1

 50
26.0
  7
BIGFONT
100
AcDbText
  0
TEXT
  5
101F
100
AcDbEntity
  8
ZI05
100
AcDbText
 10
4265.418084
 20
423.923974
 30
0.0
 40
6.0
  1

 50
69.333333
  7
BIGFONT
100
AcDbText
  0
TEXT
  5
1020
100
AcDbEntity
  8
ZI05
100
AcDbText
 10
4267.955759
 20
435.862796
 30
0.0
 40
6.0
  1

 50
86.666667
  7
BIGFONT
100
AcDbText
  0
TEXT
  5
1021
100
AcDbEntity
  8
ZI05
100
AcDbText
 10
4258.549079
 20
464.25056
 30
0.0
 40
6.0
  1

 50
130.0
  7
BIGFONT
100
AcDbText
  0
TEXT
  5
1022
100
AcDbEntity
  8
ZI05
100
AcDbText
 10
4244.983939
 20
538.324041
 30
0.0
 40
6.0
  1

 50
26.0
  7
BIGFONT
100
AcDbText
  0
TEXT
  5
1023
100
AcDbEntity
  8
ZI05
100
AcDbText
 10
4265.123713
 20
560.431512
 30
0.0
 40
6.0
  1

 50
69.333333
  7
BIGFONT
100
AcDbText
  0
TEXT
  5
1024
100
AcDbEntity
  8
ZI05
100
AcDbText
 10
4267.661388
 20
572.370334
 30
0.0
 40
6.0
  1

 50
86.666667
  7
BIGFONT
100
AcDbText
  0
TEXT
  5
1025
100
AcDbEntity
  8
ZI05
100
AcDbText
 10
4258.254707
 20
600.758098
 30
0.0
 40
6.0
  1

 50
130.0
  7
BIGFONT
100
AcDbText
  0
TEXT
  5
1026
100
AcDbEntity
  8
ZI02
100
AcDbText
 10
4342.087425
 20
521.715101
 30
0.0
 40
6.0
  1

  7
BIGFONT
100
AcDbText
  0
TEXT
  5
1027
100
AcDbEntity
  8
ZI02
100
AcDbText
 10
4372.087425
 20
521.715101
 30
0.0
 40
6.0
  1

  7
BIGFONT
100
AcDbText
  0
TEXT
  5
1028
100
AcDbEntity
  8
ZI02
100
AcDbText
 10
4384.087425
 20
521.715101
 30
0.0
 40
6.0
  1

  7
BIGFONT
100
AcDbText
  0
TEXT
  5
1029
100
AcDbEntity
  8
ZI05
100
AcDbText
 10
4916.235043
 20
550.403087
 30
0.0
 40
6.0
  1

 50
26.0
  7
BIGFONT
100
AcDbText
  0
TEXT
  5
102A
100
AcDbEntity
  8
ZI05
100
AcDbText
 10
4936.374817
 20
572.510558
 30
0.0
 40
6.0
  1

 50
69.333333
  7
BIGFONT
100
AcDbText
  0
TEXT
  5
102B
100
AcDbEntity
  8
ZI05
100
AcDbText
 10
4938.912492
 20
584.449381
 30
0.0
 40
6.0
  1

 50
86.666667
  7
BIGFONT
100
AcDbText
  0
TEXT
  5
102C
100
AcDbEntity
  8
ZI05
100
AcDbText
 10
4929.505811
 20
612.837144
 30
0.0
 40
6.0
  1

 50
130.0
  7
BIGFONT
100
AcDbText
  0
TEXT
  5
102D
100
AcDbEntity
  8
ZI05
100
AcDbText
 10
5010.444074
 20
534.206436
 30
0.0
 40
6.0
  1

 50
26.0
  7
BIGFONT
100
AcDbText
  0
TEXT
  5
102E
100
AcDbEntity
  8
ZI05
100
AcDbText
 10
5030.583848
 20
556.313907
 30
0.0
 40
6.0
  1

 50
69.333333
  7
BIGFONT
100
AcDbText
  0
TEXT
  5
102F
100
AcDbEntity
  8
ZI05
100
AcDbText
 10
5033.121523
 20
568.252729
 30
0.0
 40
6.0
  1

 50
86.666667
  7
BIGFONT
100
AcDbText
  0
TEXT
  5
1030
100
AcDbEntity
  8
ZI05
100
AcDbText
 10
5023.714842
 20
596.640493
 30
0.0
 40
6.0
  1

 50
130.0
  7
BIGFONT
100
AcDbText
  0
TEXT
  5
1031
100
AcDbEntity
  8
ZI02
100
AcDbText
 10
5107.54756
 20
517.597496
 30
0.0
 40
6.0
  1

  7
BIGFONT
100
AcDbText
  0
TEXT
  5
1032
100
AcDbEntity
  8
ZI02
100
AcDbText
 10
5137.54756
 20
517.597496
 30
0.0
 40
6.0
  1

  7
BIGFONT
100
AcDbText
  0
TEXT
  5
1033
100
AcDbEntity
  8
ZI02
100
AcDbText
 10
5149.54756
 20
517.597496
 30
0.0
 40
6.0
  1

  7
BIGFONT
100
AcDbText
  0
TEXT
  5
1034
100
AcDbEntity
  8
ZI05
100
AcDbText
 10
5681.695178
 20
546.285483
 30
0.0
 40
6.0
  1

 50
26.0
  7
BIGFONT
100
AcDbText
  0
TEXT
  5
1035
100
AcDbEntity
  8
ZI05
100
AcDbText
 10
5701.834951
 20
568.392954
 30
0.0
 40
6.0
  1

 50
69.333333
  7
BIGFONT
100
AcDbText
  0
TEXT
  5
1036
100
AcDbEntity
  8
ZI05
100
AcDbText
 10
5704.372626
 20
580.331776
 30
0.0
 40
6.0
  1

 50
86.666667
  7
BIGFONT
100
AcDbText
  0
TEXT
  5
1037
100
AcDbEntity
  8
ZI05
100
AcDbText
 10
5694.965946
 20
608.71954
 30
0.0
 40
6.0
  1

 50
130.0
  7
BIGFONT
100
AcDbText
  0
TEXT
  5
1038
100
AcDbEntity
  8
ZI05
100
AcDbText
 10
4224.391672
 20
537.550952
 30
0.0
 40
6.0
  1

 50
26.0
  7
BIGFONT
100
AcDbText
  0
TEXT
  5
1039
100
AcDbEntity
  8
ZI05
100
AcDbText
 10
4244.531445
 20
559.658423
 30
0.0
 40
6.0
  1

 50
69.333333
  7
BIGFONT
100
AcDbText
  0
TEXT
  5
103A
100
AcDbEntity
  8
ZI05
100
AcDbText
 10
4247.069121
 20
571.597245
 30
0.0
 40
6.0
  1

 50
86.666667
  7
BIGFONT
100
AcDbText
  0
TEXT
  5
103B
100
AcDbEntity
  8
ZI05
100
AcDbText
 10
4237.66244
 20
599.985009
 30
0.0
 40
6.0
  1

 50
130.0
  7
BIGFONT
100
AcDbText
  0
TEXT
  5
103C
100
AcDbEntity
  8
ZI02
100
AcDbText
 10
4321.495157
 20
520.942012
 30
0.0
 40
6.0
  1

  7
BIGFONT
100
AcDbText
  0
TEXT
  5
103D
100
AcDbEntity
  8
ZI02
100
AcDbText
 10
4351.495157
 20
520.942012
 30
0.0
 40
6.0
  1

  7
BIGFONT
100
AcDbText
  0
TEXT
  5
103E
100
AcDbEntity
  8
ZI02
100
AcDbText
 10
4363.495157
 20
520.942012
 30
0.0
 40
6.0
  1

  7
BIGFONT
100
AcDbText
  0
TEXT
  5
103F
100
AcDbEntity
  8
ZI05
100
AcDbText
 10
4895.642775
 20
549.629999
 30
0.0
 40
6.0
  1

 50
26.0
  7
BIGFONT
100
AcDbText
  0
TEXT
  5
1040
100
AcDbEntity
  8
ZI05
100
AcDbText
 10
4915.782549
 20
571.73747
 30
0.0
 40
6.0
  1

 50
69.333333
  7
BIGFONT
100
AcDbText
  0
TEXT
  5
1041
100
AcDbEntity
  8
ZI05
100
AcDbText
 10
4918.320224
 20
583.676292
 30
0.0
 40
6.0
  1

 50
86.666667
  7
BIGFONT
100
AcDbText
  0
TEXT
  5
1042
100
AcDbEntity
  8
ZI05
100
AcDbText
 10
4908.913544
 20
612.064056
 30
0.0
 40
6.0
  1

 50
130.0
  7
BIGFONT
100
AcDbText
  0
TEXT
  5
1046
100
AcDbEntity
  8
ZI02
100
AcDbText
 10
1125.55271
 20
415.985917
 30
0.0
 40
6.0
  1

  7
BIGFONT
100
AcDbText
  0
TEXT
  5
1047
100
AcDbEntity
  8
ZI02
100
AcDbText
 10
1155.55271
 20
415.985917
 30
0.0
 40
6.0
  1

  7
BIGFONT
100
AcDbText
  0
TEXT
  5
1048
100
AcDbEntity
  8
ZI02
100
AcDbText
 10
1167.55271
 20
415.985917
 30
0.0
 40
6.0
  1

  7
BIGFONT
100
AcDbText
  0
TEXT
  5
1049
100
AcDbEntity
  8
ZI05
100
AcDbText
 10
1699.700328
 20
444.673904
 30
0.0
 40
6.0
  1

 50
26.0
  7
BIGFONT
100
AcDbText
  0
TEXT
  5
104A
100
AcDbEntity
  8
ZI05
100
AcDbText
 10
1719.840101
 20
466.781375
 30
0.0
 40
6.0
  1

 50
69.333333
  7
BIGFONT
100
AcDbText
  0
TEXT
  5
104B
100
AcDbEntity
  8
ZI05
100
AcDbText
 10
1722.377777
 20
478.720197
 30
0.0
 40
6.0
  1

 50
86.666667
  7
BIGFONT
100
AcDbText
  0
TEXT
  5
104C
100
AcDbEntity
  8
ZI05
100
AcDbText
 10
1712.971096
 20
507.107961
 30
0.0
 40
6.0
  1

 50
130.0
  7
BIGFONT
100
AcDbText
  0
TEXT
  5
104D
100
AcDbEntity
  8
ZI02
100
AcDbText
 10
1136.337196
 20
807.119607
 30
0.0
 40
6.0
  1

  7
BIGFONT
100
AcDbText
  0
TEXT
  5
104E
100
AcDbEntity
  8
ZI02
100
AcDbText
 10
1166.337196
 20
807.119607
 30
0.0
 40
6.0
  1

  7
BIGFONT
100
AcDbText
  0
TEXT
  5
104F
100
AcDbEntity
  8
ZI02
100
AcDbText
 10
1178.337196
 20
807.119607
 30
0.0
 40
6.0
  1

  7
BIGFONT
100
AcDbText
  0
TEXT
  5
1050
100
AcDbEntity
  8
ZI05
100
AcDbText
 10
1710.484814
 20
835.807593
 30
0.0
 40
6.0
  1

 50
26.0
  7
BIGFONT
100
AcDbText
  0
TEXT
  5
1051
100
AcDbEntity
  8
ZI05
100
AcDbText
 10
1730.624588
 20
857.915064
 30
0.0
 40
6.0
  1

 50
69.333333
  7
BIGFONT
100
AcDbText
  0
TEXT
  5
1052
100
AcDbEntity
  8
ZI05
100
AcDbText
 10
1733.162263
 20
869.853886
 30
0.0
 40
6.0
  1

 50
86.666667
  7
BIGFONT
100
AcDbText
  0
TEXT
  5
1053
100
AcDbEntity
  8
ZI05
100
AcDbText
 10
1723.755582
 20
898.24165
 30
0.0
 40
6.0
  1

 50
130.0
  7
BIGFONT
100
AcDbText
  0
TEXT
  5
1055
100
AcDbEntity
  8
ZI05
100
AcDbText
 10
2101.547195
 20
218.347456
 30
0.0
 40
6.0
  1

 50
26.0
  7
BIGFONT
100
AcDbText
  0
TEXT
  5
1056
100
AcDbEntity
  8
ZI05
100
AcDbText
 10
2121.686969
 20
240.454927
 30
0.0
 40
6.0
  1

 50
69.333333
  7
BIGFONT
100
AcDbText
  0
TEXT
  5
1057
100
AcDbEntity
  8
ZI05
100
AcDbText
 10
2124.224644
 20
252.39375
 30
0.0
 40
6.0
  1

 50
86.666667
  7
BIGFONT
100
AcDbText
  0
TEXT
  5
1058
100
AcDbEntity
  8
ZI05
100
AcDbText
 10
2114.817964
 20
280.781513
 30
0.0
 40
6.0
  1

 50
130.0
  7
BIGFONT
100
AcDbText
  0
TEXT
  5
1059
100
AcDbEntity
  8
ZI02
100
AcDbText
 10
2198.650681
 20
201.738516
 30
0.0
 40
6.0
  1

  7
BIGFONT
100
AcDbText
  0
TEXT
  5
105A
100
AcDbEntity
  8
ZI02
100
AcDbText
 10
2228.650681
 20
201.738516
 30
0.0
 40
6.0
  1

  7
BIGFONT
100
AcDbText
  0
TEXT
  5
105B
100
AcDbEntity
  8
ZI02
100
AcDbText
 10
2240.650681
 20
201.738516
 30
0.0
 40
6.0
  1

  7
BIGFONT
100
AcDbText
  0
TEXT
  5
105C
100
AcDbEntity
  8
ZI05
100
AcDbText
 10
2772.798299
 20
230.426503
 30
0.0
 40
6.0
  1

 50
26.0
  7
BIGFONT
100
AcDbText
  0
TEXT
  5
105D
100
AcDbEntity
  8
ZI05
100
AcDbText
 10
2792.938073
 20
252.533974
 30
0.0
 40
6.0
  1

 50
69.333333
  7
BIGFONT
100
AcDbText
  0
TEXT
  5
105E
100
AcDbEntity
  8
ZI05
100
AcDbText
 10
2795.475748
 20
264.472796
 30
0.0
 40
6.0
  1

 50
86.666667
  7
BIGFONT
100
AcDbText
  0
TEXT
  5
105F
100
AcDbEntity
  8
ZI05
100
AcDbText
 10
2786.069068
 20
292.86056
 30
0.0
 40
6.0
  1

 50
130.0
  7
BIGFONT
100
AcDbText
  0
TEXT
  5
1060
100
AcDbEntity
  8
ZI05
100
AcDbText
 10
1315.494793
 20
221.691972
 30
0.0
 40
6.0
  1

 50
26.0
  7
BIGFONT
100
AcDbText
  0
TEXT
  5
1061
100
AcDbEntity
  8
ZI05
100
AcDbText
 10
1335.634567
 20
243.799443
 30
0.0
 40
6.0
  1

 50
69.333333
  7
BIGFONT
100
AcDbText
  0
TEXT
  5
1062
100
AcDbEntity
  8
ZI05
100
AcDbText
 10
1338.172242
 20
255.738266
 30
0.0
 40
6.0
  1

 50
86.666667
  7
BIGFONT
100
AcDbText
  0
TEXT
  5
1063
100
AcDbEntity
  8
ZI05
100
AcDbText
 10
1328.765562
 20
284.126029
 30
0.0
 40
6.0
  1

 50
130.0
  7
BIGFONT
100
AcDbText
  0
TEXT
  5
1064
100
AcDbEntity
  8
ZI02
100
AcDbText
 10
1412.598279
 20
205.083033
 30
0.0
 40
6.0
  1

  7
BIGFONT
100
AcDbText
  0
TEXT
  5
1065
100
AcDbEntity
  8
ZI02
100
AcDbText
 10
1442.598279
 20
205.083033
 30
0.0
 40
6.0
  1

  7
BIGFONT
100
AcDbText
  0
TEXT
  5
1066
100
AcDbEntity
  8
ZI02
100
AcDbText
 10
1454.598279
 20
205.083033
 30
0.0
 40
6.0
  1

  7
BIGFONT
100
AcDbText
  0
TEXT
  5
1067
100
AcDbEntity
  8
ZI05
100
AcDbText
 10
1986.745897
 20
233.771019
 30
0.0
 40
6.0
  1

 50
26.0
  7
BIGFONT
100
AcDbText
  0
TEXT
  5
1068
100
AcDbEntity
  8
ZI05
100
AcDbText
 10
2006.885671
 20
255.87849
 30
0.0
 40
6.0
  1

 50
69.333333
  7
BIGFONT
100
AcDbText
  0
TEXT
  5
1069
100
AcDbEntity
  8
ZI05
100
AcDbText
 10
2009.423346
 20
267.817312
 30
0.0
 40
6.0
  1

 50
86.666667
  7
BIGFONT
100
AcDbText
  0
TEXT
  5
106A
100
AcDbEntity
  8
ZI05
100
AcDbText
 10
2000.016665
 20
296.205076
 30
0.0
 40
6.0
  1

 50
130.0
  7
BIGFONT
100
AcDbText
  0
LINE
  5
106B
100
AcDbEntity
  8
CENTER
  6
CENTER
 48
0.7
100
AcDbLine
 10
34.465538
 20
156.248973
 30
0.0
 11
66.465538
 21
156.248973
 31
0.0
  0
LINE
  5
106D
100
AcDbEntity
  8
CENTER
  6
CENTER
100
AcDbLine
 10
142.576617
 20
103.861714
 30
0.0
 11
142.576617
 21
203.748973
 31
0.0
  0
LINE
  5
106E
100
AcDbEntity
  8
CENTER
  6
CENTER
100
AcDbLine
 10
95.076617
 20
156.248973
 30
0.0
 11
190.076617
 21
156.248973
 31
0.0
  0
ARC
  5
1088
100
AcDbEntity
  8
0
100
AcDbCircle
 10
142.576617
 20
156.248973
 30
0.0
 40
25.0
100
AcDbArc
 50
273.439813
 51
86.560187
  0
ARC
  5
108A
100
AcDbEntity
  8
0
100
AcDbCircle
 10
142.576617
 20
156.248973
 30
0.0
 40
41.5
100
AcDbArc
 50
272.071383
 51
87.928617
  0
ARC
  5
108B
100
AcDbEntity
  8
0
100
AcDbCircle
 10
142.576617
 20
156.248973
 30
0.0
 40
26.0
100
AcDbArc
 50
273.307362
 51
86.692638
  0
LINE
  5
108C
100
AcDbEntity
  8
CENTER
  6
CENTER
100
AcDbLine
 10
107.473198
 20
124.248973
 30
0.0
 11
177.680036
 21
124.248973
 31
0.0
  0
LINE
  5
108D
100
AcDbEntity
  8
0
100
AcDbLine
 10
141.076617
 20
113.775451
 30
0.0
 11
141.076617
 21
131.294013
 31
0.0
  0
LINE
  5
108E
100
AcDbEntity
  8
0
100
AcDbLine
 10
144.076617
 20
198.722494
 30
0.0
 11
144.076617
 21
181.203932
 31
0.0
  0
LINE
  5
108F
100
AcDbEntity
  8
0
100
AcDbLine
 10
39.465538
 20
114.748973
 30
0.0
 11
39.465538
 21
197.748973
 31
0.0
  0
LINE
  5
1090
100
AcDbEntity
  8
0
100
AcDbLine
 10
60.465538
 20
198.748973
 30
0.0
 11
40.465538
 21
198.748973
 31
0.0
  0
LINE
  5
1091
100
AcDbEntity
  8
0
100
AcDbLine
 10
40.465538
 20
198.748973
 30
0.0
 11
39.465538
 21
197.748973
 31
0.0
  0
LINE
  5
1092
100
AcDbEntity
  8
0
100
AcDbLine
 10
40.465538
 20
198.748973
 30
0.0
 11
40.465538
 21
113.748973
 31
0.0
  0
LINE
  5
1093
100
AcDbEntity
  8
0
100
AcDbLine
 10
60.465538
 20
198.748973
 30
0.0
 11
61.465538
 21
197.748973
 31
0.0
  0
LINE
  5
1094
100
AcDbEntity
  8
0
100
AcDbLine
 10
60.465538
 20
198.748973
 30
0.0
 11
60.465538
 21
113.748973
 31
0.0
  0
LINE
  5
1095
100
AcDbEntity
  8
0
100
AcDbLine
 10
61.465538
 20
114.748973
 30
0.0
 11
61.465538
 21
197.748973
 31
0.0
  0
LINE
  5
1096
100
AcDbEntity
  8
0
100
AcDbLine
 10
60.465538
 20
113.748973
 30
0.0
 11
40.465538
 21
113.748973
 31
0.0
  0
LINE
  5
1097
100
AcDbEntity
  8
0
100
AcDbLine
 10
40.465538
 20
113.748973
 30
0.0
 11
39.465538
 21
114.748973
 31
0.0
  0
LINE
  5
1098
100
AcDbEntity
  8
0
100
AcDbLine
 10
60.465538
 20
113.748973
 30
0.0
 11
61.465538
 21
114.748973
 31
0.0
  0
LINE
  5
10A4
100
AcDbEntity
  8
0
  6
HIDDEN
100
AcDbLine
 10
60.465538
 20
181.248973
 30
0.0
 11
40.465538
 21
181.248973
 31
0.0
  0
LINE
  5
10A5
100
AcDbEntity
  8
0
  6
HIDDEN
100
AcDbLine
 10
60.465538
 20
181.248973
 30
0.0
 11
61.465538
 21
182.248973
 31
0.0
  0
LINE
  5
10A6
100
AcDbEntity
  8
0
  6
HIDDEN
100
AcDbLine
 10
40.465538
 20
181.248973
 30
0.0
 11
39.465538
 21
182.248973
 31
0.0
  0
LINE
  5
10A7
100
AcDbEntity
  8
0
  6
HIDDEN
100
AcDbLine
 10
60.465538
 20
131.248973
 30
0.0
 11
40.465538
 21
131.248973
 31
0.0
  0
LINE
  5
10A8
100
AcDbEntity
  8
0
  6
HIDDEN
100
AcDbLine
 10
40.465538
 20
131.248973
 30
0.0
 11
39.465538
 21
130.248973
 31
0.0
  0
LINE
  5
10A9
100
AcDbEntity
  8
0
  6
HIDDEN
100
AcDbLine
 10
60.465538
 20
131.248973
 30
0.0
 11
61.465538
 21
130.248973
 31
0.0
  0
LINE
  5
1363
100
AcDbEntity
  8
CENTER
  6
CENTER
100
AcDbLine
 10
107.473198
 20
188.248973
 30
0.0
 11
177.680036
 21
188.248973
 31
0.0
  0
LINE
  5
1364
100
AcDbEntity
  8
0
  6
HIDDEN
100
AcDbLine
 10
106.837983
 20
179.248973
 30
0.0
 11
126.576617
 21
179.248973
 31
0.0
  0
LINE
  5
1365
100
AcDbEntity
  8
0
  6
HIDDEN
100
AcDbLine
 10
126.576617
 20
196.248973
 30
0.0
 11
126.576617
 21
179.248973
 31
0.0
  0
LINE
  5
1366
100
AcDbEntity
  8
0
  6
HIDDEN
100
AcDbLine
 10
126.576617
 20
193.748973
 30
0.0
 11
141.076617
 21
193.748973
 31
0.0
  0
LINE
  5
1367
100
AcDbEntity
  8
0
  6
HIDDEN
100
AcDbLine
 10
126.576617
 20
182.748973
 30
0.0
 11
141.076617
 21
182.748973
 31
0.0
  0
LINE
  5
1368
100
AcDbEntity
  8
0
  6
HIDDEN
 62
     3
100
AcDbLine
 10
160.656442
 20
183.248973
 30
0.0
 11
175.398104
 21
183.248973
 31
0.0
  0
LINE
  5
136A
100
AcDbEntity
  8
0
  6
HIDDEN
 62
     3
100
AcDbLine
 10
160.656442
 20
193.248973
 30
0.0
 11
163.487141
 21
193.248973
 31
0.0
  0
ARC
  5
136C
100
AcDbEntity
  8
0
100
AcDbCircle
 10
142.576617
 20
156.248973
 30
0.0
 40
26.0
100
AcDbArc
 50
93.307362
 51
266.692638
  0
ARC
  5
136D
100
AcDbEntity
  8
0
100
AcDbCircle
 10
142.576617
 20
156.248973
 30
0.0
 40
25.0
100
AcDbArc
 50
93.439813
 51
266.560187
  0
ARC
  5
136E
100
AcDbEntity
  8
0
100
AcDbCircle
 10
142.576617
 20
156.248973
 30
0.0
 40
41.5
100
AcDbArc
 50
92.071383
 51
267.928617
  0
ARC
  5
136F
100
AcDbEntity
  8
0
100
AcDbCircle
 10
142.576617
 20
156.248973
 30
0.0
 40
42.5
100
AcDbArc
 50
92.022624
 51
267.977376
  0
LINE
  5
1370
100
AcDbEntity
  8
0
100
AcDbLine
 10
144.076617
 20
131.294013
 30
0.0
 11
144.076617
 21
113.775451
 31
0.0
  0
LINE
  5
1371
100
AcDbEntity
  8
0
100
AcDbLine
 10
141.076617
 20
181.203932
 30
0.0
 11
141.076617
 21
198.722494
 31
0.0
  0
LINE
  5
13BD
100
AcDbEntity
  8
CENTER
  6
CENTER
 48
0.7
100
AcDbLine
 10
38.108945
 20
188.248973
 30
0.0
 11
62.822131
 21
188.248973
 31
0.0
  0
ARC
  5
13C1
100
AcDbEntity
  8
0
100
AcDbCircle
 10
50.465538
 20
188.248973
 30
0.0
 40
9.0
100
AcDbArc
 50
180.0
 51
0.0
  0
LINE
  5
13C2
100
AcDbEntity
  8
0
100
AcDbLine
 10
41.465538
 20
188.248973
 30
0.0
 11
41.465538
 21
195.622187
 31
0.0
  0
LINE
  5
13C3
100
AcDbEntity
  8
0
100
AcDbLine
 10
59.465538
 20
195.622187
 30
0.0
 11
53.569682
 21
195.622187
 31
0.0
  0
LINE
  5
13C4
100
AcDbEntity
  8
0
100
AcDbLine
 10
59.465538
 20
188.248973
 30
0.0
 11
59.465538
 21
195.622187
 31
0.0
  0
LINE
  5
13C5
100
AcDbEntity
  8
CENTER
  6
CENTER
 48
0.7
100
AcDbLine
 10
50.465538
 20
200.605566
 30
0.0
 11
50.465538
 21
175.89238
 31
0.0
  0
LINE
  5
13C7
100
AcDbEntity
  8
CENTER
  6
CENTER
 48
0.7
100
AcDbLine
 10
50.465538
 20
136.605566
 30
0.0
 11
50.465538
 21
111.89238
 31
0.0
  0
LINE
  5
13C8
100
AcDbEntity
  8
CENTER
  6
CENTER
 48
0.7
100
AcDbLine
 10
38.108945
 20
124.248973
 30
0.0
 11
62.822131
 21
124.248973
 31
0.0
  0
LINE
  5
1565
100
AcDbEntity
  8
0
100
AcDbLine
 10
-41.044899
 20
114.748973
 30
0.0
 11
-41.044899
 21
130.248973
 31
0.0
  0
LINE
  5
1568
100
AcDbEntity
  8
0
100
AcDbLine
 10
-63.044899
 20
114.748973
 30
0.0
 11
-63.044899
 21
130.248973
 31
0.0
  0
LINE
  5
1569
100
AcDbEntity
  8
CENTER
  6
CENTER
 48
0.7
100
AcDbLine
 10
-64.401492
 20
124.248973
 30
0.0
 11
-39.688306
 21
124.248973
 31
0.0
  0
LINE
  5
156B
100
AcDbEntity
  8
0
100
AcDbLine
 10
-42.044899
 20
131.248973
 30
0.0
 11
-62.044899
 21
131.248973
 31
0.0
  0
LINE
  5
156D
100
AcDbEntity
  8
0
100
AcDbLine
 10
-42.044899
 20
113.748973
 30
0.0
 11
-62.044899
 21
113.748973
 31
0.0
  0
LINE
  5
156F
100
AcDbEntity
  8
0
100
AcDbLine
 10
-62.044899
 20
113.748973
 30
0.0
 11
-63.044899
 21
114.748973
 31
0.0
  0
LINE
  5
1570
100
AcDbEntity
  8
0
  6
HIDDEN
100
AcDbLine
 10
-62.044899
 20
131.248973
 30
0.0
 11
-63.044899
 21
130.248973
 31
0.0
  0
LINE
  5
1571
100
AcDbEntity
  8
CENTER
  6
CENTER
 48
0.7
100
AcDbLine
 10
-52.044899
 20
136.605566
 30
0.0
 11
-52.044899
 21
111.89238
 31
0.0
  0
CIRCLE
  5
1572
100
AcDbEntity
  8
0
100
AcDbCircle
 10
-52.044899
 20
124.248973
 30
0.0
 40
5.5
  0
CIRCLE
  5
1574
100
AcDbEntity
  8
0
 62
     3
100
AcDbCircle
 10
-52.044899
 20
124.248973
 30
0.0
 40
4.188
  0
CIRCLE
  5
1575
100
AcDbEntity
  8
0
100
AcDbCircle
 10
-52.044899
 20
124.248973
 30
0.0
 40
5.0
  0
LINE
  5
1576
100
AcDbEntity
  8
0
100
AcDbLine
 10
-42.044899
 20
113.748973
 30
0.0
 11
-41.044899
 21
114.748973
 31
0.0
  0
LINE
  5
1578
100
AcDbEntity
  8
0
  6
HIDDEN
100
AcDbLine
 10
-42.044899
 20
131.248973
 30
0.0
 11
-41.044899
 21
130.248973
 31
0.0
  0
LINE
  5
1579
100
AcDbEntity
  8
CENTER
  6
CENTER
 48
0.7
100
AcDbLine
 10
-52.044899
 20
200.605566
 30
0.0
 11
-52.044899
 21
136.605566
 31
0.0
  0
CIRCLE
  5
157C
100
AcDbEntity
  8
0
100
AcDbCircle
 10
-52.044899
 20
188.248973
 30
0.0
 40
5.5
  0
LINE
  5
157E
100
AcDbEntity
  8
CENTER
  6
CENTER
 48
0.7
100
AcDbLine
 10
-64.401492
 20
188.248973
 30
0.0
 11
-39.688306
 21
188.248973
 31
0.0
  0
LINE
  5
157F
100
AcDbEntity
  8
0
100
AcDbLine
 10
-42.044899
 20
181.248973
 30
0.0
 11
-62.044899
 21
181.248973
 31
0.0
  0
LINE
  5
1580
100
AcDbEntity
  8
CENTER
  6
CENTER
 48
0.7
100
AcDbLine
 10
-68.044899
 20
156.248973
 30
0.0
 11
-36.044899
 21
156.248973
 31
0.0
  0
LINE
  5
1581
100
AcDbEntity
  8
0
  6
HIDDEN
100
AcDbLine
 10
-62.044899
 20
181.248973
 30
0.0
 11
-63.044899
 21
182.248973
 31
0.0
  0
CIRCLE
  5
1582
100
AcDbEntity
  8
0
100
AcDbCircle
 10
-52.044899
 20
188.248973
 30
0.0
 40
5.0
  0
CIRCLE
  5
1583
100
AcDbEntity
  8
0
 62
     3
100
AcDbCircle
 10
-52.044899
 20
188.248973
 30
0.0
 40
4.188
  0
LINE
  5
1584
100
AcDbEntity
  8
0
  6
HIDDEN
100
AcDbLine
 10
-42.044899
 20
181.248973
 30
0.0
 11
-41.044899
 21
182.248973
 31
0.0
  0
LINE
  5
1586
100
AcDbEntity
  8
0
100
AcDbLine
 10
-42.044899
 20
198.748973
 30
0.0
 11
-62.044899
 21
198.748973
 31
0.0
  0
LINE
  5
1587
100
AcDbEntity
  8
0
100
AcDbLine
 10
-62.044899
 20
198.748973
 30
0.0
 11
-63.044899
 21
197.748973
 31
0.0
  0
LINE
  5
1588
100
AcDbEntity
  8
0
100
AcDbLine
 10
-42.044899
 20
198.748973
 30
0.0
 11
-41.044899
 21
197.748973
 31
0.0
  0
POINT
  5
1643
100
AcDbEntity
  8
0
 60
     1
100
AcDbPoint
 10
291.093735
 20
190.835159
 30
0.0
1001
GENIUS_GENOBJ-NBEHI-BHF_13
1002
{
1000
OWNER
1000
GENBEHI
1002
}
1001
GENIUS_GENOENT_13
1002
{
1000
MYREF
1005
1643
1002
}
1002
{
1000
GRP
1005
0
1002
}
1001
GENIUS_GENOLIS_13
1002
{
1000
ENT
1005
0
1002
}
1001
GENIUS_GENBH_13
1002
{
1000
OIUMAP
1000
OIU
1002
}
1002
{
1000
FLAGS
1070
    32
1002
}
1002
{
1000
BGO
1005
1644
1002
}
1001
GENIUS_GENODEF_13
1002
{
1000
HIER
1070
     1
1002
}
1002
{
1000
MANEDIT
1070
     1
1002
}
1002
{
1000
NOSEL
1070
     1
1002
}
1002
{
1000
BEHIND
1070
     0
1002
}
1002
{
1000
REACTOR
1002
}
  0
POINT
  5
1644
100
AcDbEntity
  8
0
 60
     1
100
AcDbPoint
 10
291.093735
 20
190.835159
 30
0.0
1001
GENIUS_GENOBJ-NBEHI-BHB_13
1002
{
1000
OWNER
1000
GENBEHI
1002
}
1001
GENIUS_GENOENT_13
1002
{
1000
MYREF
1005
1644
1002
}
1002
{
1000
GRP
1005
0
1002
}
1001
GENIUS_GENOLIS_13
1002
{
1000
ENT
1002
}
1001
GENIUS_GENODEF_13
1002
{
1000
HIER
1070
     1
1002
}
1002
{
1000
MANEDIT
1070
     0
1002
}
1002
{
1000
NOSEL
1070
     1
1002
}
1002
{
1000
BEHIND
1070
     0
1002
}
1002
{
1000
REACTOR
1002
}
1002
{
1000
OTHER
1070
     1
1002
}
1001
GENIUS_GENBH_13
1002
{
1000
FGO
1005
1643
1002
}
  0
POINT
  5
1645
100
AcDbEntity
  8
0
 60
     1
100
AcDbPoint
 10
291.093735
 20
190.835159
 30
0.0
1001
GENIUS_GENOBJ-NBEHI-BHF_13
1002
{
1000
OWNER
1000
GENBEHI
1002
}
1001
GENIUS_GENOENT_13
1002
{
1000
MYREF
1005
1645
1002
}
1002
{
1000
GRP
1005
0
1002
}
1001
GENIUS_GENOLIS_13
1002
{
1000
ENT
1005
0
1002
}
1001
GENIUS_GENODEF_13
1002
{
1000
HIER
1070
     1
1002
}
1002
{
1000
MANEDIT
1070
     0
1002
}
1002
{
1000
NOSEL
1070
     1
1002
}
1002
{
1000
BEHIND
1070
     0
1002
}
1002
{
1000
REACTOR
1002
}
1001
GENIUS_GENBH_13
1002
{
1000
OIUMAP
1000
OIU
1002
}
1002
{
1000
FLAGS
1070
    32
1002
}
1002
{
1000
BGO
1005
1646
1002
}
  0
POINT
  5
1646
100
AcDbEntity
  8
0
 60
     1
100
AcDbPoint
 10
291.093735
 20
190.835159
 30
0.0
1001
GENIUS_GENOBJ-NBEHI-BHB_13
1002
{
1000
OWNER
1000
GENBEHI
1002
}
1001
GENIUS_GENOENT_13
1002
{
1000
MYREF
1005
1646
1002
}
1002
{
1000
GRP
1005
0
1002
}
1001
GENIUS_GENOLIS_13
1002
{
1000
ENT
1002
}
1001
GENIUS_GENODEF_13
1002
{
1000
HIER
1070
     1
1002
}
1002
{
1000
MANEDIT
1070
     0
1002
}
1002
{
1000
NOSEL
1070
     1
1002
}
1002
{
1000
BEHIND
1070
     0
1002
}
1002
{
1000
REACTOR
1002
}
1002
{
1000
OTHER
1070
     1
1002
}
1001
GENIUS_GENBH_13
1002
{
1000
FGO
1005
1645
1002
}
  0
POINT
  5
1647
100
AcDbEntity
  8
0
 60
     1
100
AcDbPoint
 10
291.093735
 20
190.835159
 30
0.0
1001
GENIUS_GENOBJ-NBEHI-BHF_13
1002
{
1000
OWNER
1000
GENBEHI
1002
}
1001
GENIUS_GENOENT_13
1002
{
1000
MYREF
1005
1647
1002
}
1002
{
1000
GRP
1005
0
1002
}
1001
GENIUS_GENOLIS_13
1002
{
1000
ENT
1005
0
1002
}
1001
GENIUS_GENBH_13
1002
{
1000
OIUMAP
1000
OIU
1002
}
1002
{
1000
FLAGS
1070
    32
1002
}
1002
{
1000
BGO
1005
1648
1002
}
1001
GENIUS_GENODEF_13
1002
{
1000
HIER
1070
     1
1002
}
1002
{
1000
MANEDIT
1070
     1
1002
}
1002
{
1000
NOSEL
1070
     1
1002
}
1002
{
1000
BEHIND
1070
     0
1002
}
1002
{
1000
REACTOR
1002
}
  0
POINT
  5
1648
100
AcDbEntity
  8
0
 60
     1
100
AcDbPoint
 10
291.093735
 20
190.835159
 30
0.0
1001
GENIUS_GENOBJ-NBEHI-BHB_13
1002
{
1000
OWNER
1000
GENBEHI
1002
}
1001
GENIUS_GENOENT_13
1002
{
1000
MYREF
1005
1648
1002
}
1002
{
1000
GRP
1005
0
1002
}
1001
GENIUS_GENOLIS_13
1002
{
1000
ENT
1002
}
1001
GENIUS_GENODEF_13
1002
{
1000
HIER
1070
     1
1002
}
1002
{
1000
MANEDIT
1070
     0
1002
}
1002
{
1000
NOSEL
1070
     1
1002
}
1002
{
1000
BEHIND
1070
     0
1002
}
1002
{
1000
REACTOR
1002
}
1002
{
1000
OTHER
1070
     1
1002
}
1001
GENIUS_GENBH_13
1002
{
1000
FGO
1005
1647
1002
}
  0
POINT
  5
1649
100
AcDbEntity
  8
0
 60
     1
100
AcDbPoint
 10
291.093735
 20
190.835159
 30
0.0
1001
GENIUS_GENOBJ-F-SCPASSM_13
1002
{
1000
OWNER
1000
GEF
1002
}
1001
GENIUS_GENOENT_13
1002
{
1000
MYREF
1005
1649
1002
}
1002
{
1000
GRP
1005
0
1002
}
1001
GENIUS_GENOLIS_13
1002
{
1000
ENT
1005
0
1005
0
1002
}
1001
GENIUS_GENODEF_13
1002
{
1000
HIER
1070
   200
1002
}
1002
{
1000
MANEDIT
1070
     1
1002
}
1002
{
1000
NOSEL
1070
     0
1002
}
1002
{
1000
BEHIND
1070
     0
1002
}
1002
{
1000
REACTOR
1002
}
  0
POINT
  5
164A
100
AcDbEntity
  8
0
 60
     1
100
AcDbPoint
 10
291.093735
 20
190.835159
 30
0.0
1001
GENIUS_GENOBJ-NBEHI-BHF_13
1002
{
1000
OWNER
1000
GENBEHI
1002
}
1001
GENIUS_GENOENT_13
1002
{
1000
MYREF
1005
164A
1002
}
1002
{
1000
GRP
1005
0
1002
}
1001
GENIUS_GENOLIS_13
1002
{
1000
ENT
1005
0
1002
}
1001
GENIUS_GENODEF_13
1002
{
1000
HIER
1070
     1
1002
}
1002
{
1000
MANEDIT
1070
     0
1002
}
1002
{
1000
NOSEL
1070
     1
1002
}
1002
{
1000
BEHIND
1070
     0
1002
}
1002
{
1000
REACTOR
1002
}
1001
GENIUS_GENBH_13
1002
{
1000
OIUMAP
1000
OIU
1002
}
1002
{
1000
FLAGS
1070
    32
1002
}
1002
{
1000
BGO
1005
164B
1002
}
  0
POINT
  5
164B
100
AcDbEntity
  8
0
 60
     1
100
AcDbPoint
 10
291.093735
 20
190.835159
 30
0.0
1001
GENIUS_GENOBJ-NBEHI-BHB_13
1002
{
1000
OWNER
1000
GENBEHI
1002
}
1001
GENIUS_GENOENT_13
1002
{
1000
MYREF
1005
164B
1002
}
1002
{
1000
GRP
1005
0
1002
}
1001
GENIUS_GENOLIS_13
1002
{
1000
ENT
1002
}
1001
GENIUS_GENODEF_13
1002
{
1000
HIER
1070
     1
1002
}
1002
{
1000
MANEDIT
1070
     0
1002
}
1002
{
1000
NOSEL
1070
     1
1002
}
1002
{
1000
BEHIND
1070
     0
1002
}
1002
{
1000
REACTOR
1002
}
1002
{
1000
OTHER
1070
     1
1002
}
1001
GENIUS_GENBH_13
1002
{
1000
FGO
1005
164A
1002
}
  0
POINT
  5
164C
100
AcDbEntity
  8
0
 60
     1
100
AcDbPoint
 10
291.093735
 20
190.835159
 30
0.0
1001
GENIUS_GENOBJ-NBEHI-BHF_13
1002
{
1000
OWNER
1000
GENBEHI
1002
}
1001
GENIUS_GENOENT_13
1002
{
1000
MYREF
1005
164C
1002
}
1002
{
1000
GRP
1005
0
1002
}
1001
GENIUS_GENOLIS_13
1002
{
1000
ENT
1005
0
1002
}
1001
GENIUS_GENBH_13
1002
{
1000
OIUMAP
1000
OIU
1002
}
1002
{
1000
FLAGS
1070
    32
1002
}
1002
{
1000
BGO
1005
164D
1002
}
1001
GENIUS_GENODEF_13
1002
{
1000
HIER
1070
     1
1002
}
1002
{
1000
MANEDIT
1070
     1
1002
}
1002
{
1000
NOSEL
1070
     1
1002
}
1002
{
1000
BEHIND
1070
     0
1002
}
1002
{
1000
REACTOR
1002
}
  0
POINT
  5
164D
100
AcDbEntity
  8
0
 60
     1
100
AcDbPoint
 10
291.093735
 20
190.835159
 30
0.0
1001
GENIUS_GENOBJ-NBEHI-BHB_13
1002
{
1000
OWNER
1000
GENBEHI
1002
}
1001
GENIUS_GENOENT_13
1002
{
1000
MYREF
1005
164D
1002
}
1002
{
1000
GRP
1005
0
1002
}
1001
GENIUS_GENOLIS_13
1002
{
1000
ENT
1005
0
1002
}
1001
GENIUS_GENODEF_13
1002
{
1000
HIER
1070
     1
1002
}
1002
{
1000
MANEDIT
1070
     0
1002
}
1002
{
1000
NOSEL
1070
     1
1002
}
1002
{
1000
BEHIND
1070
     0
1002
}
1002
{
1000
REACTOR
1002
}
1002
{
1000
OTHER
1070
     1
1002
}
1001
GENIUS_GENBH_13
1002
{
1000
FGO
1005
164C
1002
}
  0
POINT
  5
164E
100
AcDbEntity
  8
0
 60
     1
100
AcDbPoint
 10
291.093735
 20
190.835159
 30
0.0
1001
GENIUS_GENOBJ-F-SCPASSM_13
1002
{
1000
OWNER
1000
GEF
1002
}
1001
GENIUS_GENOENT_13
1002
{
1000
MYREF
1005
164E
1002
}
1002
{
1000
GRP
1005
0
1002
}
1001
GENIUS_GENOLIS_13
1002
{
1000
ENT
1005
0
1005
0
1002
}
1001
GENIUS_GENODEF_13
1002
{
1000
HIER
1070
   200
1002
}
1002
{
1000
MANEDIT
1070
     1
1002
}
1002
{
1000
NOSEL
1070
     0
1002
}
1002
{
1000
BEHIND
1070
     0
1002
}
1002
{
1000
REACTOR
1002
}
  0
POINT
  5
164F
100
AcDbEntity
  8
0
 60
     1
100
AcDbPoint
 10
291.093735
 20
190.835159
 30
0.0
1001
GENIUS_GENOBJ-NBEHI-BHF_13
1002
{
1000
OWNER
1000
GENBEHI
1002
}
1001
GENIUS_GENOENT_13
1002
{
1000
MYREF
1005
164F
1002
}
1002
{
1000
GRP
1005
0
1002
}
1001
GENIUS_GENOLIS_13
1002
{
1000
ENT
1005
0
1002
}
1001
GENIUS_GENODEF_13
1002
{
1000
HIER
1070
     1
1002
}
1002
{
1000
MANEDIT
1070
     0
1002
}
1002
{
1000
NOSEL
1070
     1
1002
}
1002
{
1000
BEHIND
1070
     0
1002
}
1002
{
1000
REACTOR
1002
}
1001
GENIUS_GENBH_13
1002
{
1000
OIUMAP
1000
OIU
1002
}
1002
{
1000
FLAGS
1070
    32
1002
}
1002
{
1000
BGO
1005
1650
1002
}
  0
POINT
  5
1650
100
AcDbEntity
  8
0
 60
     1
100
AcDbPoint
 10
291.093735
 20
190.835159
 30
0.0
1001
GENIUS_GENOBJ-NBEHI-BHB_13
1002
{
1000
OWNER
1000
GENBEHI
1002
}
1001
GENIUS_GENOENT_13
1002
{
1000
MYREF
1005
1650
1002
}
1002
{
1000
GRP
1005
0
1002
}
1001
GENIUS_GENOLIS_13
1002
{
1000
ENT
1002
}
1001
GENIUS_GENODEF_13
1002
{
1000
HIER
1070
     1
1002
}
1002
{
1000
MANEDIT
1070
     0
1002
}
1002
{
1000
NOSEL
1070
     1
1002
}
1002
{
1000
BEHIND
1070
     0
1002
}
1002
{
1000
REACTOR
1002
}
1002
{
1000
OTHER
1070
     1
1002
}
1001
GENIUS_GENBH_13
1002
{
1000
FGO
1005
164F
1002
}
  0
POINT
  5
1651
100
AcDbEntity
  8
0
 60
     1
100
AcDbPoint
 10
291.093735
 20
190.835159
 30
0.0
1001
GENIUS_GENOBJ-NBEHI-BHF_13
1002
{
1000
OWNER
1000
GENBEHI
1002
}
1001
GENIUS_GENOENT_13
1002
{
1000
MYREF
1005
1651
1002
}
1002
{
1000
GRP
1005
0
1002
}
1001
GENIUS_GENOLIS_13
1002
{
1000
ENT
1005
0
1002
}
1001
GENIUS_GENBH_13
1002
{
1000
OIUMAP
1000
OIU
1002
}
1002
{
1000
FLAGS
1070
    32
1002
}
1002
{
1000
BGO
1005
1652
1002
}
1001
GENIUS_GENODEF_13
1002
{
1000
HIER
1070
     1
1002
}
1002
{
1000
MANEDIT
1070
     1
1002
}
1002
{
1000
NOSEL
1070
     1
1002
}
1002
{
1000
BEHIND
1070
     0
1002
}
1002
{
1000
REACTOR
1002
}
  0
POINT
  5
1652
100
AcDbEntity
  8
0
 60
     1
100
AcDbPoint
 10
291.093735
 20
190.835159
 30
0.0
1001
GENIUS_GENOBJ-NBEHI-BHB_13
1002
{
1000
OWNER
1000
GENBEHI
1002
}
1001
GENIUS_GENOENT_13
1002
{
1000
MYREF
1005
1652
1002
}
1002
{
1000
GRP
1005
0
1002
}
1001
GENIUS_GENOLIS_13
1002
{
1000
ENT
1005
0
1002
}
1001
GENIUS_GENODEF_13
1002
{
1000
HIER
1070
     1
1002
}
1002
{
1000
MANEDIT
1070
     0
1002
}
1002
{
1000
NOSEL
1070
     1
1002
}
1002
{
1000
BEHIND
1070
     0
1002
}
1002
{
1000
REACTOR
1002
}
1002
{
1000
OTHER
1070
     1
1002
}
1001
GENIUS_GENBH_13
1002
{
1000
FGO
1005
1651
1002
}
  0
POINT
  5
1653
100
AcDbEntity
  8
0
 60
     1
100
AcDbPoint
 10
291.093735
 20
190.835159
 30
0.0
1001
GENIUS_GENOBJ-F-SCPASSM_13
1002
{
1000
OWNER
1000
GEF
1002
}
1001
GENIUS_GENOENT_13
1002
{
1000
MYREF
1005
1653
1002
}
1002
{
1000
GRP
1005
0
1002
}
1001
GENIUS_GENOLIS_13
1002
{
1000
ENT
1005
0
1005
0
1002
}
1001
GENIUS_GENODEF_13
1002
{
1000
HIER
1070
   200
1002
}
1002
{
1000
MANEDIT
1070
     1
1002
}
1002
{
1000
NOSEL
1070
     0
1002
}
1002
{
1000
BEHIND
1070
     0
1002
}
1002
{
1000
REACTOR
1002
}
  0
POINT
  5
1654
100
AcDbEntity
  8
0
 60
     1
100
AcDbPoint
 10
291.093735
 20
190.835159
 30
0.0
1001
GENIUS_GENOBJ-NBEHI-BHF_13
1002
{
1000
OWNER
1000
GENBEHI
1002
}
1001
GENIUS_GENOENT_13
1002
{
1000
MYREF
1005
1654
1002
}
1002
{
1000
GRP
1005
0
1002
}
1001
GENIUS_GENOLIS_13
1002
{
1000
ENT
1005
0
1002
}
1001
GENIUS_GENODEF_13
1002
{
1000
HIER
1070
     1
1002
}
1002
{
1000
MANEDIT
1070
     0
1002
}
1002
{
1000
NOSEL
1070
     1
1002
}
1002
{
1000
BEHIND
1070
     0
1002
}
1002
{
1000
REACTOR
1002
}
1001
GENIUS_GENBH_13
1002
{
1000
OIUMAP
1000
OIU
1002
}
1002
{
1000
FLAGS
1070
    32
1002
}
1002
{
1000
BGO
1005
1655
1002
}
  0
POINT
  5
1655
100
AcDbEntity
  8
0
 60
     1
100
AcDbPoint
 10
291.093735
 20
190.835159
 30
0.0
1001
GENIUS_GENOBJ-NBEHI-BHB_13
1002
{
1000
OWNER
1000
GENBEHI
1002
}
1001
GENIUS_GENOENT_13
1002
{
1000
MYREF
1005
1655
1002
}
1002
{
1000
GRP
1005
0
1002
}
1001
GENIUS_GENOLIS_13
1002
{
1000
ENT
1002
}
1001
GENIUS_GENODEF_13
1002
{
1000
HIER
1070
     1
1002
}
1002
{
1000
MANEDIT
1070
     0
1002
}
1002
{
1000
NOSEL
1070
     1
1002
}
1002
{
1000
BEHIND
1070
     0
1002
}
1002
{
1000
REACTOR
1002
}
1002
{
1000
OTHER
1070
     1
1002
}
1001
GENIUS_GENBH_13
1002
{
1000
FGO
1005
1654
1002
}
  0
POINT
  5
1656
100
AcDbEntity
  8
0
 60
     1
100
AcDbPoint
 10
291.093735
 20
190.835159
 30
0.0
1001
GENIUS_GENOBJ-NBEHI-BHF_13
1002
{
1000
OWNER
1000
GENBEHI
1002
}
1001
GENIUS_GENOENT_13
1002
{
1000
MYREF
1005
1656
1002
}
1002
{
1000
GRP
1005
0
1002
}
1001
GENIUS_GENOLIS_13
1002
{
1000
ENT
1005
0
1002
}
1001
GENIUS_GENBH_13
1002
{
1000
OIUMAP
1000
OIU
1002
}
1002
{
1000
FLAGS
1070
    32
1002
}
1002
{
1000
BGO
1005
1657
1002
}
1001
GENIUS_GENODEF_13
1002
{
1000
HIER
1070
     1
1002
}
1002
{
1000
MANEDIT
1070
     1
1002
}
1002
{
1000
NOSEL
1070
     1
1002
}
1002
{
1000
BEHIND
1070
     0
1002
}
1002
{
1000
REACTOR
1002
}
  0
POINT
  5
1657
100
AcDbEntity
  8
0
 60
     1
100
AcDbPoint
 10
291.093735
 20
190.835159
 30
0.0
1001
GENIUS_GENOBJ-NBEHI-BHB_13
1002
{
1000
OWNER
1000
GENBEHI
1002
}
1001
GENIUS_GENOENT_13
1002
{
1000
MYREF
1005
1657
1002
}
1002
{
1000
GRP
1005
0
1002
}
1001
GENIUS_GENOLIS_13
1002
{
1000
ENT
1005
0
1002
}
1001
GENIUS_GENODEF_13
1002
{
1000
HIER
1070
     1
1002
}
1002
{
1000
MANEDIT
1070
     0
1002
}
1002
{
1000
NOSEL
1070
     1
1002
}
1002
{
1000
BEHIND
1070
     0
1002
}
1002
{
1000
REACTOR
1002
}
1002
{
1000
OTHER
1070
     1
1002
}
1001
GENIUS_GENBH_13
1002
{
1000
FGO
1005
1656
1002
}
  0
POINT
  5
1658
100
AcDbEntity
  8
0
 60
     1
100
AcDbPoint
 10
291.093735
 20
190.835159
 30
0.0
1001
GENIUS_GENOBJ-F-SCPASSM_13
1002
{
1000
OWNER
1000
GEF
1002
}
1001
GENIUS_GENOENT_13
1002
{
1000
MYREF
1005
1658
1002
}
1002
{
1000
GRP
1005
0
1002
}
1001
GENIUS_GENOLIS_13
1002
{
1000
ENT
1005
0
1005
0
1002
}
1001
GENIUS_GENODEF_13
1002
{
1000
HIER
1070
   200
1002
}
1002
{
1000
MANEDIT
1070
     1
1002
}
1002
{
1000
NOSEL
1070
     0
1002
}
1002
{
1000
BEHIND
1070
     0
1002
}
1002
{
1000
REACTOR
1002
}
  0
POINT
  5
1659
100
AcDbEntity
  8
0
 60
     1
100
AcDbPoint
 10
291.093735
 20
190.835159
 30
0.0
1001
GENIUS_GENOBJ-NBEHI-BHB_13
1002
{
1000
OWNER
1000
GENBEHI
1002
}
1001
GENIUS_GENOENT_13
1002
{
1000
MYREF
1005
1659
1002
}
1002
{
1000
GRP
1005
0
1002
}
1001
GENIUS_GENOLIS_13
1002
{
1000
ENT
1002
}
1001
GENIUS_GENODEF_13
1002
{
1000
HIER
1070
     1
1002
}
1002
{
1000
MANEDIT
1070
     0
1002
}
1002
{
1000
NOSEL
1070
     1
1002
}
1002
{
1000
BEHIND
1070
     0
1002
}
1002
{
1000
REACTOR
1002
}
1002
{
1000
OTHER
1070
     1
1002
}
1001
GENIUS_GENBH_13
1002
{
1000
FGO
1005
0
1002
}
  0
POINT
  5
165A
100
AcDbEntity
  8
0
 60
     1
100
AcDbPoint
 10
291.093735
 20
190.835159
 30
0.0
1001
GENIUS_GENOBJ-NBEHI-BHF_13
1002
{
1000
OWNER
1000
GENBEHI
1002
}
1001
GENIUS_GENOENT_13
1002
{
1000
MYREF
1005
165A
1002
}
1002
{
1000
GRP
1005
0
1002
}
1001
GENIUS_GENOLIS_13
1002
{
1000
ENT
1005
0
1002
}
1001
GENIUS_GENBH_13
1002
{
1000
OIUMAP
1000
OIU
1002
}
1002
{
1000
FLAGS
1070
    32
1002
}
1002
{
1000
BGO
1005
0
1002
}
1001
GENIUS_GENODEF_13
1002
{
1000
HIER
1070
     1
1002
}
1002
{
1000
MANEDIT
1070
     1
1002
}
1002
{
1000
NOSEL
1070
     1
1002
}
1002
{
1000
BEHIND
1070
     0
1002
}
1002
{
1000
REACTOR
1002
}
  0
POINT
  5
165B
100
AcDbEntity
  8
0
 60
     1
100
AcDbPoint
 10
291.093735
 20
190.835159
 30
0.0
1001
GENIUS_GENOBJ-NBEHI-BHF_13
1002
{
1000
OWNER
1000
GENBEHI
1002
}
1001
GENIUS_GENOENT_13
1002
{
1000
MYREF
1005
165B
1002
}
1002
{
1000
GRP
1005
0
1002
}
1001
GENIUS_GENOLIS_13
1002
{
1000
ENT
1005
0
1002
}
1001
GENIUS_GENODEF_13
1002
{
1000
HIER
1070
     1
1002
}
1002
{
1000
MANEDIT
1070
     0
1002
}
1002
{
1000
NOSEL
1070
     1
1002
}
1002
{
1000
BEHIND
1070
     0
1002
}
1002
{
1000
REACTOR
1002
}
1001
GENIUS_GENBH_13
1002
{
1000
OIUMAP
1000
OIU
1002
}
1002
{
1000
FLAGS
1070
    32
1002
}
1002
{
1000
BGO
1005
165C
1002
}
  0
POINT
  5
165C
100
AcDbEntity
  8
0
 60
     1
100
AcDbPoint
 10
291.093735
 20
190.835159
 30
0.0
1001
GENIUS_GENOBJ-NBEHI-BHB_13
1002
{
1000
OWNER
1000
GENBEHI
1002
}
1001
GENIUS_GENOENT_13
1002
{
1000
MYREF
1005
165C
1002
}
1002
{
1000
GRP
1005
0
1002
}
1001
GENIUS_GENOLIS_13
1002
{
1000
ENT
1002
}
1001
GENIUS_GENODEF_13
1002
{
1000
HIER
1070
     1
1002
}
1002
{
1000
MANEDIT
1070
     0
1002
}
1002
{
1000
NOSEL
1070
     1
1002
}
1002
{
1000
BEHIND
1070
     0
1002
}
1002
{
1000
REACTOR
1002
}
1002
{
1000
OTHER
1070
     1
1002
}
1001
GENIUS_GENBH_13
1002
{
1000
FGO
1005
165B
1002
}
  0
POINT
  5
165D
100
AcDbEntity
  8
0
 60
     1
100
AcDbPoint
 10
291.093735
 20
190.835159
 30
0.0
1001
GENIUS_GENOBJ-NBEHI-BHF_13
1002
{
1000
OWNER
1000
GENBEHI
1002
}
1001
GENIUS_GENOENT_13
1002
{
1000
MYREF
1005
165D
1002
}
1002
{
1000
GRP
1005
0
1002
}
1001
GENIUS_GENOLIS_13
1002
{
1000
ENT
1005
0
1002
}
1001
GENIUS_GENBH_13
1002
{
1000
OIUMAP
1000
OIU
1002
}
1002
{
1000
FLAGS
1070
    32
1002
}
1002
{
1000
BGO
1005
165E
1002
}
1001
GENIUS_GENODEF_13
1002
{
1000
HIER
1070
     1
1002
}
1002
{
1000
MANEDIT
1070
     1
1002
}
1002
{
1000
NOSEL
1070
     1
1002
}
1002
{
1000
BEHIND
1070
     0
1002
}
1002
{
1000
REACTOR
1002
}
  0
POINT
  5
165E
100
AcDbEntity
  8
0
 60
     1
100
AcDbPoint
 10
291.093735
 20
190.835159
 30
0.0
1001
GENIUS_GENOBJ-NBEHI-BHB_13
1002
{
1000
OWNER
1000
GENBEHI
1002
}
1001
GENIUS_GENOENT_13
1002
{
1000
MYREF
1005
165E
1002
}
1002
{
1000
GRP
1005
0
1002
}
1001
GENIUS_GENOLIS_13
1002
{
1000
ENT
1005
0
1002
}
1001
GENIUS_GENODEF_13
1002
{
1000
HIER
1070
     1
1002
}
1002
{
1000
MANEDIT
1070
     0
1002
}
1002
{
1000
NOSEL
1070
     1
1002
}
1002
{
1000
BEHIND
1070
     0
1002
}
1002
{
1000
REACTOR
1002
}
1002
{
1000
OTHER
1070
     1
1002
}
1001
GENIUS_GENBH_13
1002
{
1000
FGO
1005
165D
1002
}
  0
POINT
  5
165F
100
AcDbEntity
  8
0
 60
     1
100
AcDbPoint
 10
291.093735
 20
190.835159
 30
0.0
1001
GENIUS_GENOBJ-F-SCPASSM_13
1002
{
1000
OWNER
1000
GEF
1002
}
1001
GENIUS_GENOENT_13
1002
{
1000
MYREF
1005
165F
1002
}
1002
{
1000
GRP
1005
0
1002
}
1001
GENIUS_GENOLIS_13
1002
{
1000
ENT
1005
0
1005
0
1002
}
1001
GENIUS_GENODEF_13
1002
{
1000
HIER
1070
   200
1002
}
1002
{
1000
MANEDIT
1070
     1
1002
}
1002
{
1000
NOSEL
1070
     0
1002
}
1002
{
1000
BEHIND
1070
     0
1002
}
1002
{
1000
REACTOR
1002
}
  0
POINT
  5
1660
100
AcDbEntity
  8
0
 60
     1
100
AcDbPoint
 10
291.093735
 20
190.835159
 30
0.0
1001
GENIUS_GENOBJ-NBEHI-BHF_13
1002
{
1000
OWNER
1000
GENBEHI
1002
}
1001
GENIUS_GENOENT_13
1002
{
1000
MYREF
1005
1660
1002
}
1002
{
1000
GRP
1005
0
1002
}
1001
GENIUS_GENOLIS_13
1002
{
1000
ENT
1005
0
1002
}
1001
GENIUS_GENODEF_13
1002
{
1000
HIER
1070
     1
1002
}
1002
{
1000
MANEDIT
1070
     0
1002
}
1002
{
1000
NOSEL
1070
     1
1002
}
1002
{
1000
BEHIND
1070
     0
1002
}
1002
{
1000
REACTOR
1002
}
1001
GENIUS_GENBH_13
1002
{
1000
OIUMAP
1000
OIU
1002
}
1002
{
1000
FLAGS
1070
    32
1002
}
1002
{
1000
BGO
1005
1661
1002
}
  0
POINT
  5
1661
100
AcDbEntity
  8
0
 60
     1
100
AcDbPoint
 10
291.093735
 20
190.835159
 30
0.0
1001
GENIUS_GENOBJ-NBEHI-BHB_13
1002
{
1000
OWNER
1000
GENBEHI
1002
}
1001
GENIUS_GENOENT_13
1002
{
1000
MYREF
1005
1661
1002
}
1002
{
1000
GRP
1005
0
1002
}
1001
GENIUS_GENOLIS_13
1002
{
1000
ENT
1002
}
1001
GENIUS_GENODEF_13
1002
{
1000
HIER
1070
     1
1002
}
1002
{
1000
MANEDIT
1070
     0
1002
}
1002
{
1000
NOSEL
1070
     1
1002
}
1002
{
1000
BEHIND
1070
     0
1002
}
1002
{
1000
REACTOR
1002
}
1002
{
1000
OTHER
1070
     1
1002
}
1001
GENIUS_GENBH_13
1002
{
1000
FGO
1005
1660
1002
}
  0
POINT
  5
1662
100
AcDbEntity
  8
0
 60
     1
100
AcDbPoint
 10
291.093735
 20
190.835159
 30
0.0
1001
GENIUS_GENOBJ-NBEHI-BHF_13
1002
{
1000
OWNER
1000
GENBEHI
1002
}
1001
GENIUS_GENOENT_13
1002
{
1000
MYREF
1005
1662
1002
}
1002
{
1000
GRP
1005
0
1002
}
1001
GENIUS_GENOLIS_13
1002
{
1000
ENT
1005
0
1002
}
1001
GENIUS_GENBH_13
1002
{
1000
OIUMAP
1000
OIU
1002
}
1002
{
1000
FLAGS
1070
    32
1002
}
1002
{
1000
BGO
1005
1663
1002
}
1001
GENIUS_GENODEF_13
1002
{
1000
HIER
1070
     1
1002
}
1002
{
1000
MANEDIT
1070
     1
1002
}
1002
{
1000
NOSEL
1070
     1
1002
}
1002
{
1000
BEHIND
1070
     0
1002
}
1002
{
1000
REACTOR
1002
}
  0
POINT
  5
1663
100
AcDbEntity
  8
0
 60
     1
100
AcDbPoint
 10
291.093735
 20
190.835159
 30
0.0
1001
GENIUS_GENOBJ-NBEHI-BHB_13
1002
{
1000
OWNER
1000
GENBEHI
1002
}
1001
GENIUS_GENOENT_13
1002
{
1000
MYREF
1005
1663
1002
}
1002
{
1000
GRP
1005
0
1002
}
1001
GENIUS_GENOLIS_13
1002
{
1000
ENT
1005
0
1002
}
1001
GENIUS_GENODEF_13
1002
{
1000
HIER
1070
     1
1002
}
1002
{
1000
MANEDIT
1070
     0
1002
}
1002
{
1000
NOSEL
1070
     1
1002
}
1002
{
1000
BEHIND
1070
     0
1002
}
1002
{
1000
REACTOR
1002
}
1002
{
1000
OTHER
1070
     1
1002
}
1001
GENIUS_GENBH_13
1002
{
1000
FGO
1005
1662
1002
}
  0
POINT
  5
1664
100
AcDbEntity
  8
0
 60
     1
100
AcDbPoint
 10
291.093735
 20
190.835159
 30
0.0
1001
GENIUS_GENOBJ-F-SCPASSM_13
1002
{
1000
OWNER
1000
GEF
1002
}
1001
GENIUS_GENOENT_13
1002
{
1000
MYREF
1005
1664
1002
}
1002
{
1000
GRP
1005
0
1002
}
1001
GENIUS_GENOLIS_13
1002
{
1000
ENT
1005
0
1005
0
1002
}
1001
GENIUS_GENODEF_13
1002
{
1000
HIER
1070
   200
1002
}
1002
{
1000
MANEDIT
1070
     1
1002
}
1002
{
1000
NOSEL
1070
     0
1002
}
1002
{
1000
BEHIND
1070
     0
1002
}
1002
{
1000
REACTOR
1002
}
  0
POINT
  5
1665
100
AcDbEntity
  8
0
 60
     1
100
AcDbPoint
 10
291.093735
 20
190.835159
 30
0.0
1001
GENIUS_GENOBJ-NBEHI-BHF_13
1002
{
1000
OWNER
1000
GENBEHI
1002
}
1001
GENIUS_GENOENT_13
1002
{
1000
MYREF
1005
1665
1002
}
1002
{
1000
GRP
1005
0
1002
}
1001
GENIUS_GENOLIS_13
1002
{
1000
ENT
1005
0
1002
}
1001
GENIUS_GENODEF_13
1002
{
1000
HIER
1070
     1
1002
}
1002
{
1000
MANEDIT
1070
     0
1002
}
1002
{
1000
NOSEL
1070
     1
1002
}
1002
{
1000
BEHIND
1070
     0
1002
}
1002
{
1000
REACTOR
1002
}
1001
GENIUS_GENBH_13
1002
{
1000
OIUMAP
1000
OIU
1002
}
1002
{
1000
FLAGS
1070
    32
1002
}
1002
{
1000
BGO
1005
1666
1002
}
  0
POINT
  5
1666
100
AcDbEntity
  8
0
 60
     1
100
AcDbPoint
 10
291.093735
 20
190.835159
 30
0.0
1001
GENIUS_GENOBJ-NBEHI-BHB_13
1002
{
1000
OWNER
1000
GENBEHI
1002
}
1001
GENIUS_GENOENT_13
1002
{
1000
MYREF
1005
1666
1002
}
1002
{
1000
GRP
1005
0
1002
}
1001
GENIUS_GENOLIS_13
1002
{
1000
ENT
1002
}
1001
GENIUS_GENODEF_13
1002
{
1000
HIER
1070
     1
1002
}
1002
{
1000
MANEDIT
1070
     0
1002
}
1002
{
1000
NOSEL
1070
     1
1002
}
1002
{
1000
BEHIND
1070
     0
1002
}
1002
{
1000
REACTOR
1002
}
1002
{
1000
OTHER
1070
     1
1002
}
1001
GENIUS_GENBH_13
1002
{
1000
FGO
1005
1665
1002
}
  0
POINT
  5
1667
100
AcDbEntity
  8
0
 60
     1
100
AcDbPoint
 10
291.093735
 20
190.835159
 30
0.0
1001
GENIUS_GENOBJ-NBEHI-BHF_13
1002
{
1000
OWNER
1000
GENBEHI
1002
}
1001
GENIUS_GENOENT_13
1002
{
1000
MYREF
1005
1667
1002
}
1002
{
1000
GRP
1005
0
1002
}
1001
GENIUS_GENOLIS_13
1002
{
1000
ENT
1005
0
1002
}
1001
GENIUS_GENBH_13
1002
{
1000
OIUMAP
1000
OIU
1002
}
1002
{
1000
FLAGS
1070
    32
1002
}
1002
{
1000
BGO
1005
1668
1002
}
1001
GENIUS_GENODEF_13
1002
{
1000
HIER
1070
     1
1002
}
1002
{
1000
MANEDIT
1070
     1
1002
}
1002
{
1000
NOSEL
1070
     1
1002
}
1002
{
1000
BEHIND
1070
     0
1002
}
1002
{
1000
REACTOR
1002
}
  0
POINT
  5
1668
100
AcDbEntity
  8
0
 60
     1
100
AcDbPoint
 10
291.093735
 20
190.835159
 30
0.0
1001
GENIUS_GENOBJ-NBEHI-BHB_13
1002
{
1000
OWNER
1000
GENBEHI
1002
}
1001
GENIUS_GENOENT_13
1002
{
1000
MYREF
1005
1668
1002
}
1002
{
1000
GRP
1005
0
1002
}
1001
GENIUS_GENOLIS_13
1002
{
1000
ENT
1005
0
1002
}
1001
GENIUS_GENODEF_13
1002
{
1000
HIER
1070
     1
1002
}
1002
{
1000
MANEDIT
1070
     0
1002
}
1002
{
1000
NOSEL
1070
     1
1002
}
1002
{
1000
BEHIND
1070
     0
1002
}
1002
{
1000
REACTOR
1002
}
1002
{
1000
OTHER
1070
     1
1002
}
1001
GENIUS_GENBH_13
1002
{
1000
FGO
1005
1667
1002
}
  0
POINT
  5
1669
100
AcDbEntity
  8
0
 60
     1
100
AcDbPoint
 10
291.093735
 20
190.835159
 30
0.0
1001
GENIUS_GENOBJ-F-SCPASSM_13
1002
{
1000
OWNER
1000
GEF
1002
}
1001
GENIUS_GENOENT_13
1002
{
1000
MYREF
1005
1669
1002
}
1002
{
1000
GRP
1005
0
1002
}
1001
GENIUS_GENOLIS_13
1002
{
1000
ENT
1005
0
1005
0
1002
}
1001
GENIUS_GENODEF_13
1002
{
1000
HIER
1070
   200
1002
}
1002
{
1000
MANEDIT
1070
     1
1002
}
1002
{
1000
NOSEL
1070
     0
1002
}
1002
{
1000
BEHIND
1070
     0
1002
}
1002
{
1000
REACTOR
1002
}
  0
POINT
  5
166A
100
AcDbEntity
  8
0
 60
     1
100
AcDbPoint
 10
291.093735
 20
190.835159
 30
0.0
1001
GENIUS_GENOBJ-NBEHI-BHF_13
1002
{
1000
OWNER
1000
GENBEHI
1002
}
1001
GENIUS_GENOENT_13
1002
{
1000
MYREF
1005
166A
1002
}
1002
{
1000
GRP
1005
0
1002
}
1001
GENIUS_GENOLIS_13
1002
{
1000
ENT
1005
0
1002
}
1001
GENIUS_GENODEF_13
1002
{
1000
HIER
1070
     1
1002
}
1002
{
1000
MANEDIT
1070
     0
1002
}
1002
{
1000
NOSEL
1070
     1
1002
}
1002
{
1000
BEHIND
1070
     0
1002
}
1002
{
1000
REACTOR
1002
}
1001
GENIUS_GENBH_13
1002
{
1000
OIUMAP
1000
OIU
1002
}
1002
{
1000
FLAGS
1070
    32
1002
}
1002
{
1000
BGO
1005
166B
1002
}
  0
POINT
  5
166B
100
AcDbEntity
  8
0
 60
     1
100
AcDbPoint
 10
291.093735
 20
190.835159
 30
0.0
1001
GENIUS_GENOBJ-NBEHI-BHB_13
1002
{
1000
OWNER
1000
GENBEHI
1002
}
1001
GENIUS_GENOENT_13
1002
{
1000
MYREF
1005
166B
1002
}
1002
{
1000
GRP
1005
0
1002
}
1001
GENIUS_GENOLIS_13
1002
{
1000
ENT
1002
}
1001
GENIUS_GENODEF_13
1002
{
1000
HIER
1070
     1
1002
}
1002
{
1000
MANEDIT
1070
     0
1002
}
1002
{
1000
NOSEL
1070
     1
1002
}
1002
{
1000
BEHIND
1070
     0
1002
}
1002
{
1000
REACTOR
1002
}
1002
{
1000
OTHER
1070
     1
1002
}
1001
GENIUS_GENBH_13
1002
{
1000
FGO
1005
166A
1002
}
  0
POINT
  5
166C
100
AcDbEntity
  8
0
 60
     1
100
AcDbPoint
 10
291.093735
 20
190.835159
 30
0.0
1001
GENIUS_GENOBJ-NBEHI-BHF_13
1002
{
1000
OWNER
1000
GENBEHI
1002
}
1001
GENIUS_GENOENT_13
1002
{
1000
MYREF
1005
166C
1002
}
1002
{
1000
GRP
1005
0
1002
}
1001
GENIUS_GENOLIS_13
1002
{
1000
ENT
1005
0
1002
}
1001
GENIUS_GENBH_13
1002
{
1000
OIUMAP
1000
OIU
1002
}
1002
{
1000
FLAGS
1070
    32
1002
}
1002
{
1000
BGO
1005
166D
1002
}
1001
GENIUS_GENODEF_13
1002
{
1000
HIER
1070
     1
1002
}
1002
{
1000
MANEDIT
1070
     1
1002
}
1002
{
1000
NOSEL
1070
     1
1002
}
1002
{
1000
BEHIND
1070
     0
1002
}
1002
{
1000
REACTOR
1002
}
  0
POINT
  5
166D
100
AcDbEntity
  8
0
 60
     1
100
AcDbPoint
 10
291.093735
 20
190.835159
 30
0.0
1001
GENIUS_GENOBJ-NBEHI-BHB_13
1002
{
1000
OWNER
1000
GENBEHI
1002
}
1001
GENIUS_GENOENT_13
1002
{
1000
MYREF
1005
166D
1002
}
1002
{
1000
GRP
1005
0
1002
}
1001
GENIUS_GENOLIS_13
1002
{
1000
ENT
1005
0
1002
}
1001
GENIUS_GENODEF_13
1002
{
1000
HIER
1070
     1
1002
}
1002
{
1000
MANEDIT
1070
     0
1002
}
1002
{
1000
NOSEL
1070
     1
1002
}
1002
{
1000
BEHIND
1070
     0
1002
}
1002
{
1000
REACTOR
1002
}
1002
{
1000
OTHER
1070
     1
1002
}
1001
GENIUS_GENBH_13
1002
{
1000
FGO
1005
166C
1002
}
  0
POINT
  5
166E
100
AcDbEntity
  8
0
 60
     1
100
AcDbPoint
 10
291.093735
 20
190.835159
 30
0.0
1001
GENIUS_GENOBJ-F-SCPASSM_13
1002
{
1000
OWNER
1000
GEF
1002
}
1001
GENIUS_GENOENT_13
1002
{
1000
MYREF
1005
166E
1002
}
1002
{
1000
GRP
1005
0
1002
}
1001
GENIUS_GENOLIS_13
1002
{
1000
ENT
1005
0
1005
0
1002
}
1001
GENIUS_GENODEF_13
1002
{
1000
HIER
1070
   200
1002
}
1002
{
1000
MANEDIT
1070
     1
1002
}
1002
{
1000
NOSEL
1070
     0
1002
}
1002
{
1000
BEHIND
1070
     0
1002
}
1002
{
1000
REACTOR
1002
}
  0
POINT
  5
166F
100
AcDbEntity
  8
0
 60
     1
100
AcDbPoint
 10
291.093735
 20
190.835159
 30
0.0
1001
GENIUS_GENOBJ-NBEHI-BHF_13
1002
{
1000
OWNER
1000
GENBEHI
1002
}
1001
GENIUS_GENOENT_13
1002
{
1000
MYREF
1005
166F
1002
}
1002
{
1000
GRP
1005
0
1002
}
1001
GENIUS_GENOLIS_13
1002
{
1000
ENT
1005
0
1002
}
1001
GENIUS_GENODEF_13
1002
{
1000
HIER
1070
     1
1002
}
1002
{
1000
MANEDIT
1070
     0
1002
}
1002
{
1000
NOSEL
1070
     1
1002
}
1002
{
1000
BEHIND
1070
     0
1002
}
1002
{
1000
REACTOR
1002
}
1001
GENIUS_GENBH_13
1002
{
1000
OIUMAP
1000
OIU
1002
}
1002
{
1000
FLAGS
1070
    32
1002
}
1002
{
1000
BGO
1005
1670
1002
}
  0
POINT
  5
1670
100
AcDbEntity
  8
0
 60
     1
100
AcDbPoint
 10
291.093735
 20
190.835159
 30
0.0
1001
GENIUS_GENOBJ-NBEHI-BHB_13
1002
{
1000
OWNER
1000
GENBEHI
1002
}
1001
GENIUS_GENOENT_13
1002
{
1000
MYREF
1005
1670
1002
}
1002
{
1000
GRP
1005
0
1002
}
1001
GENIUS_GENOLIS_13
1002
{
1000
ENT
1002
}
1001
GENIUS_GENODEF_13
1002
{
1000
HIER
1070
     1
1002
}
1002
{
1000
MANEDIT
1070
     0
1002
}
1002
{
1000
NOSEL
1070
     1
1002
}
1002
{
1000
BEHIND
1070
     0
1002
}
1002
{
1000
REACTOR
1002
}
1002
{
1000
OTHER
1070
     1
1002
}
1001
GENIUS_GENBH_13
1002
{
1000
FGO
1005
166F
1002
}
  0
POINT
  5
1671
100
AcDbEntity
  8
0
 60
     1
100
AcDbPoint
 10
291.093735
 20
190.835159
 30
0.0
1001
GENIUS_GENOBJ-NBEHI-BHF_13
1002
{
1000
OWNER
1000
GENBEHI
1002
}
1001
GENIUS_GENOENT_13
1002
{
1000
MYREF
1005
1671
1002
}
1002
{
1000
GRP
1005
0
1002
}
1001
GENIUS_GENOLIS_13
1002
{
1000
ENT
1005
0
1002
}
1001
GENIUS_GENBH_13
1002
{
1000
OIUMAP
1000
OIU
1002
}
1002
{
1000
FLAGS
1070
    32
1002
}
1002
{
1000
BGO
1005
1672
1002
}
1001
GENIUS_GENODEF_13
1002
{
1000
HIER
1070
     1
1002
}
1002
{
1000
MANEDIT
1070
     1
1002
}
1002
{
1000
NOSEL
1070
     1
1002
}
1002
{
1000
BEHIND
1070
     0
1002
}
1002
{
1000
REACTOR
1002
}
  0
POINT
  5
1672
100
AcDbEntity
  8
0
 60
     1
100
AcDbPoint
 10
291.093735
 20
190.835159
 30
0.0
1001
GENIUS_GENOBJ-NBEHI-BHB_13
1002
{
1000
OWNER
1000
GENBEHI
1002
}
1001
GENIUS_GENOENT_13
1002
{
1000
MYREF
1005
1672
1002
}
1002
{
1000
GRP
1005
0
1002
}
1001
GENIUS_GENOLIS_13
1002
{
1000
ENT
1005
0
1002
}
1001
GENIUS_GENODEF_13
1002
{
1000
HIER
1070
     1
1002
}
1002
{
1000
MANEDIT
1070
     0
1002
}
1002
{
1000
NOSEL
1070
     1
1002
}
1002
{
1000
BEHIND
1070
     0
1002
}
1002
{
1000
REACTOR
1002
}
1002
{
1000
OTHER
1070
     1
1002
}
1001
GENIUS_GENBH_13
1002
{
1000
FGO
1005
1671
1002
}
  0
POINT
  5
1673
100
AcDbEntity
  8
0
 60
     1
100
AcDbPoint
 10
291.093735
 20
190.835159
 30
0.0
1001
GENIUS_GENOBJ-F-SCPASSM_13
1002
{
1000
OWNER
1000
GEF
1002
}
1001
GENIUS_GENOENT_13
1002
{
1000
MYREF
1005
1673
1002
}
1002
{
1000
GRP
1005
0
1002
}
1001
GENIUS_GENOLIS_13
1002
{
1000
ENT
1005
0
1005
0
1002
}
1001
GENIUS_GENODEF_13
1002
{
1000
HIER
1070
   200
1002
}
1002
{
1000
MANEDIT
1070
     1
1002
}
1002
{
1000
NOSEL
1070
     0
1002
}
1002
{
1000
BEHIND
1070
     0
1002
}
1002
{
1000
REACTOR
1002
}
  0
LINE
  5
1674
100
AcDbEntity
  8
0
  6
HIDDEN
100
AcDbLine
 10
126.576617
 20
196.248973
 30
0.0
 11
126.576617
 21
196.248973
 31
0.0
1001
GENIUS_GENOREF_13
1005
1671
1005
1673
  0
LINE
  5
1675
100
AcDbEntity
  8
0
  6
HIDDEN
100
AcDbLine
 10
117.576617
 20
180.248973
 30
0.0
 11
126.576617
 21
180.248973
 31
0.0
1001
GENIUS_GENOREF_13
1005
1671
1005
1673
  0
LINE
  5
1676
100
AcDbEntity
  8
0
  6
HIDDEN
100
AcDbLine
 10
116.576617
 20
181.248973
 30
0.0
 11
116.576617
 21
189.868163
 31
0.0
1001
GENIUS_GENOREF_13
1005
1671
1005
1673
  0
ARC
  5
1677
100
AcDbEntity
  8
0
100
AcDbCircle
 10
117.576617
 20
181.248973
 30
0.0
 40
1.0
100
AcDbArc
 50
180.0
 51
270.0
1001
GENIUS_GENOREF_13
1005
1671
1005
1673
  0
ARC
  5
1678
100
AcDbEntity
  8
0
100
AcDbCircle
 10
117.576617
 20
195.248973
 30
0.0
 40
1.0
100
AcDbArc
 50
90.0
 51
180.0
1001
GENIUS_GENOREF_13
1005
1671
1005
1673
  0
LINE
  5
1679
100
AcDbEntity
  8
0
  6
HIDDEN
100
AcDbLine
 10
174.618993
 20
184.169148
 30
0.0
 11
144.076617
 21
184.169148
 31
0.0
1001
GENIUS_GENOREF_13
1005
1671
1005
1673
  0
LINE
  5
167A
100
AcDbEntity
  8
0
  6
HIDDEN
100
AcDbLine
 10
165.037611
 20
192.328798
 30
0.0
 11
144.076617
 21
192.328798
 31
0.0
1001
GENIUS_GENOREF_13
1005
1671
1005
1673
  0
LINE
  5
167B
100
AcDbEntity
  8
0
100
AcDbLine
 10
160.656442
 20
183.248973
 30
0.0
 11
161.576617
 21
184.169148
 31
0.0
1001
GENIUS_GENOREF_13
1005
1671
1005
1673
  0
LINE
  5
167C
100
AcDbEntity
  8
0
100
AcDbLine
 10
160.656442
 20
193.248973
 30
0.0
 11
161.576617
 21
192.328798
 31
0.0
1001
GENIUS_GENOREF_13
1005
1671
1005
1673
  0
LINE
  5
167D
100
AcDbEntity
  8
0
  6
HIDDEN
100
AcDbLine
 10
126.576617
 20
183.248973
 30
0.0
 11
141.076617
 21
183.248973
 31
0.0
1001
GENIUS_GENOREF_13
1005
1671
1005
1673
  0
LINE
  5
167E
100
AcDbEntity
  8
0
  6
HIDDEN
100
AcDbLine
 10
126.576617
 20
193.248973
 30
0.0
 11
141.076617
 21
193.248973
 31
0.0
1001
GENIUS_GENOREF_13
1005
1671
1005
1673
  0
LINE
  5
1680
100
AcDbEntity
  8
0
  6
HIDDEN
100
AcDbLine
 10
130.326617
 20
193.248973
 30
0.0
 11
130.326617
 21
183.248973
 31
0.0
1001
GENIUS_GENOREF_13
1005
1671
1005
1673
  0
LINE
  5
1681
100
AcDbEntity
  8
0
100
AcDbLine
 10
130.326617
 20
184.169148
 30
0.0
 11
129.406442
 21
183.248973
 31
0.0
1001
GENIUS_GENOREF_13
1005
1671
1005
1673
  0
LINE
  5
1682
100
AcDbEntity
  8
0
100
AcDbLine
 10
130.326617
 20
192.328798
 30
0.0
 11
129.406442
 21
193.248973
 31
0.0
1001
GENIUS_GENOREF_13
1005
1671
1005
1673
  0
LINE
  5
1683
100
AcDbEntity
  8
0
  6
HIDDEN
100
AcDbLine
 10
160.656442
 20
193.248973
 30
0.0
 11
160.656442
 21
183.248973
 31
0.0
1001
GENIUS_GENOREF_13
1005
1671
1005
1673
  0
LINE
  5
1684
100
AcDbEntity
  8
0
  6
HIDDEN
100
AcDbLine
 10
161.576617
 20
192.328798
 30
0.0
 11
161.576617
 21
184.169148
 31
0.0
1001
GENIUS_GENOREF_13
1005
1671
1005
1673
  0
POINT
  5
1685
100
AcDbEntity
  8
0
 60
     1
100
AcDbPoint
 10
291.093735
 20
190.835159
 30
0.0
1001
GENIUS_GENOBJ-NBEHI-BHB_13
1002
{
1000
OWNER
1000
GENBEHI
1002
}
1001
GENIUS_GENOENT_13
1002
{
1000
MYREF
1005
1685
1002
}
1002
{
1000
GRP
1005
0
1002
}
1001
GENIUS_GENOLIS_13
1002
{
1000
ENT
1002
}
1001
GENIUS_GENODEF_13
1002
{
1000
HIER
1070
     1
1002
}
1002
{
1000
MANEDIT
1070
     0
1002
}
1002
{
1000
NOSEL
1070
     1
1002
}
1002
{
1000
BEHIND
1070
     0
1002
}
1002
{
1000
REACTOR
1002
}
1002
{
1000
OTHER
1070
     1
1002
}
1001
GENIUS_GENBH_13
1002
{
1000
FGO
1005
0
1002
}
  0
POINT
  5
1686
100
AcDbEntity
  8
0
 60
     1
100
AcDbPoint
 10
291.093735
 20
190.835159
 30
0.0
1001
GENIUS_GENOBJ-NBEHI-BHF_13
1002
{
1000
OWNER
1000
GENBEHI
1002
}
1001
GENIUS_GENOENT_13
1002
{
1000
MYREF
1005
1686
1002
}
1002
{
1000
GRP
1005
0
1002
}
1001
GENIUS_GENOLIS_13
1002
{
1000
ENT
1005
0
1002
}
1001
GENIUS_GENBH_13
1002
{
1000
OIUMAP
1000
OIU
1002
}
1002
{
1000
FLAGS
1070
    32
1002
}
1002
{
1000
BGO
1005
0
1002
}
1001
GENIUS_GENODEF_13
1002
{
1000
HIER
1070
     1
1002
}
1002
{
1000
MANEDIT
1070
     1
1002
}
1002
{
1000
NOSEL
1070
     1
1002
}
1002
{
1000
BEHIND
1070
     0
1002
}
1002
{
1000
REACTOR
1002
}
  0
CIRCLE
  5
1687
100
AcDbEntity
  8
0
100
AcDbCircle
 10
50.465538
 20
188.248973
 30
0.0
 40
8.0
1001
GENIUS_GENOREF_13
1005
1686
1005
0
  0
LINE
  5
1688
100
AcDbEntity
  8
0
100
AcDbLine
 10
54.465538
 20
190.558374
 30
0.0
 11
50.465538
 21
192.867775
 31
0.0
1001
GENIUS_GENOREF_13
1005
1686
1005
0
  0
LINE
  5
1689
100
AcDbEntity
  8
0
100
AcDbLine
 10
50.465538
 20
183.63017
 30
0.0
 11
54.465538
 21
185.939571
 31
0.0
1001
GENIUS_GENOREF_13
1005
1686
1005
0
  0
LINE
  5
168A
100
AcDbEntity
  8
0
100
AcDbLine
 10
54.465538
 20
185.939571
 30
0.0
 11
54.465538
 21
190.558374
 31
0.0
1001
GENIUS_GENOREF_13
1005
1686
1005
0
  0
LINE
  5
168B
100
AcDbEntity
  8
0
100
AcDbLine
 10
46.465538
 20
190.558374
 30
0.0
 11
46.465538
 21
185.939571
 31
0.0
1001
GENIUS_GENOREF_13
1005
1686
1005
0
  0
LINE
  5
168C
100
AcDbEntity
  8
0
100
AcDbLine
 10
46.465538
 20
185.939571
 30
0.0
 11
50.465538
 21
183.63017
 31
0.0
1001
GENIUS_GENOREF_13
1005
1686
1005
0
  0
LINE
  5
168D
100
AcDbEntity
  8
0
100
AcDbLine
 10
50.465538
 20
192.867775
 30
0.0
 11
46.465538
 21
190.558374
 31
0.0
1001
GENIUS_GENOREF_13
1005
1686
1005
0
  0
LINE
  5
168E
100
AcDbEntity
  8
0
  6
HIDDEN
100
AcDbLine
 10
144.076617
 20
193.248973
 30
0.0
 11
160.656442
 21
193.248973
 31
0.0
1001
GENIUS_GENOREF_13
1005
1671
1005
1673
  0
LINE
  5
168F
100
AcDbEntity
  8
0
  6
HIDDEN
100
AcDbLine
 10
141.076617
 20
192.328798
 30
0.0
 11
130.326617
 21
192.328798
 31
0.0
1001
GENIUS_GENOREF_13
1005
1671
1005
1673
  0
LINE
  5
1690
100
AcDbEntity
  8
0
  6
HIDDEN
100
AcDbLine
 10
141.076617
 20
184.169148
 30
0.0
 11
130.326617
 21
184.169148
 31
0.0
1001
GENIUS_GENOREF_13
1005
1671
1005
1673
  0
LINE
  5
1691
100
AcDbEntity
  8
0
  6
HIDDEN
100
AcDbLine
 10
144.076617
 20
183.248973
 30
0.0
 11
160.656442
 21
183.248973
 31
0.0
1001
GENIUS_GENOREF_13
1005
1671
1005
1673
  0
LINE
  5
1692
100
AcDbEntity
  8
0
100
AcDbLine
 10
141.076617
 20
193.248973
 30
0.0
 11
144.076617
 21
193.248973
 31
0.0
  0
LINE
  5
1693
100
AcDbEntity
  8
0
100
AcDbLine
 10
141.076617
 20
192.328798
 30
0.0
 11
144.076617
 21
192.328798
 31
0.0
  0
LINE
  5
1694
100
AcDbEntity
  8
0
100
AcDbLine
 10
141.076617
 20
184.169148
 30
0.0
 11
144.076617
 21
184.169148
 31
0.0
  0
LINE
  5
1695
100
AcDbEntity
  8
0
100
AcDbLine
 10
141.076617
 20
183.248973
 30
0.0
 11
144.076617
 21
183.248973
 31
0.0
  0
LINE
  5
1696
100
AcDbEntity
  8
0
100
AcDbLine
 10
126.576617
 20
196.248973
 30
0.0
 11
117.576617
 21
196.248973
 31
0.0
  0
LINE
  5
1697
100
AcDbEntity
  8
0
100
AcDbLine
 10
116.576617
 20
195.248973
 30
0.0
 11
116.576617
 21
189.868163
 31
0.0
  0
LINE
  5
1698
100
AcDbEntity
  8
0
100
AcDbLine
 10
116.576617
 20
117.248973
 30
0.0
 11
116.576617
 21
122.629782
 31
0.0
  0
LINE
  5
1699
100
AcDbEntity
  8
0
  6
HIDDEN
100
AcDbLine
 10
126.576617
 20
116.248973
 30
0.0
 11
126.576617
 21
133.248973
 31
0.0
  0
LINE
  5
169A
100
AcDbEntity
  8
0
100
AcDbLine
 10
144.076617
 20
113.775451
 30
0.0
 11
144.076617
 21
131.294013
 31
0.0
  0
LINE
  5
169B
100
AcDbEntity
  8
0
100
AcDbLine
 10
141.076617
 20
131.294013
 30
0.0
 11
141.076617
 21
113.775451
 31
0.0
  0
LINE
  5
169C
100
AcDbEntity
  8
0
  6
HIDDEN
100
AcDbLine
 10
126.576617
 20
119.248973
 30
0.0
 11
141.076617
 21
119.248973
 31
0.0
1001
GENIUS_GENOREF_13
1005
1671
1005
1673
  0
LINE
  5
169D
100
AcDbEntity
  8
0
  6
HIDDEN
100
AcDbLine
 10
126.576617
 20
129.248973
 30
0.0
 11
141.076617
 21
129.248973
 31
0.0
1001
GENIUS_GENOREF_13
1005
1671
1005
1673
  0
LINE
  5
169E
100
AcDbEntity
  8
0
  6
HIDDEN
100
AcDbLine
 10
141.076617
 20
120.169148
 30
0.0
 11
130.326617
 21
120.169148
 31
0.0
1001
GENIUS_GENOREF_13
1005
1671
1005
1673
  0
LINE
  5
169F
100
AcDbEntity
  8
0
  6
HIDDEN
100
AcDbLine
 10
141.076617
 20
128.328798
 30
0.0
 11
130.326617
 21
128.328798
 31
0.0
1001
GENIUS_GENOREF_13
1005
1671
1005
1673
  0
LINE
  5
16A0
100
AcDbEntity
  8
0
  6
HIDDEN
100
AcDbLine
 10
126.576617
 20
118.748973
 30
0.0
 11
141.076617
 21
118.748973
 31
0.0
  0
LINE
  5
16A1
100
AcDbEntity
  8
0
  6
HIDDEN
100
AcDbLine
 10
126.576617
 20
129.748973
 30
0.0
 11
141.076617
 21
129.748973
 31
0.0
  0
LINE
  5
16A2
100
AcDbEntity
  8
0
  6
HIDDEN
100
AcDbLine
 10
117.576617
 20
132.248973
 30
0.0
 11
126.576617
 21
132.248973
 31
0.0
1001
GENIUS_GENOREF_13
1005
1671
1005
1673
  0
LINE
  5
16A3
100
AcDbEntity
  8
0
  6
HIDDEN
100
AcDbLine
 10
106.837983
 20
133.248973
 30
0.0
 11
126.576617
 21
133.248973
 31
0.0
  0
LINE
  5
16A4
100
AcDbEntity
  8
0
  6
HIDDEN
100
AcDbLine
 10
116.576617
 20
131.248973
 30
0.0
 11
116.576617
 21
122.629782
 31
0.0
1001
GENIUS_GENOREF_13
1005
1671
1005
1673
  0
ARC
  5
16A5
100
AcDbEntity
  8
0
100
AcDbCircle
 10
117.576617
 20
131.248973
 30
0.0
 40
1.0
100
AcDbArc
 50
90.0
 51
180.0
1001
GENIUS_GENOREF_13
1005
1671
1005
1673
  0
LINE
  5
16A6
100
AcDbEntity
  8
0
  6
HIDDEN
100
AcDbLine
 10
130.326617
 20
119.248973
 30
0.0
 11
130.326617
 21
129.248973
 31
0.0
1001
GENIUS_GENOREF_13
1005
1671
1005
1673
  0
LINE
  5
16A7
100
AcDbEntity
  8
0
100
AcDbLine
 10
130.326617
 20
128.328798
 30
0.0
 11
129.406442
 21
129.248973
 31
0.0
1001
GENIUS_GENOREF_13
1005
1671
1005
1673
  0
LINE
  5
16A8
100
AcDbEntity
  8
0
100
AcDbLine
 10
130.326617
 20
120.169148
 30
0.0
 11
129.406442
 21
119.248973
 31
0.0
1001
GENIUS_GENOREF_13
1005
1671
1005
1673
  0
LINE
  5
16A9
100
AcDbEntity
  8
0
  6
HIDDEN
100
AcDbLine
 10
144.076617
 20
129.248973
 30
0.0
 11
160.656442
 21
129.248973
 31
0.0
1001
GENIUS_GENOREF_13
1005
1671
1005
1673
  0
LINE
  5
16AA
100
AcDbEntity
  8
0
  6
HIDDEN
100
AcDbLine
 10
174.618993
 20
128.328798
 30
0.0
 11
144.076617
 21
128.328798
 31
0.0
1001
GENIUS_GENOREF_13
1005
1671
1005
1673
  0
LINE
  5
16AB
100
AcDbEntity
  8
0
  6
HIDDEN
100
AcDbLine
 10
165.037611
 20
120.169148
 30
0.0
 11
144.076617
 21
120.169148
 31
0.0
1001
GENIUS_GENOREF_13
1005
1671
1005
1673
  0
LINE
  5
16AC
100
AcDbEntity
  8
0
  6
HIDDEN
100
AcDbLine
 10
144.076617
 20
119.248973
 30
0.0
 11
160.656442
 21
119.248973
 31
0.0
1001
GENIUS_GENOREF_13
1005
1671
1005
1673
  0
LINE
  5
16AD
100
AcDbEntity
  8
0
100
AcDbLine
 10
141.076617
 20
129.248973
 30
0.0
 11
144.076617
 21
129.248973
 31
0.0
  0
LINE
  5
16AE
100
AcDbEntity
  8
0
100
AcDbLine
 10
141.076617
 20
128.328798
 30
0.0
 11
144.076617
 21
128.328798
 31
0.0
  0
LINE
  5
16AF
100
AcDbEntity
  8
0
100
AcDbLine
 10
141.076617
 20
120.169148
 30
0.0
 11
144.076617
 21
120.169148
 31
0.0
  0
LINE
  5
16B0
100
AcDbEntity
  8
0
100
AcDbLine
 10
141.076617
 20
119.248973
 30
0.0
 11
144.076617
 21
119.248973
 31
0.0
  0
LINE
  5
16B1
100
AcDbEntity
  8
0
  6
HIDDEN
100
AcDbLine
 10
160.656442
 20
119.248973
 30
0.0
 11
160.656442
 21
129.248973
 31
0.0
1001
GENIUS_GENOREF_13
1005
1671
1005
1673
  0
LINE
  5
16B2
100
AcDbEntity
  8
0
100
AcDbLine
 10
160.656442
 20
129.248973
 30
0.0
 11
161.576617
 21
128.328798
 31
0.0
1001
GENIUS_GENOREF_13
1005
1671
1005
1673
  0
LINE
  5
16B3
100
AcDbEntity
  8
0
  6
HIDDEN
 62
     3
100
AcDbLine
 10
160.656442
 20
129.248973
 30
0.0
 11
175.398104
 21
129.248973
 31
0.0
  0
LINE
  5
16B4
100
AcDbEntity
  8
0
  6
HIDDEN
100
AcDbLine
 10
161.576617
 20
120.169148
 30
0.0
 11
161.576617
 21
128.328798
 31
0.0
1001
GENIUS_GENOREF_13
1005
1671
1005
1673
  0
LINE
  5
16B5
100
AcDbEntity
  8
0
  6
HIDDEN
 62
     3
100
AcDbLine
 10
160.656442
 20
119.248973
 30
0.0
 11
163.487141
 21
119.248973
 31
0.0
  0
LINE
  5
16B6
100
AcDbEntity
  8
0
100
AcDbLine
 10
160.656442
 20
119.248973
 30
0.0
 11
161.576617
 21
120.169148
 31
0.0
1001
GENIUS_GENOREF_13
1005
1671
1005
1673
  0
LINE
  5
16B7
100
AcDbEntity
  8
0
100
AcDbLine
 10
126.576617
 20
116.248973
 30
0.0
 11
117.576617
 21
116.248973
 31
0.0
  0
ARC
  5
16B8
100
AcDbEntity
  8
0
100
AcDbCircle
 10
117.576617
 20
117.248973
 30
0.0
 40
1.0
100
AcDbArc
 50
180.0
 51
270.0
1001
GENIUS_GENOREF_13
1005
1671
1005
1673
  0
LINE
  5
16B9
100
AcDbEntity
  8
0
  6
HIDDEN
100
AcDbLine
 10
126.576617
 20
116.248973
 30
0.0
 11
126.576617
 21
116.248973
 31
0.0
1001
GENIUS_GENOREF_13
1005
1671
1005
1673
  0
LINE
  5
16BA
100
AcDbEntity
  8
0
100
AcDbLine
 10
47.361394
 20
195.622187
 30
0.0
 11
41.465538
 21
195.622187
 31
0.0
  0
CIRCLE
  5
16BB
100
AcDbEntity
  8
0
100
AcDbCircle
 10
50.465538
 20
124.248973
 30
0.0
 40
8.0
1001
GENIUS_GENOREF_13
1005
1686
1005
0
  0
LINE
  5
16BC
100
AcDbEntity
  8
0
100
AcDbLine
 10
59.465538
 20
124.248973
 30
0.0
 11
59.465538
 21
116.875758
 31
0.0
  0
LINE
  5
16BD
100
AcDbEntity
  8
0
  6
HIDDEN
100
AcDbLine
 10
60.465538
 20
131.248973
 30
0.0
 11
61.465538
 21
130.248973
 31
0.0
  0
LINE
  5
16BE
100
AcDbEntity
  8
0
100
AcDbLine
 10
54.465538
 20
121.939571
 30
0.0
 11
50.465538
 21
119.63017
 31
0.0
1001
GENIUS_GENOREF_13
1005
1686
1005
0
  0
LINE
  5
16BF
100
AcDbEntity
  8
0
100
AcDbLine
 10
50.465538
 20
128.867775
 30
0.0
 11
54.465538
 21
126.558374
 31
0.0
1001
GENIUS_GENOREF_13
1005
1686
1005
0
  0
LINE
  5
16C0
100
AcDbEntity
  8
0
100
AcDbLine
 10
46.465538
 20
121.939571
 30
0.0
 11
46.465538
 21
126.558374
 31
0.0
1001
GENIUS_GENOREF_13
1005
1686
1005
0
  0
LINE
  5
16C1
100
AcDbEntity
  8
0
100
AcDbLine
 10
46.465538
 20
126.558374
 30
0.0
 11
50.465538
 21
128.867775
 31
0.0
1001
GENIUS_GENOREF_13
1005
1686
1005
0
  0
LINE
  5
16C2
100
AcDbEntity
  8
0
100
AcDbLine
 10
50.465538
 20
119.63017
 30
0.0
 11
46.465538
 21
121.939571
 31
0.0
1001
GENIUS_GENOREF_13
1005
1686
1005
0
  0
LINE
  5
16C3
100
AcDbEntity
  8
0
100
AcDbLine
 10
54.465538
 20
126.558374
 30
0.0
 11
54.465538
 21
121.939571
 31
0.0
1001
GENIUS_GENOREF_13
1005
1686
1005
0
  0
LINE
  5
16C4
100
AcDbEntity
  8
0
100
AcDbLine
 10
59.465538
 20
116.875758
 30
0.0
 11
53.569682
 21
116.875758
 31
0.0
  0
LINE
  5
16C5
100
AcDbEntity
  8
0
100
AcDbLine
 10
47.361394
 20
116.875758
 30
0.0
 11
41.465538
 21
116.875758
 31
0.0
  0
LINE
  5
16C6
100
AcDbEntity
  8
0
100
AcDbLine
 10
41.465538
 20
124.248973
 30
0.0
 11
41.465538
 21
116.875758
 31
0.0
  0
ARC
  5
16C7
100
AcDbEntity
  8
0
100
AcDbCircle
 10
50.465538
 20
124.248973
 30
0.0
 40
9.0
100
AcDbArc
 50
0.0
 51
180.0
  0
LINE
  5
16C8
100
AcDbEntity
  8
0
100
AcDbLine
 10
-63.044899
 20
182.248973
 30
0.0
 11
-63.044899
 21
197.748973
 31
0.0
  0
LINE
  5
16CB
100
AcDbEntity
  8
0
100
AcDbLine
 10
-41.044899
 20
182.248973
 30
0.0
 11
-41.044899
 21
197.748973
 31
0.0
  0
ARC
  5
16CC
100
AcDbEntity
  8
0
  6
HIDDEN
100
AcDbCircle
 10
-52.044899
 20
124.248973
 30
0.0
 40
8.0
100
AcDbArc
 50
118.955024
 51
61.044976
1001
GENIUS_GENOREF_13
1005
1686
1005
0
  0
ARC
  5
16CD
100
AcDbEntity
  8
0
  6
HIDDEN
100
AcDbCircle
 10
-52.044899
 20
188.248973
 30
0.0
 40
8.0
100
AcDbArc
 50
298.955024
 51
241.044976
1001
GENIUS_GENOREF_13
1005
1686
1005
0
  0
ENDSEC
  0
SECTION
  2
OBJECTS
  0
DICTIONARY
  5
C
100
AcDbDictionary
  3
ACAD_GROUP
350
D
  3
ACAD_LAYOUT
350
C6F
  3
ACAD_MLINESTYLE
350
1B
  3
ACAD_PLOTSETTINGS
350
C70
  3
ADE_QUERY_LIBRARY
350
16F2
  3
CONTENTDICTIONARY
350
23
1001
ADE
1000
ADE02C004
1000
[Query]
1000
CaseSensitiveMatch=0
1000
SaveCurrQueryInSession=1
1000
MkSelSetWithQryObj=0
1000
ShowBlockAsInsPt=0
1000
CreateAssociativeHatchObjects=0
1000
ReferenceBoundaryForAreaLocation=1
1000
ShowImageAsBoundary=1
1000
DefaultJoinOperator=2
1000
ColorForAdd=red
1000
ColorForRemove=red
1000
BlockLocnForQuery=1
1000
TextLocnForQuery=1
1000
[Save Back]
1000
RedefineBlockDefinitions=1
1000
RedefineLayerDefinitions=1
1000
RedefineTextStyleDefinitions=1
1000
RemoveUnusedGroups=1
1000
EraseSavedBackObjects=1
1000
RemoveLockAfterSave=1
1000
CreateHistoryFileOfChanges=0
1000
CreateBackupFileOfSourceDwg=1
1000
DontAddObjectsToSaveSet=0
1000
MarkObjectsForEditingWithoutPrompting=0
1000
[Coordinate Transformation]
1000
RestoreLastActiveDwgsOnStartup=1
1000
ActivateDwgsOnAttach=1
1000
AdjustSizesAndScalesForChangesInUnits=1
1000
AdjustRotationsForMapDistortions=1
1000
AdjustSizesAndScalesForMapDistortions=1
1000
AdjustElevations=1
1000
AdjustZeroRotationObjects=1
1000
ReconnectDbOnWSOpen=1
1000
NoOfSQLConditionsInHistory=10
1001
ACAD
1000
TREAT_AS_HARD
1070
     0
  0
DICTIONARY
  5
16F6
100
AcDbDictionary
280
     1
  3
ACAD_LAYOUTSELFREF
360
16F7
  0
DICTIONARY
  5
16F4
100
AcDbDictionary
280
     1
  3
ACAD_LAYOUTSELFREF
360
16F5
  0
DICTIONARY
  5
D
102
{ACAD_REACTORS
330
C
102
}
100
AcDbDictionary
1001
ACAD
1000
TREAT_AS_HARD
1070
     0
  0
DICTIONARY
  5
C6F
102
{ACAD_REACTORS
330
C
102
}
100
AcDbDictionary
1001
ACAD
1000
TREAT_AS_HARD
1070
     0
  0
DICTIONARY
  5
1B
102
{ACAD_REACTORS
330
C
102
}
100
AcDbDictionary
  3
STANDARD
350
1C
1001
ACAD
1000
TREAT_AS_HARD
1070
     0
  0
DICTIONARY
  5
C70
102
{ACAD_REACTORS
330
C
102
}
100
AcDbDictionary
1001
ACAD
1000
TREAT_AS_HARD
1070
     0
  0
DICTIONARY
  5
16F2
102
{ACAD_REACTORS
330
C
102
}
100
AcDbDictionary
  3
_CURRQRY
350
16F3
1001
ACAD
1000
TREAT_AS_HARD
1070
     0
  0
DICTIONARY
  5
23
102
{ACAD_REACTORS
330
C
102
}
100
AcDbDictionary
1001
ACAD
1000
TREAT_AS_HARD
1070
     0
  0
XRECORD
  5
16F7
102
{ACAD_REACTORS
330
16F6
102
}
100
AcDbXrecord
340
18
  0
XRECORD
  5
16F5
102
{ACAD_REACTORS
330
16F4
102
}
100
AcDbXrecord
340
15
  0
MLINESTYLE
  5
1C
102
{ACAD_REACTORS
330
1B
102
}
100
AcDbMlineStyle
  2
STANDARD
 70
     0
  3

 62
   256
 51
90.0
 52
90.0
 71
     2
 49
0.5
 62
   256
  6
BYLAYER
 49
-0.5
 62
   256
  6
BYLAYER
  0
XRECORD
  5
16F3
102
{ACAD_REACTORS
330
16F2
102
}
100
AcDbXrecord
1000
ADE02C001
1070
     1
1070
     0
1002
{
1002
}
1002
{
1002
}
1002
{
1002
}
1000

  0
ENDSEC
  0
EOF
