  0
SECTION
  2
HEADER
  9
$ACADVER
  1
AC1014
  9
$ACADMAINTVER
 70
     0
  9
$DWGCODEPAGE
  3
ANSI_932
  9
$INSBASE
 10
0.0
 20
0.0
 30
0.0
  9
$EXTMIN
 10
-39.586035
 20
57.087445
 30
0.0
  9
$EXTMAX
 10
186.545154
 20
192.217563
 30
0.0
  9
$LIMMIN
 10
0.0
 20
0.0
  9
$LIMMAX
 10
420.0
 20
297.0
  9
$ORTHOMODE
 70
     0
  9
$REGENMODE
 70
     1
  9
$FILLMODE
 70
     1
  9
$QTEXTMODE
 70
     0
  9
$MIRRTEXT
 70
     1
  9
$DRAGMODE
 70
     2
  9
$LTSCALE
 40
0.4
  9
$OSMODE
 70
    37
  9
$ATTMODE
 70
     1
  9
$TEXTSIZE
 40
10.0
  9
$TRACEWID
 40
1.0
  9
$TEXTSTYLE
  7
BIGFONT
  9
$CLAYER
  8
0
  9
$CELTYPE
  6
BYLAYER
  9
$CECOLOR
 62
   256
  9
$CELTSCALE
 40
1.0
  9
$DELOBJ
 70
     1
  9
$DISPSILH
 70
     0
  9
$DIMSCALE
 40
1.0
  9
$DIMASZ
 40
2.5
  9
$DIMEXO
 40
0.625
  9
$DIMDLI
 40
3.75
  9
$DIMRND
 40
0.0
  9
$DIMDLE
 40
0.0
  9
$DIMEXE
 40
1.25
  9
$DIMTP
 40
0.0
  9
$DIMTM
 40
0.0
  9
$DIMTXT
 40
2.5
  9
$DIMCEN
 40
0.5
  9
$DIMTSZ
 40
0.0
  9
$DIMTOL
 70
     0
  9
$DIMLIM
 70
     0
  9
$DIMTIH
 70
     0
  9
$DIMTOH
 70
     0
  9
$DIMSE1
 70
     0
  9
$DIMSE2
 70
     0
  9
$DIMTAD
 70
     3
  9
$DIMZIN
 70
     8
  9
$DIMBLK
  1

  9
$DIMASO
 70
     1
  9
$DIMSHO
 70
     1
  9
$DIMPOST
  1

  9
$DIMAPOST
  1

  9
$DIMALT
 70
     0
  9
$DIMALTD
 70
     4
  9
$DIMALTF
 40
0.0394
  9
$DIMLFAC
 40
1.0
  9
$DIMTOFL
 70
     1
  9
$DIMTVP
 40
0.0
  9
$DIMTIX
 70
     0
  9
$DIMSOXD
 70
     0
  9
$DIMSAH
 70
     0
  9
$DIMBLK1
  1

  9
$DIMBLK2
  1

  9
$DIMSTYLE
  2
STANDARD_WS
  9
$DIMCLRD
 70
     0
  9
$DIMCLRE
 70
     0
  9
$DIMCLRT
 70
   256
  9
$DIMTFAC
 40
1.0
  9
$DIMGAP
 40
1.2
  9
$DIMJUST
 70
     0
  9
$DIMSD1
 70
     0
  9
$DIMSD2
 70
     0
  9
$DIMTOLJ
 70
     1
  9
$DIMTZIN
 70
     0
  9
$DIMALTZ
 70
     0
  9
$DIMALTTZ
 70
     0
  9
$DIMFIT
 70
     3
  9
$DIMUPT
 70
     0
  9
$DIMUNIT
 70
     2
  9
$DIMDEC
 70
     4
  9
$DIMTDEC
 70
     4
  9
$DIMALTU
 70
     8
  9
$DIMALTTD
 70
     4
  9
$DIMTXSTY
  7
BIGFONT
  9
$DIMAUNIT
 70
     0
  9
$LUNITS
 70
     2
  9
$LUPREC
 70
     4
  9
$SKETCHINC
 40
1.0
  9
$FILLETRAD
 40
0.0
  9
$AUNITS
 70
     0
  9
$AUPREC
 70
     0
  9
$MENU
  1
acad
  9
$ELEVATION
 40
0.0
  9
$PELEVATION
 40
0.0
  9
$THICKNESS
 40
0.0
  9
$LIMCHECK
 70
     0
  9
$BLIPMODE
 70
     0
  9
$CHAMFERA
 40
1.0
  9
$CHAMFERB
 40
1.0
  9
$CHAMFERC
 40
20.0
  9
$CHAMFERD
 40
0.0
  9
$SKPOLY
 70
     0
  9
$TDCREATE
 40
2451225.415346065
  9
$TDUPDATE
 40
2453594.470388808
  9
$TDINDWG
 40
0.1957129051
  9
$TDUSRTIMER
 40
0.1957129051
  9
$USRTIMER
 70
     1
  9
$ANGBASE
 50
0.0
  9
$ANGDIR
 70
     0
  9
$PDMODE
 70
     0
  9
$PDSIZE
 40
0.0
  9
$PLINEWID
 40
0.0
  9
$COORDS
 70
     1
  9
$SPLFRAME
 70
     0
  9
$SPLINETYPE
 70
     6
  9
$SPLINESEGS
 70
     8
  9
$ATTDIA
 70
     0
  9
$ATTREQ
 70
     1
  9
$HANDLING
 70
     1
  9
$HANDSEED
  5
F1C
  9
$SURFTAB1
 70
     6
  9
$SURFTAB2
 70
     6
  9
$SURFTYPE
 70
     6
  9
$SURFU
 70
     6
  9
$SURFV
 70
     6
  9
$UCSNAME
  2

  9
$UCSORG
 10
0.0
 20
0.0
 30
0.0
  9
$UCSXDIR
 10
1.0
 20
0.0
 30
0.0
  9
$UCSYDIR
 10
0.0
 20
1.0
 30
0.0
  9
$PUCSNAME
  2

  9
$PUCSORG
 10
0.0
 20
0.0
 30
0.0
  9
$PUCSXDIR
 10
1.0
 20
0.0
 30
0.0
  9
$PUCSYDIR
 10
0.0
 20
1.0
 30
0.0
  9
$USERI1
 70
     0
  9
$USERI2
 70
     0
  9
$USERI3
 70
     0
  9
$USERI4
 70
     0
  9
$USERI5
 70
     0
  9
$USERR1
 40
0.0
  9
$USERR2
 40
0.0
  9
$USERR3
 40
0.0
  9
$USERR4
 40
0.0
  9
$USERR5
 40
0.0
  9
$WORLDVIEW
 70
     1
  9
$SHADEDGE
 70
     3
  9
$SHADEDIF
 70
    70
  9
$TILEMODE
 70
     1
  9
$MAXACTVP
 70
    48
  9
$PINSBASE
 10
0.0
 20
0.0
 30
0.0
  9
$PLIMCHECK
 70
     0
  9
$PEXTMIN
 10
1.000000E+20
 20
1.000000E+20
 30
1.000000E+20
  9
$PEXTMAX
 10
-1.000000E+20
 20
-1.000000E+20
 30
-1.000000E+20
  9
$PLIMMIN
 10
0.0
 20
0.0
  9
$PLIMMAX
 10
420.0
 20
297.0
  9
$UNITMODE
 70
     0
  9
$VISRETAIN
 70
     1
  9
$PLINEGEN
 70
     0
  9
$PSLTSCALE
 70
     0
  9
$TREEDEPTH
 70
  3020
  9
$PICKSTYLE
 70
     1
  9
$CMLSTYLE
  2
STANDARD
  9
$CMLJUST
 70
     0
  9
$CMLSCALE
 40
20.0
  9
$PROXYGRAPHICS
 70
     1
  9
$MEASUREMENT
 70
     0
  0
ENDSEC
  0
SECTION
  2
CLASSES
  0
CLASS
  1
DICTIONARYVAR
  2
AcDbDictionaryVar
  3
"AutoCAD"
 90
        0
280
     0
281
     0
  0
CLASS
  1
HATCH
  2
AcDbHatch
  3
"ACAD_SEDONA"
 90
        0
280
     0
281
     1
  0
CLASS
  1
LWPOLYLINE
  2
AcDbPolyline
  3
"AutoCAD"
 90
        0
280
     0
281
     1
  0
CLASS
  1
ACDBDICTIONARYWDFLT
  2
AcDbDictionaryWithDefault
  3
AutoCAD 2000
 90
        0
280
     0
281
     0
  0
CLASS
  1
ACDBPLACEHOLDER
  2
AcDbPlaceHolder
  3
AutoCAD 2000
 90
        0
280
     0
281
     0
  0
CLASS
  1
LAYOUT
  2
AcDbLayout
  3
AutoCAD 2000
 90
        0
280
     0
281
     0
  0
CLASS
  1
LONG_TRANSACTION
  2
AcDbLongTransaction
  3
AutoCAD 2000
 90
        0
280
     0
281
     0
  0
CLASS
  1
LWPOLYLINE
  2
AcDbPolyline
  3
"AutoCAD"
 90
        0
280
     0
281
     1
  0
CLASS
  1
HATCH
  2
AcDbHatch
  3
"ACAD_SEDONA"
 90
        0
280
     0
281
     1
  0
CLASS
  1
XRECORD
  2
AcDbXrecord
  3
"<Built In>"
 90
        0
280
     0
281
     0
  0
ENDSEC
  0
SECTION
  2
TABLES
  0
TABLE
  2
VPORT
  5
8
100
AcDbSymbolTable
 70
     2
  0
VPORT
  5
F1B
100
AcDbSymbolTableRecord
100
AcDbViewportTableRecord
  2
*ACTIVE
 70
     0
 10
0.0
 20
0.0
 11
1.0
 21
1.0
 12
190.206983
 22
148.5
 13
0.0
 23
0.0
 14
10.0
 24
10.0
 15
10.0
 25
10.0
 16
0.0
 26
0.0
 36
1.0
 17
0.0
 27
0.0
 37
0.0
 40
321.938895
 41
1.434944
 42
50.0
 43
0.0
 44
0.0
 50
0.0
 51
0.0
 71
     0
 72
   100
 73
     1
 74
     0
 75
     0
 76
     0
 77
     0
 78
     1
  0
ENDTAB
  0
TABLE
  2
LTYPE
  5
5
100
AcDbSymbolTable
 70
     3
  0
LTYPE
  5
12
100
AcDbSymbolTableRecord
100
AcDbLinetypeTableRecord
  2
BYBLOCK
 70
     0
  3

 72
    65
 73
     0
 40
0.0
  0
LTYPE
  5
13
100
AcDbSymbolTableRecord
100
AcDbLinetypeTableRecord
  2
BYLAYER
 70
     0
  3

 72
    65
 73
     0
 40
0.0
  0
LTYPE
  5
14
100
AcDbSymbolTableRecord
100
AcDbLinetypeTableRecord
  2
CONTINUOUS
 70
     0
  3
Solid line
 72
    65
 73
     0
 40
0.0
  0
LTYPE
  5
11A
100
AcDbSymbolTableRecord
100
AcDbLinetypeTableRecord
  2
CENTER
 70
     0
  3
Center ____ _ ____ _ ____ _ ____ _ ____ _ ____
 72
    65
 73
     4
 40
50.8
 49
31.75
 74
     0
 49
-6.35
 74
     0
 49
6.35
 74
     0
 49
-6.35
 74
     0
  0
LTYPE
  5
11B
100
AcDbSymbolTableRecord
100
AcDbLinetypeTableRecord
  2
HIDDEN
 70
     0
  3
Hidden __ __ __ __ __ __ __ __ __ __ __ __ __ _
 72
    65
 73
     2
 40
9.525
 49
6.35
 74
     0
 49
-3.175
 74
     0
  0
ENDTAB
  0
TABLE
  2
LAYER
  5
2
100
AcDbSymbolTable
 70
     6
  0
LAYER
  5
E
100
AcDbSymbolTableRecord
100
AcDbLayerTableRecord
  2
0
 70
     0
 62
     7
  6
CONTINUOUS
  0
LAYER
  5
37
100
AcDbSymbolTableRecord
100
AcDbLayerTableRecord
  2
図枠
 70
     0
 62
     7
  6
CONTINUOUS
  0
LAYER
  5
38
100
AcDbSymbolTableRecord
100
AcDbLayerTableRecord
  2
図枠部品表
 70
     0
 62
     7
  6
CONTINUOUS
  0
LAYER
  5
215
100
AcDbSymbolTableRecord
100
AcDbLayerTableRecord
  2
CENTER
 70
     0
 62
     2
  6
CENTER
  0
LAYER
  5
216
100
AcDbSymbolTableRecord
100
AcDbLayerTableRecord
  2
DIM
 70
     0
 62
     4
  6
CONTINUOUS
  0
LAYER
  5
21F
100
AcDbSymbolTableRecord
100
AcDbLayerTableRecord
  2
DEFPOINTS
 70
     0
 62
     7
  6
CONTINUOUS
  0
ENDTAB
  0
TABLE
  2
STYLE
  5
3
100
AcDbSymbolTable
 70
     3
  0
STYLE
  5
F
100
AcDbSymbolTableRecord
100
AcDbTextStyleTableRecord
  2
STANDARD
 70
     0
 40
0.0
 41
1.0
 50
0.0
 71
     0
 42
2.5
  3
txt
  4

  0
STYLE
  5
39
100
AcDbSymbolTableRecord
100
AcDbTextStyleTableRecord
  2
BIGFONT
 70
     0
 40
0.0
 41
1.0
 50
0.0
 71
     0
 42
10.0
  3
txt.shx
  4
bigfont.shx
  0
STYLE
  5
3B
100
AcDbSymbolTableRecord
100
AcDbTextStyleTableRecord
  2
KANJI
 70
     0
 40
0.0
 41
1.0
 50
0.0
 71
     0
 42
3.0
  3
TXT
  4
BIGFONT
  0
ENDTAB
  0
TABLE
  2
VIEW
  5
6
100
AcDbSymbolTable
 70
     0
  0
ENDTAB
  0
TABLE
  2
UCS
  5
7
100
AcDbSymbolTable
 70
     0
  0
ENDTAB
  0
TABLE
  2
APPID
  5
9
100
AcDbSymbolTable
 70
    36
  0
APPID
  5
10
100
AcDbSymbolTableRecord
100
AcDbRegAppTableRecord
  2
ACAD
 70
     0
  0
APPID
  5
24
100
AcDbSymbolTableRecord
100
AcDbRegAppTableRecord
  2
CONTENTTABDATA
 70
     0
  0
APPID
  5
25
100
AcDbSymbolTableRecord
100
AcDbRegAppTableRecord
  2
CONTENTCURRENTTAB
 70
     0
  0
APPID
  5
422
100
AcDbSymbolTableRecord
100
AcDbRegAppTableRecord
  2
CONTENTBLOCKDESCRIPTION
 70
     0
  0
APPID
  5
DF4
100
AcDbSymbolTableRecord
100
AcDbRegAppTableRecord
  2
MCAD_NO_VIS
 70
     0
  0
APPID
  5
DF5
100
AcDbSymbolTableRecord
100
AcDbRegAppTableRecord
  2
ACAD_TEMP_GRAPHIC
 70
     0
  0
APPID
  5
DF6
100
AcDbSymbolTableRecord
100
AcDbRegAppTableRecord
  2
GEVID966397200
 70
     0
  0
APPID
  5
DF7
100
AcDbSymbolTableRecord
100
AcDbRegAppTableRecord
  2
GEVDC
 70
     0
  0
APPID
  5
DF8
100
AcDbSymbolTableRecord
100
AcDbRegAppTableRecord
  2
GEVCON
 70
     0
  0
APPID
  5
DF9
100
AcDbSymbolTableRecord
100
AcDbRegAppTableRecord
  2
GEVID966397201
 70
     0
  0
APPID
  5
DFA
100
AcDbSymbolTableRecord
100
AcDbRegAppTableRecord
  2
GEVID966397202
 70
     0
  0
APPID
  5
DFB
100
AcDbSymbolTableRecord
100
AcDbRegAppTableRecord
  2
GEVID966397203
 70
     0
  0
APPID
  5
DFC
100
AcDbSymbolTableRecord
100
AcDbRegAppTableRecord
  2
GEVID966397204
 70
     0
  0
APPID
  5
DFD
100
AcDbSymbolTableRecord
100
AcDbRegAppTableRecord
  2
GEVID966397205
 70
     0
  0
APPID
  5
DFE
100
AcDbSymbolTableRecord
100
AcDbRegAppTableRecord
  2
GEVID966397206
 70
     0
  0
APPID
  5
DFF
100
AcDbSymbolTableRecord
100
AcDbRegAppTableRecord
  2
GENIUS_GENBH_13
 70
     0
  0
APPID
  5
E00
100
AcDbSymbolTableRecord
100
AcDbRegAppTableRecord
  2
GENIUS_GENODEF_13
 70
     0
  0
APPID
  5
E01
100
AcDbSymbolTableRecord
100
AcDbRegAppTableRecord
  2
GENIUS_GENOBJ-NBEHI-BHF_13
 70
     0
  0
APPID
  5
E02
100
AcDbSymbolTableRecord
100
AcDbRegAppTableRecord
  2
GENIUS_GENOENT_13
 70
     0
  0
APPID
  5
E03
100
AcDbSymbolTableRecord
100
AcDbRegAppTableRecord
  2
GENIUS_GENOREF_13
 70
     0
  0
APPID
  5
E04
100
AcDbSymbolTableRecord
100
AcDbRegAppTableRecord
  2
GENIUS_GENOLIS_13
 70
     0
  0
APPID
  5
E05
100
AcDbSymbolTableRecord
100
AcDbRegAppTableRecord
  2
GENIUS_GENOBJ-NBEHI-BHB_13
 70
     0
  0
APPID
  5
E06
100
AcDbSymbolTableRecord
100
AcDbRegAppTableRecord
  2
GEVID966397207
 70
     0
  0
APPID
  5
E07
100
AcDbSymbolTableRecord
100
AcDbRegAppTableRecord
  2
GENIUS_GENOBJ-F-SCPASSM_13
 70
     0
  0
APPID
  5
E08
100
AcDbSymbolTableRecord
100
AcDbRegAppTableRecord
  2
GENIUS_GENDTOL_13
 70
     0
  0
APPID
  5
E09
100
AcDbSymbolTableRecord
100
AcDbRegAppTableRecord
  2
GEVID966521051
 70
     0
  0
APPID
  5
E0A
100
AcDbSymbolTableRecord
100
AcDbRegAppTableRecord
  2
GEVID966521052
 70
     0
  0
APPID
  5
E0B
100
AcDbSymbolTableRecord
100
AcDbRegAppTableRecord
  2
GEVID966521054
 70
     0
  0
APPID
  5
E0C
100
AcDbSymbolTableRecord
100
AcDbRegAppTableRecord
  2
GEVID966521055
 70
     0
  0
APPID
  5
E0D
100
AcDbSymbolTableRecord
100
AcDbRegAppTableRecord
  2
GEVID966521056
 70
     0
  0
APPID
  5
E0E
100
AcDbSymbolTableRecord
100
AcDbRegAppTableRecord
  2
GEVID966521057
 70
     0
  0
APPID
  5
E0F
100
AcDbSymbolTableRecord
100
AcDbRegAppTableRecord
  2
GEVID966521058
 70
     0
  0
APPID
  5
E10
100
AcDbSymbolTableRecord
100
AcDbRegAppTableRecord
  2
GEVID966521059
 70
     0
  0
APPID
  5
E11
100
AcDbSymbolTableRecord
100
AcDbRegAppTableRecord
  2
GEVID966521062
 70
     0
  0
APPID
  5
E12
100
AcDbSymbolTableRecord
100
AcDbRegAppTableRecord
  2
GEVID966521063
 70
     0
  0
APPID
  5
F09
100
AcDbSymbolTableRecord
100
AcDbRegAppTableRecord
  2
ADE
 70
     0
  0
ENDTAB
  0
TABLE
  2
DIMSTYLE
  5
A
100
AcDbSymbolTable
 70
     1
  0
DIMSTYLE
105
35
100
AcDbSymbolTableRecord
100
AcDbDimStyleTableRecord
  2
STANDARD_WS
 70
     0
  3

  4

  5

  6

  7

 40
1.0
 41
2.5
 42
0.625
 43
3.75
 44
1.25
 45
0.0
 46
0.0
 47
0.0
 48
0.0
140
2.5
141
2.5
142
0.0
143
0.0394
144
1.0
145
0.0
146
1.0
147
0.625
 71
     0
 72
     0
 73
     0
 74
     0
 75
     0
 76
     0
 77
     1
 78
     8
170
     0
171
     4
172
     1
173
     0
174
     0
175
     0
176
     0
177
     0
178
     0
270
     2
271
     4
272
     4
273
     8
274
     4
340
F
275
     0
280
     0
281
     0
282
     0
283
     1
284
     0
285
     0
286
     0
287
     3
288
     0
  0
ENDTAB
  0
TABLE
  2
BLOCK_RECORD
  5
1
100
AcDbSymbolTable
 70
    12
  0
BLOCK_RECORD
  5
18
102
{ACAD_XDICTIONARY
360
F0E
102
}
100
AcDbSymbolTableRecord
100
AcDbBlockTableRecord
  2
*MODEL_SPACE
  0
BLOCK_RECORD
  5
15
102
{ACAD_XDICTIONARY
360
F0C
102
}
100
AcDbSymbolTableRecord
100
AcDbBlockTableRecord
  2
*PAPER_SPACE
  0
BLOCK_RECORD
  5
B52
100
AcDbSymbolTableRecord
100
AcDbBlockTableRecord
  2
*D0
  0
BLOCK_RECORD
  5
B5F
100
AcDbSymbolTableRecord
100
AcDbBlockTableRecord
  2
*D1
  0
BLOCK_RECORD
  5
B6C
100
AcDbSymbolTableRecord
100
AcDbBlockTableRecord
  2
*D2
  0
BLOCK_RECORD
  5
B79
100
AcDbSymbolTableRecord
100
AcDbBlockTableRecord
  2
*D3
  0
BLOCK_RECORD
  5
B86
100
AcDbSymbolTableRecord
100
AcDbBlockTableRecord
  2
*D4
  0
BLOCK_RECORD
  5
B93
100
AcDbSymbolTableRecord
100
AcDbBlockTableRecord
  2
*D5
  0
BLOCK_RECORD
  5
BA0
100
AcDbSymbolTableRecord
100
AcDbBlockTableRecord
  2
*D6
  0
BLOCK_RECORD
  5
BBC
100
AcDbSymbolTableRecord
100
AcDbBlockTableRecord
  2
*D7
  0
BLOCK_RECORD
  5
BCD
100
AcDbSymbolTableRecord
100
AcDbBlockTableRecord
  2
*D8
  0
BLOCK_RECORD
  5
BEF
100
AcDbSymbolTableRecord
100
AcDbBlockTableRecord
  2
*D9
  0
BLOCK_RECORD
  5
D70
100
AcDbSymbolTableRecord
100
AcDbBlockTableRecord
  2
*D10
  0
BLOCK_RECORD
  5
DD7
100
AcDbSymbolTableRecord
100
AcDbBlockTableRecord
  2
_OPEN30
  0
ENDTAB
  0
ENDSEC
  0
SECTION
  2
BLOCKS
  0
BLOCK
  5
19
100
AcDbEntity
  8
0
100
AcDbBlockBegin
  2
*MODEL_SPACE
 70
     2
 10
0.0
 20
0.0
 30
0.0
  3
*MODEL_SPACE
  1

  0
ENDBLK
  5
1A
100
AcDbEntity
  8
0
100
AcDbBlockEnd
  0
BLOCK
  5
16
100
AcDbEntity
 67
     1
  8
0
100
AcDbBlockBegin
  2
*PAPER_SPACE
 70
     0
 10
0.0
 20
0.0
 30
0.0
  3
*PAPER_SPACE
  1

  0
ENDBLK
  5
17
100
AcDbEntity
 67
     1
  8
0
100
AcDbBlockEnd
  0
BLOCK
  5
C03
100
AcDbEntity
  8
0
100
AcDbBlockBegin
  2
*D0
 70
     1
 10
0.0
 20
0.0
 30
0.0
  3
*D0
  1

  0
LINE
  5
D48
100
AcDbEntity
  8
DIM
 62
     0
100
AcDbLine
 10
49.160086
 20
181.927467
 30
0.0
 11
26.392737
 21
181.927467
 31
0.0
  0
LINE
  5
D49
100
AcDbEntity
  8
DIM
 62
     0
100
AcDbLine
 10
49.160086
 20
106.927467
 30
0.0
 11
26.392737
 21
106.927467
 31
0.0
  0
LINE
  5
D4A
100
AcDbEntity
  8
DIM
 62
     0
100
AcDbLine
 10
27.642737
 20
179.427467
 30
0.0
 11
27.642737
 21
109.427467
 31
0.0
  0
SOLID
  5
D4B
100
AcDbEntity
  8
DIM
 62
     0
100
AcDbTrace
 10
27.22607
 20
179.427467
 30
0.0
 11
28.059403
 21
179.427467
 31
0.0
 12
27.642737
 22
181.927467
 32
0.0
 13
27.642737
 23
181.927467
 33
0.0
  0
SOLID
  5
D4C
100
AcDbEntity
  8
DIM
 62
     0
100
AcDbTrace
 10
27.22607
 20
109.427467
 30
0.0
 11
28.059403
 21
109.427467
 31
0.0
 12
27.642737
 22
106.927467
 32
0.0
 13
27.642737
 23
106.927467
 33
0.0
  0
MTEXT
  5
D4D
100
AcDbEntity
  8
DIM
100
AcDbMText
 10
25.192737
 20
144.427467
 30
0.0
 40
2.5
 41
0.0
 71
     5
 72
     5
  1
\A1;%%c75%%p0.1
  7
BIGFONT
 11
0.0
 21
1.0
 31
0.0
1001
ACAD
1000
MTEXTBEGIN
1070
    73
1070
     1
1070
    44
1040
1.0
1070
    74
1070
     0
1000
MTEXTEND
  0
POINT
  5
D4E
100
AcDbEntity
  8
DEFPOINTS
 62
     0
100
AcDbPoint
 10
49.785086
 20
181.927467
 30
0.0
  0
POINT
  5
D4F
100
AcDbEntity
  8
DEFPOINTS
 62
     0
100
AcDbPoint
 10
49.785086
 20
106.927467
 30
0.0
  0
POINT
  5
D50
100
AcDbEntity
  8
DEFPOINTS
 62
     0
100
AcDbPoint
 10
27.642737
 20
106.927467
 30
0.0
  0
ENDBLK
  5
C0D
100
AcDbEntity
  8
0
100
AcDbBlockEnd
  0
BLOCK
  5
C19
100
AcDbEntity
  8
0
100
AcDbBlockBegin
  2
*D1
 70
     1
 10
0.0
 20
0.0
 30
0.0
  3
*D1
  1

  0
LINE
  5
D3F
100
AcDbEntity
  8
DIM
 62
     0
100
AcDbLine
 10
49.160086
 20
166.927467
 30
0.0
 11
34.381131
 21
166.927467
 31
0.0
  0
LINE
  5
D40
100
AcDbEntity
  8
DIM
 62
     0
100
AcDbLine
 10
49.160086
 20
121.927467
 30
0.0
 11
34.381131
 21
121.927467
 31
0.0
  0
LINE
  5
D41
100
AcDbEntity
  8
DIM
 62
     0
100
AcDbLine
 10
35.631131
 20
164.427467
 30
0.0
 11
35.631131
 21
124.427467
 31
0.0
  0
SOLID
  5
D42
100
AcDbEntity
  8
DIM
 62
     0
100
AcDbTrace
 10
35.214465
 20
164.427467
 30
0.0
 11
36.047798
 21
164.427467
 31
0.0
 12
35.631131
 22
166.927467
 32
0.0
 13
35.631131
 23
166.927467
 33
0.0
  0
SOLID
  5
D43
100
AcDbEntity
  8
DIM
 62
     0
100
AcDbTrace
 10
35.214465
 20
124.427467
 30
0.0
 11
36.047798
 21
124.427467
 31
0.0
 12
35.631131
 22
121.927467
 32
0.0
 13
35.631131
 23
121.927467
 33
0.0
  0
MTEXT
  5
D44
100
AcDbEntity
  8
DIM
100
AcDbMText
 10
33.181131
 20
144.427467
 30
0.0
 40
2.5
 41
0.0
 71
     5
 72
     5
  1
\A1;%%c45H8
  7
BIGFONT
 11
0.0
 21
1.0
 31
0.0
1001
ACAD
1000
MTEXTBEGIN
1070
    73
1070
     1
1070
    44
1040
1.0
1070
    74
1070
     0
1000
MTEXTEND
  0
POINT
  5
D45
100
AcDbEntity
  8
DEFPOINTS
 62
     0
100
AcDbPoint
 10
49.785086
 20
166.927467
 30
0.0
  0
POINT
  5
D46
100
AcDbEntity
  8
DEFPOINTS
 62
     0
100
AcDbPoint
 10
49.785086
 20
121.927467
 30
0.0
  0
POINT
  5
D47
100
AcDbEntity
  8
DEFPOINTS
 62
     0
100
AcDbPoint
 10
35.631131
 20
121.927467
 30
0.0
  0
ENDBLK
  5
C23
100
AcDbEntity
  8
0
100
AcDbBlockEnd
  0
BLOCK
  5
C5B
100
AcDbEntity
  8
0
100
AcDbBlockBegin
  2
*D2
 70
     1
 10
0.0
 20
0.0
 30
0.0
  3
*D2
  1

  0
LINE
  5
C9C
100
AcDbEntity
  8
DIM
 62
     0
100
AcDbLine
 10
50.785086
 20
109.013819
 30
0.0
 11
50.785086
 21
92.091093
 31
0.0
  0
LINE
  5
C9D
100
AcDbEntity
  8
DIM
 62
     0
100
AcDbLine
 10
64.785086
 20
109.013819
 30
0.0
 11
64.785086
 21
92.091093
 31
0.0
  0
LINE
  5
C9E
100
AcDbEntity
  8
DIM
 62
     0
100
AcDbLine
 10
48.285086
 20
93.341093
 30
0.0
 11
45.785086
 21
93.341093
 31
0.0
  0
LINE
  5
C9F
100
AcDbEntity
  8
DIM
 62
     0
100
AcDbLine
 10
67.285086
 20
93.341093
 30
0.0
 11
69.785086
 21
93.341093
 31
0.0
  0
LINE
  5
CA0
100
AcDbEntity
  8
DIM
 62
     0
100
AcDbLine
 10
50.785086
 20
93.341093
 30
0.0
 11
64.785086
 21
93.341093
 31
0.0
  0
SOLID
  5
CA1
100
AcDbEntity
  8
DIM
 62
     0
100
AcDbTrace
 10
48.285086
 20
93.75776
 30
0.0
 11
48.285086
 21
92.924427
 31
0.0
 12
50.785086
 22
93.341093
 32
0.0
 13
50.785086
 23
93.341093
 33
0.0
  0
SOLID
  5
CA2
100
AcDbEntity
  8
DIM
 62
     0
100
AcDbTrace
 10
67.285086
 20
93.75776
 30
0.0
 11
67.285086
 21
92.924427
 31
0.0
 12
64.785086
 22
93.341093
 32
0.0
 13
64.785086
 23
93.341093
 33
0.0
  0
MTEXT
  5
CA3
100
AcDbEntity
  8
DIM
100
AcDbMText
 10
61.279365
 20
95.791093
 30
0.0
 40
2.5
 41
0.0
 71
     5
 72
     5
  1
\A1;14
  7
BIGFONT
1001
ACAD
1000
MTEXTBEGIN
1070
    73
1070
     1
1070
    44
1040
1.0
1070
    74
1070
     0
1000
MTEXTEND
  0
POINT
  5
CA4
100
AcDbEntity
  8
DEFPOINTS
 62
     0
100
AcDbPoint
 10
50.785086
 20
109.638819
 30
0.0
  0
POINT
  5
CA5
100
AcDbEntity
  8
DEFPOINTS
 62
     0
100
AcDbPoint
 10
64.785086
 20
109.638819
 30
0.0
  0
POINT
  5
CA6
100
AcDbEntity
  8
DEFPOINTS
 62
     0
100
AcDbPoint
 10
64.785086
 20
93.341093
 30
0.0
  0
ENDBLK
  5
C65
100
AcDbEntity
  8
0
100
AcDbBlockEnd
  0
BLOCK
  5
C50
100
AcDbEntity
  8
0
100
AcDbBlockBegin
  2
*D3
 70
     1
 10
0.0
 20
0.0
 30
0.0
  3
*D3
  1

  0
LINE
  5
CC2
100
AcDbEntity
  8
DIM
 62
     0
100
AcDbLine
 10
66.785086
 20
107.302467
 30
0.0
 11
66.785086
 21
83.484753
 31
0.0
  0
LINE
  5
CC3
100
AcDbEntity
  8
DIM
 62
     0
100
AcDbLine
 10
57.785086
 20
105.089521
 30
0.0
 11
57.785086
 21
83.484753
 31
0.0
  0
LINE
  5
CC4
100
AcDbEntity
  8
DIM
 62
     0
100
AcDbLine
 10
64.285086
 20
84.734753
 30
0.0
 11
60.285086
 21
84.734753
 31
0.0
  0
SOLID
  5
CC5
100
AcDbEntity
  8
DIM
 62
     0
100
AcDbTrace
 10
64.285086
 20
85.15142
 30
0.0
 11
64.285086
 21
84.318087
 31
0.0
 12
66.785086
 22
84.734753
 32
0.0
 13
66.785086
 23
84.734753
 33
0.0
  0
SOLID
  5
CC6
100
AcDbEntity
  8
DIM
 62
     0
100
AcDbTrace
 10
60.285086
 20
85.15142
 30
0.0
 11
60.285086
 21
84.318087
 31
0.0
 12
57.785086
 22
84.734753
 32
0.0
 13
57.785086
 23
84.734753
 33
0.0
  0
MTEXT
  5
CC7
100
AcDbEntity
  8
DIM
100
AcDbMText
 10
62.285086
 20
87.184753
 30
0.0
 40
2.5
 41
0.0
 71
     5
 72
     5
  1
\A1;9
  7
BIGFONT
1001
ACAD
1000
MTEXTBEGIN
1070
    73
1070
     1
1070
    44
1040
1.0
1070
    74
1070
     0
1000
MTEXTEND
  0
POINT
  5
CC8
100
AcDbEntity
  8
DEFPOINTS
 62
     0
100
AcDbPoint
 10
66.785086
 20
107.927467
 30
0.0
  0
POINT
  5
CC9
100
AcDbEntity
  8
DEFPOINTS
 62
     0
100
AcDbPoint
 10
57.785086
 20
105.714521
 30
0.0
  0
POINT
  5
CCA
100
AcDbEntity
  8
DEFPOINTS
 62
     0
100
AcDbPoint
 10
57.785086
 20
84.734753
 30
0.0
  0
ENDBLK
  5
C5A
100
AcDbEntity
  8
0
100
AcDbBlockEnd
  0
BLOCK
  5
C45
100
AcDbEntity
  8
0
100
AcDbBlockBegin
  2
*D4
 70
     1
 10
0.0
 20
0.0
 30
0.0
  3
*D4
  1

  0
LINE
  5
CB9
100
AcDbEntity
  8
DIM
 62
     0
100
AcDbLine
 10
48.785086
 20
107.302467
 30
0.0
 11
48.785086
 21
83.484753
 31
0.0
  0
LINE
  5
CBA
100
AcDbEntity
  8
DIM
 62
     0
100
AcDbLine
 10
57.785086
 20
105.089521
 30
0.0
 11
57.785086
 21
83.484753
 31
0.0
  0
LINE
  5
CBB
100
AcDbEntity
  8
DIM
 62
     0
100
AcDbLine
 10
51.285086
 20
84.734753
 30
0.0
 11
55.285086
 21
84.734753
 31
0.0
  0
SOLID
  5
CBC
100
AcDbEntity
  8
DIM
 62
     0
100
AcDbTrace
 10
51.285086
 20
85.15142
 30
0.0
 11
51.285086
 21
84.318087
 31
0.0
 12
48.785086
 22
84.734753
 32
0.0
 13
48.785086
 23
84.734753
 33
0.0
  0
SOLID
  5
CBD
100
AcDbEntity
  8
DIM
 62
     0
100
AcDbTrace
 10
55.285086
 20
85.15142
 30
0.0
 11
55.285086
 21
84.318087
 31
0.0
 12
57.785086
 22
84.734753
 32
0.0
 13
57.785086
 23
84.734753
 33
0.0
  0
MTEXT
  5
CBE
100
AcDbEntity
  8
DIM
100
AcDbMText
 10
53.285086
 20
87.184753
 30
0.0
 40
2.5
 41
0.0
 71
     5
 72
     5
  1
\A1;9
  7
BIGFONT
1001
ACAD
1000
MTEXTBEGIN
1070
    73
1070
     1
1070
    44
1040
1.0
1070
    74
1070
     0
1000
MTEXTEND
  0
POINT
  5
CBF
100
AcDbEntity
  8
DEFPOINTS
 62
     0
100
AcDbPoint
 10
48.785086
 20
107.927467
 30
0.0
  0
POINT
  5
CC0
100
AcDbEntity
  8
DEFPOINTS
 62
     0
100
AcDbPoint
 10
57.785086
 20
105.714521
 30
0.0
  0
POINT
  5
CC1
100
AcDbEntity
  8
DEFPOINTS
 62
     0
100
AcDbPoint
 10
57.785086
 20
84.734753
 30
0.0
  0
ENDBLK
  5
C4F
100
AcDbEntity
  8
0
100
AcDbBlockEnd
  0
BLOCK
  5
C3A
100
AcDbEntity
  8
0
100
AcDbBlockBegin
  2
*D5
 70
     1
 10
0.0
 20
0.0
 30
0.0
  3
*D5
  1

  0
LINE
  5
D51
100
AcDbEntity
  8
DIM
 62
     0
100
AcDbLine
 10
66.785086
 20
106.677467
 30
0.0
 11
66.785086
 21
75.508146
 31
0.0
  0
LINE
  5
D52
100
AcDbEntity
  8
DIM
 62
     0
100
AcDbLine
 10
48.785086
 20
107.302467
 30
0.0
 11
48.785086
 21
75.508146
 31
0.0
  0
LINE
  5
D53
100
AcDbEntity
  8
DIM
 62
     0
100
AcDbLine
 10
64.285086
 20
76.758146
 30
0.0
 11
51.285086
 21
76.758146
 31
0.0
  0
SOLID
  5
D54
100
AcDbEntity
  8
DIM
 62
     0
100
AcDbTrace
 10
64.285086
 20
77.174812
 30
0.0
 11
64.285086
 21
76.341479
 31
0.0
 12
66.785086
 22
76.758146
 32
0.0
 13
66.785086
 23
76.758146
 33
0.0
  0
SOLID
  5
D55
100
AcDbEntity
  8
DIM
 62
     0
100
AcDbTrace
 10
51.285086
 20
77.174812
 30
0.0
 11
51.285086
 21
76.341479
 31
0.0
 12
48.785086
 22
76.758146
 32
0.0
 13
48.785086
 23
76.758146
 33
0.0
  0
MTEXT
  5
D56
100
AcDbEntity
  8
DIM
100
AcDbMText
 10
57.785086
 20
79.208146
 30
0.0
 40
2.5
 41
0.0
 71
     5
 72
     5
  1
\A1;18%%p0.1
  7
BIGFONT
1001
ACAD
1000
MTEXTBEGIN
1070
    73
1070
     1
1070
    44
1040
1.0
1070
    74
1070
     0
1000
MTEXTEND
  0
POINT
  5
D57
100
AcDbEntity
  8
DEFPOINTS
 62
     0
100
AcDbPoint
 10
66.785086
 20
107.302467
 30
0.0
  0
POINT
  5
D58
100
AcDbEntity
  8
DEFPOINTS
 62
     0
100
AcDbPoint
 10
48.785086
 20
107.927467
 30
0.0
  0
POINT
  5
D59
100
AcDbEntity
  8
DEFPOINTS
 62
     0
100
AcDbPoint
 10
48.785086
 20
76.758146
 30
0.0
  0
ENDBLK
  5
C44
100
AcDbEntity
  8
0
100
AcDbBlockEnd
  0
BLOCK
  5
BA1
100
AcDbEntity
  8
0
100
AcDbBlockBegin
  2
*D6
 70
     1
 10
0.0
 20
0.0
 30
0.0
  3
*D6
  1

  0
LINE
  5
D14
100
AcDbEntity
  8
DIM
 62
     0
100
AcDbLine
 10
144.045154
 20
101.302467
 30
0.0
 11
144.045154
 21
85.31707
 31
0.0
  0
LINE
  5
D15
100
AcDbEntity
  8
DIM
 62
     0
100
AcDbLine
 10
130.045154
 20
109.013819
 30
0.0
 11
130.045154
 21
85.31707
 31
0.0
  0
LINE
  5
D16
100
AcDbEntity
  8
DIM
 62
     0
100
AcDbLine
 10
141.545154
 20
86.56707
 30
0.0
 11
132.545154
 21
86.56707
 31
0.0
  0
SOLID
  5
D17
100
AcDbEntity
  8
DIM
 62
     0
100
AcDbTrace
 10
141.545154
 20
86.983737
 30
0.0
 11
141.545154
 21
86.150403
 31
0.0
 12
144.045154
 22
86.56707
 32
0.0
 13
144.045154
 23
86.56707
 33
0.0
  0
SOLID
  5
D18
100
AcDbEntity
  8
DIM
 62
     0
100
AcDbTrace
 10
132.545154
 20
86.983737
 30
0.0
 11
132.545154
 21
86.150403
 31
0.0
 12
130.045154
 22
86.56707
 32
0.0
 13
130.045154
 23
86.56707
 33
0.0
  0
MTEXT
  5
D19
100
AcDbEntity
  8
DIM
100
AcDbMText
 10
137.045154
 20
89.01707
 30
0.0
 40
2.5
 41
0.0
 71
     5
 72
     5
  1
\A1;14
  7
BIGFONT
1001
ACAD
1000
MTEXTBEGIN
1070
    73
1070
     1
1070
    44
1040
1.0
1070
    74
1070
     0
1000
MTEXTEND
  0
POINT
  5
D1A
100
AcDbEntity
  8
DEFPOINTS
 62
     0
100
AcDbPoint
 10
144.045154
 20
101.927467
 30
0.0
  0
POINT
  5
D1B
100
AcDbEntity
  8
DEFPOINTS
 62
     0
100
AcDbPoint
 10
130.045154
 20
109.638819
 30
0.0
  0
POINT
  5
D1C
100
AcDbEntity
  8
DEFPOINTS
 62
     0
100
AcDbPoint
 10
130.045154
 20
86.56707
 30
0.0
  0
ENDBLK
  5
BAB
100
AcDbEntity
  8
0
100
AcDbBlockEnd
  0
BLOCK
  5
BBD
100
AcDbEntity
  8
0
100
AcDbBlockBegin
  2
*D7
 70
     1
 10
0.0
 20
0.0
 30
0.0
  3
*D7
  1

  0
LINE
  5
BBE
100
AcDbEntity
  8
0
  6
BYBLOCK
 62
     0
100
AcDbLine
 10
96.723129
 20
144.427467
 30
0.0
 11
90.04267
 21
144.427467
 31
0.0
  0
LINE
  5
BBF
100
AcDbEntity
  8
0
  6
BYBLOCK
 62
     0
100
AcDbLine
 10
107.250485
 20
116.427467
 30
0.0
 11
90.04267
 21
116.427467
 31
0.0
  0
LINE
  5
BC0
100
AcDbEntity
  8
0
  6
BYBLOCK
 62
     0
100
AcDbLine
 10
91.29267
 20
141.927467
 30
0.0
 11
91.29267
 21
118.927467
 31
0.0
  0
SOLID
  5
BC1
100
AcDbEntity
  8
0
  6
BYBLOCK
 62
     0
100
AcDbTrace
 10
90.876003
 20
141.927467
 30
0.0
 11
91.709337
 21
141.927467
 31
0.0
 12
91.29267
 22
144.427467
 32
0.0
 13
91.29267
 23
144.427467
 33
0.0
  0
SOLID
  5
BC2
100
AcDbEntity
  8
0
  6
BYBLOCK
 62
     0
100
AcDbTrace
 10
90.876003
 20
118.927467
 30
0.0
 11
91.709337
 21
118.927467
 31
0.0
 12
91.29267
 22
116.427467
 32
0.0
 13
91.29267
 23
116.427467
 33
0.0
  0
MTEXT
  5
BC3
100
AcDbEntity
  8
0
  6
BYBLOCK
100
AcDbMText
 10
88.84267
 20
130.427467
 30
0.0
 40
2.5
 41
0.0
 71
     5
 72
     5
  1
\A1;28
  7
BIGFONT
 11
0.0
 21
1.0
 31
0.0
1001
ACAD
1000
MTEXTBEGIN
1070
    73
1070
     1
1070
    44
1040
1.0
1070
    74
1070
     0
1000
MTEXTEND
  0
POINT
  5
BC4
100
AcDbEntity
  8
DEFPOINTS
  6
BYBLOCK
 62
     0
100
AcDbPoint
 10
97.348129
 20
144.427467
 30
0.0
  0
POINT
  5
BC5
100
AcDbEntity
  8
DEFPOINTS
  6
BYBLOCK
 62
     0
100
AcDbPoint
 10
107.875485
 20
116.427467
 30
0.0
  0
POINT
  5
BC6
100
AcDbEntity
  8
DEFPOINTS
  6
BYBLOCK
 62
     0
100
AcDbPoint
 10
91.29267
 20
116.427467
 30
0.0
  0
ENDBLK
  5
BC7
100
AcDbEntity
  8
0
100
AcDbBlockEnd
  0
BLOCK
  5
BCE
100
AcDbEntity
  8
0
100
AcDbBlockBegin
  2
*D8
 70
     1
 10
0.0
 20
0.0
 30
0.0
  3
*D8
  1

  0
LINE
  5
D5A
100
AcDbEntity
  8
DIM
 62
     0
100
AcDbLine
 10
81.085342
 20
125.241056
 30
0.0
 11
66.67065
 21
119.788533
 31
0.0
  0
MTEXT
  5
D5B
100
AcDbEntity
  8
DIM
100
AcDbMText
 10
74.809259
 20
125.486473
 30
0.0
 40
2.5
 41
0.0
 71
     5
 72
     5
  1
\A1;2-R7
  7
BIGFONT
 11
0.935322
 21
0.353796
 31
0.0
1001
ACAD
1000
MTEXTBEGIN
1070
    73
1070
     1
1070
    44
1040
1.0
1070
    74
1070
     0
1000
MTEXTEND
  0
LINE
  5
D5C
100
AcDbEntity
  8
DIM
 62
     0
100
AcDbLine
 10
57.785086
 20
116.427467
 30
0.0
 11
64.332343
 21
118.904042
 31
0.0
  0
SOLID
  5
D5D
100
AcDbEntity
  8
DIM
 62
     0
100
AcDbTrace
 10
66.523234
 20
120.178251
 30
0.0
 11
66.818065
 21
119.398815
 31
0.0
 12
64.332343
 22
118.904042
 32
0.0
 13
64.332343
 23
118.904042
 33
0.0
  0
POINT
  5
D5E
100
AcDbEntity
  8
DEFPOINTS
 62
     0
100
AcDbPoint
 10
64.332343
 20
118.904042
 30
0.0
  0
POINT
  5
D5F
100
AcDbEntity
  8
DEFPOINTS
 62
     0
100
AcDbPoint
 10
57.785086
 20
116.427467
 30
0.0
  0
ENDBLK
  5
BD5
100
AcDbEntity
  8
0
100
AcDbBlockEnd
  0
BLOCK
  5
BF0
100
AcDbEntity
  8
0
100
AcDbBlockBegin
  2
*D9
 70
     1
 10
0.0
 20
0.0
 30
0.0
  3
*D9
  1

  0
LINE
  5
D09
100
AcDbEntity
  8
DIM
 62
     0
100
AcDbLine
 10
142.545154
 20
106.332479
 30
0.0
 11
142.545154
 21
93.299901
 31
0.0
  0
LINE
  5
D0A
100
AcDbEntity
  8
DIM
 62
     0
100
AcDbLine
 10
145.545154
 20
106.332479
 30
0.0
 11
145.545154
 21
93.299901
 31
0.0
  0
LINE
  5
D0B
100
AcDbEntity
  8
DIM
 62
     0
100
AcDbLine
 10
140.045154
 20
94.549901
 30
0.0
 11
137.545154
 21
94.549901
 31
0.0
  0
LINE
  5
D0C
100
AcDbEntity
  8
DIM
 62
     0
100
AcDbLine
 10
148.045154
 20
94.549901
 30
0.0
 11
154.611821
 21
94.549901
 31
0.0
  0
LINE
  5
D0D
100
AcDbEntity
  8
DIM
 62
     0
100
AcDbLine
 10
142.545154
 20
94.549901
 30
0.0
 11
145.545154
 21
94.549901
 31
0.0
  0
SOLID
  5
D0E
100
AcDbEntity
  8
DIM
 62
     0
100
AcDbTrace
 10
140.045154
 20
94.966567
 30
0.0
 11
140.045154
 21
94.133234
 31
0.0
 12
142.545154
 22
94.549901
 32
0.0
 13
142.545154
 23
94.549901
 33
0.0
  0
SOLID
  5
D0F
100
AcDbEntity
  8
DIM
 62
     0
100
AcDbTrace
 10
148.045154
 20
94.966567
 30
0.0
 11
148.045154
 21
94.133234
 31
0.0
 12
145.545154
 22
94.549901
 32
0.0
 13
145.545154
 23
94.549901
 33
0.0
  0
MTEXT
  5
D10
100
AcDbEntity
  8
DIM
100
AcDbMText
 10
152.578488
 20
96.999901
 30
0.0
 40
2.5
 41
0.0
 71
     5
 72
     5
  1
\A1;3
  7
BIGFONT
1001
ACAD
1000
MTEXTBEGIN
1070
    73
1070
     1
1070
    44
1040
1.0
1070
    74
1070
     0
1000
MTEXTEND
  0
POINT
  5
D11
100
AcDbEntity
  8
DEFPOINTS
 62
     0
100
AcDbPoint
 10
142.545154
 20
106.957479
 30
0.0
  0
POINT
  5
D12
100
AcDbEntity
  8
DEFPOINTS
 62
     0
100
AcDbPoint
 10
145.545154
 20
106.957479
 30
0.0
  0
POINT
  5
D13
100
AcDbEntity
  8
DEFPOINTS
 62
     0
100
AcDbPoint
 10
145.545154
 20
94.549901
 30
0.0
  0
ENDBLK
  5
BFC
100
AcDbEntity
  8
0
100
AcDbBlockEnd
  0
BLOCK
  5
D7A
100
AcDbEntity
  8
0
100
AcDbBlockBegin
  2
*D10
 70
     1
 10
0.0
 20
0.0
 30
0.0
  3
*D10
  1

  0
LINE
  5
D71
100
AcDbEntity
  8
DIM
 62
     0
100
AcDbLine
 10
111.44751
 20
172.427467
 30
0.0
 11
94.239695
 21
172.427467
 31
0.0
  0
LINE
  5
D72
100
AcDbEntity
  8
DIM
 62
     0
100
AcDbLine
 10
100.920154
 20
144.427467
 30
0.0
 11
94.239695
 21
144.427467
 31
0.0
  0
LINE
  5
D73
100
AcDbEntity
  8
DIM
 62
     0
100
AcDbLine
 10
95.489695
 20
169.927467
 30
0.0
 11
95.489695
 21
146.927467
 31
0.0
  0
SOLID
  5
D74
100
AcDbEntity
  8
DIM
 62
     0
100
AcDbTrace
 10
95.073028
 20
169.927467
 30
0.0
 11
95.906361
 21
169.927467
 31
0.0
 12
95.489695
 22
172.427467
 32
0.0
 13
95.489695
 23
172.427467
 33
0.0
  0
SOLID
  5
D75
100
AcDbEntity
  8
DIM
 62
     0
100
AcDbTrace
 10
95.073028
 20
146.927467
 30
0.0
 11
95.906361
 21
146.927467
 31
0.0
 12
95.489695
 22
144.427467
 32
0.0
 13
95.489695
 23
144.427467
 33
0.0
  0
MTEXT
  5
D76
100
AcDbEntity
  8
DIM
100
AcDbMText
 10
93.039695
 20
158.427467
 30
0.0
 40
2.5
 41
0.0
 71
     5
 72
     5
  1
\A1;28
  7
BIGFONT
 11
0.0
 21
1.0
 31
0.0
1001
ACAD
1000
MTEXTBEGIN
1070
    73
1070
     1
1070
    44
1040
1.0
1070
    74
1070
     0
1000
MTEXTEND
  0
POINT
  5
D77
100
AcDbEntity
  8
DEFPOINTS
 62
     0
100
AcDbPoint
 10
112.07251
 20
172.427467
 30
0.0
  0
POINT
  5
D78
100
AcDbEntity
  8
DEFPOINTS
 62
     0
100
AcDbPoint
 10
101.545154
 20
144.427467
 30
0.0
  0
POINT
  5
D79
100
AcDbEntity
  8
DEFPOINTS
 62
     0
100
AcDbPoint
 10
95.489695
 20
144.427467
 30
0.0
  0
ENDBLK
  5
D7B
100
AcDbEntity
  8
0
100
AcDbBlockEnd
  0
BLOCK
  5
DDB
100
AcDbEntity
  8
0
100
AcDbBlockBegin
  2
_OPEN30
 70
     0
 10
0.0
 20
0.0
 30
0.0
  3
_OPEN30
  1

  0
LINE
  5
DD8
100
AcDbEntity
  8
0
 62
     0
100
AcDbLine
 10
-1.0
 20
0.267949
 30
0.0
 11
0.0
 21
0.0
 31
0.0
  0
LINE
  5
DD9
100
AcDbEntity
  8
0
 62
     0
100
AcDbLine
 10
0.0
 20
0.0
 30
0.0
 11
-1.0
 21
-0.267949
 31
0.0
  0
LINE
  5
DDA
100
AcDbEntity
  8
0
 62
     0
100
AcDbLine
 10
0.0
 20
0.0
 30
0.0
 11
-1.0
 21
0.0
 31
0.0
  0
ENDBLK
  5
DDC
100
AcDbEntity
  8
0
100
AcDbBlockEnd
  0
ENDSEC
  0
SECTION
  2
ENTITIES
  0
TEXT
  5
3E9
100
AcDbEntity
  8
図枠部品表
 62
     3
100
AcDbText
 10
403.65269
 20
422.521663
 30
0.0
 40
2.4325
  1

 41
0.8
  7
KANJI
 72
     1
 11
403.65269
 21
423.737913
 31
0.0
100
AcDbText
 73
     2
  0
TEXT
  5
A9F
100
AcDbEntity
  8
図枠
 62
     7
100
AcDbText
 10
162.933452
 20
10.11536
 30
0.0
 40
2.6
  1

  7
KANJI
 72
     1
 11
162.933452
 21
11.41536
 31
0.0
100
AcDbText
 73
     2
  0
LINE
  5
AFC
100
AcDbEntity
  8
CENTER
100
AcDbLine
 10
101.545154
 20
144.427467
 30
0.0
 11
186.545154
 21
144.427467
 31
0.0
  0
LINE
  5
AFD
100
AcDbEntity
  8
CENTER
100
AcDbLine
 10
144.045154
 20
98.495877
 30
0.0
 11
144.045154
 21
186.927467
 31
0.0
  0
ARC
  5
AFF
100
AcDbEntity
  8
0
100
AcDbCircle
 10
144.045154
 20
144.427467
 30
0.0
 40
37.5
100
AcDbArc
 50
272.292443
 51
87.707557
  0
ARC
  5
B00
100
AcDbEntity
  8
0
100
AcDbCircle
 10
144.045154
 20
144.427467
 30
0.0
 40
22.5
100
AcDbArc
 50
273.822554
 51
86.177446
  0
ARC
  5
B01
100
AcDbEntity
  8
0
100
AcDbCircle
 10
144.045154
 20
144.427467
 30
0.0
 40
36.5
100
AcDbArc
 50
272.355284
 51
87.644716
  0
ARC
  5
B02
100
AcDbEntity
  8
0
100
AcDbCircle
 10
144.045154
 20
144.427467
 30
0.0
 40
23.5
100
AcDbArc
 50
273.659665
 51
86.340335
  0
LINE
  5
B08
100
AcDbEntity
  8
CENTER
100
AcDbLine
 10
112.07251
 20
116.427467
 30
0.0
 11
176.017799
 21
116.427467
 31
0.0
  0
LINE
  5
B28
100
AcDbEntity
  8
CENTER
100
AcDbLine
 10
71.785086
 20
144.427467
 30
0.0
 11
43.785086
 21
144.427467
 31
0.0
  0
LINE
  5
B2B
100
AcDbEntity
  8
CENTER
 48
0.5
100
AcDbLine
 10
57.785086
 20
127.140413
 30
0.0
 11
57.785086
 21
105.714521
 31
0.0
  0
LINE
  5
B2D
100
AcDbEntity
  8
0
100
AcDbLine
 10
65.785086
 20
181.927467
 30
0.0
 11
49.785086
 21
181.927467
 31
0.0
  0
LINE
  5
B2F
100
AcDbEntity
  8
0
100
AcDbLine
 10
49.785086
 20
106.927467
 30
0.0
 11
65.785086
 21
106.927467
 31
0.0
  0
LINE
  5
B31
100
AcDbEntity
  8
0
100
AcDbLine
 10
66.785086
 20
180.927467
 30
0.0
 11
66.785086
 21
107.927467
 31
0.0
  0
LINE
  5
B33
100
AcDbEntity
  8
0
100
AcDbLine
 10
48.785086
 20
107.927467
 30
0.0
 11
48.785086
 21
180.927467
 31
0.0
  0
LINE
  5
B34
100
AcDbEntity
  8
0
100
AcDbLine
 10
66.785086
 20
180.927467
 30
0.0
 11
65.785086
 21
181.927467
 31
0.0
  0
LINE
  5
B35
100
AcDbEntity
  8
0
100
AcDbLine
 10
66.785086
 20
107.927467
 30
0.0
 11
65.785086
 21
106.927467
 31
0.0
  0
LINE
  5
B36
100
AcDbEntity
  8
0
100
AcDbLine
 10
49.785086
 20
106.927467
 30
0.0
 11
48.785086
 21
107.927467
 31
0.0
  0
LINE
  5
B37
100
AcDbEntity
  8
0
100
AcDbLine
 10
48.785086
 20
180.927467
 30
0.0
 11
49.785086
 21
181.927467
 31
0.0
  0
LINE
  5
B39
100
AcDbEntity
  8
0
100
AcDbLine
 10
65.785086
 20
181.927467
 30
0.0
 11
65.785086
 21
106.927467
 31
0.0
  0
LINE
  5
B3A
100
AcDbEntity
  8
0
100
AcDbLine
 10
49.785086
 20
106.927467
 30
0.0
 11
49.785086
 21
181.927467
 31
0.0
  0
LINE
  5
B3B
100
AcDbEntity
  8
CENTER
 48
0.5
100
AcDbLine
 10
68.498032
 20
116.427467
 30
0.0
 11
47.07214
 21
116.427467
 31
0.0
  0
LINE
  5
B4C
100
AcDbEntity
  8
0
  6
HIDDEN
100
AcDbLine
 10
65.785086
 20
166.927467
 30
0.0
 11
49.785086
 21
166.927467
 31
0.0
  0
LINE
  5
B4D
100
AcDbEntity
  8
0
  6
HIDDEN
100
AcDbLine
 10
65.785086
 20
121.927467
 30
0.0
 11
49.785086
 21
121.927467
 31
0.0
  0
LINE
  5
B4E
100
AcDbEntity
  8
0
100
AcDbLine
 10
65.785086
 20
166.927467
 30
0.0
 11
66.785086
 21
167.927467
 31
0.0
  0
LINE
  5
B4F
100
AcDbEntity
  8
0
100
AcDbLine
 10
49.785086
 20
166.927467
 30
0.0
 11
48.785086
 21
167.927467
 31
0.0
  0
LINE
  5
B50
100
AcDbEntity
  8
0
100
AcDbLine
 10
49.785086
 20
121.927467
 30
0.0
 11
48.785086
 21
120.927467
 31
0.0
  0
LINE
  5
B51
100
AcDbEntity
  8
0
100
AcDbLine
 10
65.785086
 20
121.927467
 30
0.0
 11
66.785086
 21
120.927467
 31
0.0
  0
LINE
  5
BED
100
AcDbEntity
  8
0
100
AcDbLine
 10
145.545154
 20
106.957479
 30
0.0
 11
145.545154
 21
121.977523
 31
0.0
  0
LINE
  5
BEE
100
AcDbEntity
  8
0
100
AcDbLine
 10
142.545154
 20
181.897455
 30
0.0
 11
142.545154
 21
166.877411
 31
0.0
  0
LINE
  5
D60
100
AcDbEntity
  8
0
  6
HIDDEN
100
AcDbLine
 10
130.045154
 20
176.927467
 30
0.0
 11
142.545154
 21
176.927467
 31
0.0
  0
LINE
  5
D61
100
AcDbEntity
  8
0
  6
HIDDEN
100
AcDbLine
 10
130.045154
 20
167.927467
 30
0.0
 11
142.545154
 21
167.927467
 31
0.0
  0
LINE
  5
D62
100
AcDbEntity
  8
CENTER
100
AcDbLine
 10
112.07251
 20
172.427467
 30
0.0
 11
176.017799
 21
172.427467
 31
0.0
  0
LINE
  5
D63
100
AcDbEntity
  8
0
  6
HIDDEN
100
AcDbLine
 10
130.045154
 20
179.216114
 30
0.0
 11
130.045154
 21
165.427467
 31
0.0
  0
LINE
  5
D64
100
AcDbEntity
  8
0
  6
HIDDEN
100
AcDbLine
 10
112.976681
 20
165.427467
 30
0.0
 11
130.045154
 21
165.427467
 31
0.0
  0
LINE
  5
D65
100
AcDbEntity
  8
0
  6
HIDDEN
 62
     3
100
AcDbLine
 10
159.278342
 20
176.427467
 30
0.0
 11
163.596369
 21
176.427467
 31
0.0
  0
LINE
  5
D68
100
AcDbEntity
  8
0
  6
HIDDEN
 62
     3
100
AcDbLine
 10
159.278342
 20
168.427467
 30
0.0
 11
172.859213
 21
168.427467
 31
0.0
  0
ARC
  5
D69
100
AcDbEntity
  8
0
100
AcDbCircle
 10
144.045154
 20
144.427467
 30
0.0
 40
36.5
100
AcDbArc
 50
92.355284
 51
267.644716
  0
ARC
  5
D6A
100
AcDbEntity
  8
0
100
AcDbCircle
 10
144.045154
 20
144.427467
 30
0.0
 40
37.5
100
AcDbArc
 50
92.292443
 51
267.707557
  0
ARC
  5
D6B
100
AcDbEntity
  8
0
100
AcDbCircle
 10
144.045154
 20
144.427467
 30
0.0
 40
23.5
100
AcDbArc
 50
93.659665
 51
266.340335
  0
ARC
  5
D6C
100
AcDbEntity
  8
0
100
AcDbCircle
 10
144.045154
 20
144.427467
 30
0.0
 40
22.5
100
AcDbArc
 50
93.822554
 51
266.177446
  0
LINE
  5
D6D
100
AcDbEntity
  8
0
100
AcDbLine
 10
145.545154
 20
166.877411
 30
0.0
 11
145.545154
 21
181.897455
 31
0.0
  0
LINE
  5
D6E
100
AcDbEntity
  8
0
100
AcDbLine
 10
142.545154
 20
121.977523
 30
0.0
 11
142.545154
 21
106.957479
 31
0.0
  0
LINE
  5
D7F
100
AcDbEntity
  8
CENTER
 48
0.5
100
AcDbLine
 10
68.498032
 20
172.427467
 30
0.0
 11
47.07214
 21
172.427467
 31
0.0
  0
ARC
  5
D80
100
AcDbEntity
  8
0
100
AcDbCircle
 10
57.785086
 20
172.427467
 30
0.0
 40
7.0
100
AcDbArc
 50
180.0
 51
0.0
  0
LINE
  5
D81
100
AcDbEntity
  8
0
100
AcDbLine
 10
50.785086
 20
172.427467
 30
0.0
 11
50.785086
 21
179.216114
 31
0.0
  0
LINE
  5
D82
100
AcDbEntity
  8
0
100
AcDbLine
 10
64.785086
 20
179.216114
 30
0.0
 11
50.785086
 21
179.216114
 31
0.0
  0
LINE
  5
D83
100
AcDbEntity
  8
CENTER
 48
0.5
100
AcDbLine
 10
57.785086
 20
161.714521
 30
0.0
 11
57.785086
 21
183.140413
 31
0.0
  0
LINE
  5
D84
100
AcDbEntity
  8
0
100
AcDbLine
 10
64.785086
 20
172.427467
 30
0.0
 11
64.785086
 21
179.216114
 31
0.0
  0
LINE
  5
D9C
100
AcDbEntity
  8
0
100
AcDbLine
 10
-34.586035
 20
107.927467
 30
0.0
 11
-34.586035
 21
120.927467
 31
0.0
  0
LINE
  5
D9D
100
AcDbEntity
  8
0
100
AcDbLine
 10
-16.586035
 20
180.927467
 30
0.0
 11
-16.586035
 21
167.927467
 31
0.0
  0
LINE
  5
D9F
100
AcDbEntity
  8
CENTER
 48
0.5
100
AcDbLine
 10
-25.586035
 20
127.140413
 30
0.0
 11
-25.586035
 21
105.714521
 31
0.0
  0
LINE
  5
DA0
100
AcDbEntity
  8
0
100
AcDbLine
 10
-17.586035
 20
121.927467
 30
0.0
 11
-33.586035
 21
121.927467
 31
0.0
  0
CIRCLE
  5
DA2
100
AcDbEntity
  8
0
100
AcDbCircle
 10
-25.586035
 20
116.427467
 30
0.0
 40
4.0
  0
CIRCLE
  5
DA3
100
AcDbEntity
  8
0
100
AcDbCircle
 10
-25.586035
 20
116.427467
 30
0.0
 40
4.5
  0
CIRCLE
  5
DA4
100
AcDbEntity
  8
0
 62
     3
100
AcDbCircle
 10
-25.586035
 20
116.427467
 30
0.0
 40
3.3235
  0
LINE
  5
DA5
100
AcDbEntity
  8
CENTER
 48
0.5
100
AcDbLine
 10
-14.873088
 20
116.427467
 30
0.0
 11
-36.298981
 21
116.427467
 31
0.0
  0
LINE
  5
DA6
100
AcDbEntity
  8
0
100
AcDbLine
 10
-33.586035
 20
106.927467
 30
0.0
 11
-17.586035
 21
106.927467
 31
0.0
  0
LINE
  5
DA8
100
AcDbEntity
  8
0
100
AcDbLine
 10
-33.586035
 20
106.927467
 30
0.0
 11
-34.586035
 21
107.927467
 31
0.0
  0
LINE
  5
DA9
100
AcDbEntity
  8
0
100
AcDbLine
 10
-33.586035
 20
121.927467
 30
0.0
 11
-34.586035
 21
120.927467
 31
0.0
  0
LINE
  5
DAB
100
AcDbEntity
  8
0
100
AcDbLine
 10
-16.586035
 20
107.927467
 30
0.0
 11
-17.586035
 21
106.927467
 31
0.0
  0
LINE
  5
DAC
100
AcDbEntity
  8
0
100
AcDbLine
 10
-17.586035
 20
121.927467
 30
0.0
 11
-16.586035
 21
120.927467
 31
0.0
  0
LINE
  5
DAD
100
AcDbEntity
  8
CENTER
100
AcDbLine
 10
-11.586035
 20
144.427467
 30
0.0
 11
-39.586035
 21
144.427467
 31
0.0
  0
LINE
  5
DAE
100
AcDbEntity
  8
CENTER
 48
0.5
100
AcDbLine
 10
-25.586035
 20
161.714521
 30
0.0
 11
-25.586035
 21
183.140413
 31
0.0
  0
CIRCLE
  5
DB0
100
AcDbEntity
  8
0
 62
     3
100
AcDbCircle
 10
-25.586035
 20
172.427467
 30
0.0
 40
3.3235
  0
CIRCLE
  5
DB1
100
AcDbEntity
  8
0
100
AcDbCircle
 10
-25.586035
 20
172.427467
 30
0.0
 40
4.5
  0
CIRCLE
  5
DB2
100
AcDbEntity
  8
0
100
AcDbCircle
 10
-25.586035
 20
172.427467
 30
0.0
 40
4.0
  0
LINE
  5
DB3
100
AcDbEntity
  8
0
100
AcDbLine
 10
-17.586035
 20
166.927467
 30
0.0
 11
-33.586035
 21
166.927467
 31
0.0
  0
LINE
  5
DB4
100
AcDbEntity
  8
0
100
AcDbLine
 10
-33.586035
 20
166.927467
 30
0.0
 11
-34.586035
 21
167.927467
 31
0.0
  0
LINE
  5
DB5
100
AcDbEntity
  8
0
100
AcDbLine
 10
-17.586035
 20
166.927467
 30
0.0
 11
-16.586035
 21
167.927467
 31
0.0
  0
LINE
  5
DB7
100
AcDbEntity
  8
CENTER
 48
0.5
100
AcDbLine
 10
-14.873088
 20
172.427467
 30
0.0
 11
-36.298981
 21
172.427467
 31
0.0
  0
LINE
  5
DB8
100
AcDbEntity
  8
0
100
AcDbLine
 10
-17.586035
 20
181.927467
 30
0.0
 11
-33.586035
 21
181.927467
 31
0.0
  0
LINE
  5
DBA
100
AcDbEntity
  8
0
100
AcDbLine
 10
-34.586035
 20
180.927467
 30
0.0
 11
-33.586035
 21
181.927467
 31
0.0
  0
LINE
  5
DBC
100
AcDbEntity
  8
0
100
AcDbLine
 10
-16.586035
 20
180.927467
 30
0.0
 11
-17.586035
 21
181.927467
 31
0.0
  0
POINT
  5
E5E
100
AcDbEntity
  8
0
 60
     1
100
AcDbPoint
 10
253.292097
 20
177.15347
 30
0.0
1001
GENIUS_GENOBJ-NBEHI-BHF_13
1002
{
1000
OWNER
1000
GENBEHI
1002
}
1001
GENIUS_GENOENT_13
1002
{
1000
MYREF
1005
E5E
1002
}
1002
{
1000
GRP
1005
0
1002
}
1001
GENIUS_GENOLIS_13
1002
{
1000
ENT
1005
0
1002
}
1001
GENIUS_GENBH_13
1002
{
1000
OIUMAP
1000
OIU
1002
}
1002
{
1000
FLAGS
1070
    32
1002
}
1002
{
1000
BGO
1005
E5F
1002
}
1001
GENIUS_GENODEF_13
1002
{
1000
HIER
1070
     1
1002
}
1002
{
1000
MANEDIT
1070
     1
1002
}
1002
{
1000
NOSEL
1070
     1
1002
}
1002
{
1000
BEHIND
1070
     0
1002
}
1002
{
1000
REACTOR
1002
}
  0
POINT
  5
E5F
100
AcDbEntity
  8
0
 60
     1
100
AcDbPoint
 10
253.292097
 20
177.15347
 30
0.0
1001
GENIUS_GENOBJ-NBEHI-BHB_13
1002
{
1000
OWNER
1000
GENBEHI
1002
}
1001
GENIUS_GENOENT_13
1002
{
1000
MYREF
1005
E5F
1002
}
1002
{
1000
GRP
1005
0
1002
}
1001
GENIUS_GENOLIS_13
1002
{
1000
ENT
1002
}
1001
GENIUS_GENODEF_13
1002
{
1000
HIER
1070
     1
1002
}
1002
{
1000
MANEDIT
1070
     0
1002
}
1002
{
1000
NOSEL
1070
     1
1002
}
1002
{
1000
BEHIND
1070
     0
1002
}
1002
{
1000
REACTOR
1002
}
1002
{
1000
OTHER
1070
     1
1002
}
1001
GENIUS_GENBH_13
1002
{
1000
FGO
1005
E5E
1002
}
  0
POINT
  5
E60
100
AcDbEntity
  8
0
 60
     1
100
AcDbPoint
 10
253.292097
 20
177.15347
 30
0.0
1001
GENIUS_GENOBJ-NBEHI-BHF_13
1002
{
1000
OWNER
1000
GENBEHI
1002
}
1001
GENIUS_GENOENT_13
1002
{
1000
MYREF
1005
E60
1002
}
1002
{
1000
GRP
1005
0
1002
}
1001
GENIUS_GENOLIS_13
1002
{
1000
ENT
1005
0
1002
}
1001
GENIUS_GENODEF_13
1002
{
1000
HIER
1070
     1
1002
}
1002
{
1000
MANEDIT
1070
     0
1002
}
1002
{
1000
NOSEL
1070
     1
1002
}
1002
{
1000
BEHIND
1070
     0
1002
}
1002
{
1000
REACTOR
1002
}
1001
GENIUS_GENBH_13
1002
{
1000
OIUMAP
1000
OIU
1002
}
1002
{
1000
FLAGS
1070
    32
1002
}
1002
{
1000
BGO
1005
E61
1002
}
  0
POINT
  5
E61
100
AcDbEntity
  8
0
 60
     1
100
AcDbPoint
 10
253.292097
 20
177.15347
 30
0.0
1001
GENIUS_GENOBJ-NBEHI-BHB_13
1002
{
1000
OWNER
1000
GENBEHI
1002
}
1001
GENIUS_GENOENT_13
1002
{
1000
MYREF
1005
E61
1002
}
1002
{
1000
GRP
1005
0
1002
}
1001
GENIUS_GENOLIS_13
1002
{
1000
ENT
1002
}
1001
GENIUS_GENODEF_13
1002
{
1000
HIER
1070
     1
1002
}
1002
{
1000
MANEDIT
1070
     0
1002
}
1002
{
1000
NOSEL
1070
     1
1002
}
1002
{
1000
BEHIND
1070
     0
1002
}
1002
{
1000
REACTOR
1002
}
1002
{
1000
OTHER
1070
     1
1002
}
1001
GENIUS_GENBH_13
1002
{
1000
FGO
1005
E60
1002
}
  0
POINT
  5
E62
100
AcDbEntity
  8
0
 60
     1
100
AcDbPoint
 10
253.292097
 20
177.15347
 30
0.0
1001
GENIUS_GENOBJ-NBEHI-BHF_13
1002
{
1000
OWNER
1000
GENBEHI
1002
}
1001
GENIUS_GENOENT_13
1002
{
1000
MYREF
1005
E62
1002
}
1002
{
1000
GRP
1005
0
1002
}
1001
GENIUS_GENOLIS_13
1002
{
1000
ENT
1005
0
1002
}
1001
GENIUS_GENBH_13
1002
{
1000
OIUMAP
1000
OIU
1002
}
1002
{
1000
FLAGS
1070
    32
1002
}
1002
{
1000
BGO
1005
E63
1002
}
1001
GENIUS_GENODEF_13
1002
{
1000
HIER
1070
     1
1002
}
1002
{
1000
MANEDIT
1070
     1
1002
}
1002
{
1000
NOSEL
1070
     1
1002
}
1002
{
1000
BEHIND
1070
     0
1002
}
1002
{
1000
REACTOR
1002
}
  0
POINT
  5
E63
100
AcDbEntity
  8
0
 60
     1
100
AcDbPoint
 10
253.292097
 20
177.15347
 30
0.0
1001
GENIUS_GENOBJ-NBEHI-BHB_13
1002
{
1000
OWNER
1000
GENBEHI
1002
}
1001
GENIUS_GENOENT_13
1002
{
1000
MYREF
1005
E63
1002
}
1002
{
1000
GRP
1005
0
1002
}
1001
GENIUS_GENOLIS_13
1002
{
1000
ENT
1002
}
1001
GENIUS_GENODEF_13
1002
{
1000
HIER
1070
     1
1002
}
1002
{
1000
MANEDIT
1070
     0
1002
}
1002
{
1000
NOSEL
1070
     1
1002
}
1002
{
1000
BEHIND
1070
     0
1002
}
1002
{
1000
REACTOR
1002
}
1002
{
1000
OTHER
1070
     1
1002
}
1001
GENIUS_GENBH_13
1002
{
1000
FGO
1005
E62
1002
}
  0
POINT
  5
E64
100
AcDbEntity
  8
0
 60
     1
100
AcDbPoint
 10
253.292097
 20
177.15347
 30
0.0
1001
GENIUS_GENOBJ-F-SCPASSM_13
1002
{
1000
OWNER
1000
GEF
1002
}
1001
GENIUS_GENOENT_13
1002
{
1000
MYREF
1005
E64
1002
}
1002
{
1000
GRP
1005
0
1002
}
1001
GENIUS_GENOLIS_13
1002
{
1000
ENT
1005
0
1005
0
1002
}
1001
GENIUS_GENODEF_13
1002
{
1000
HIER
1070
   200
1002
}
1002
{
1000
MANEDIT
1070
     1
1002
}
1002
{
1000
NOSEL
1070
     0
1002
}
1002
{
1000
BEHIND
1070
     0
1002
}
1002
{
1000
REACTOR
1002
}
  0
POINT
  5
E65
100
AcDbEntity
  8
0
 60
     1
100
AcDbPoint
 10
253.292097
 20
177.15347
 30
0.0
1001
GENIUS_GENOBJ-NBEHI-BHF_13
1002
{
1000
OWNER
1000
GENBEHI
1002
}
1001
GENIUS_GENOENT_13
1002
{
1000
MYREF
1005
E65
1002
}
1002
{
1000
GRP
1005
0
1002
}
1001
GENIUS_GENOLIS_13
1002
{
1000
ENT
1005
0
1002
}
1001
GENIUS_GENODEF_13
1002
{
1000
HIER
1070
     1
1002
}
1002
{
1000
MANEDIT
1070
     0
1002
}
1002
{
1000
NOSEL
1070
     1
1002
}
1002
{
1000
BEHIND
1070
     0
1002
}
1002
{
1000
REACTOR
1002
}
1001
GENIUS_GENBH_13
1002
{
1000
OIUMAP
1000
OIU
1002
}
1002
{
1000
FLAGS
1070
    32
1002
}
1002
{
1000
BGO
1005
E66
1002
}
  0
POINT
  5
E66
100
AcDbEntity
  8
0
 60
     1
100
AcDbPoint
 10
253.292097
 20
177.15347
 30
0.0
1001
GENIUS_GENOBJ-NBEHI-BHB_13
1002
{
1000
OWNER
1000
GENBEHI
1002
}
1001
GENIUS_GENOENT_13
1002
{
1000
MYREF
1005
E66
1002
}
1002
{
1000
GRP
1005
0
1002
}
1001
GENIUS_GENOLIS_13
1002
{
1000
ENT
1002
}
1001
GENIUS_GENODEF_13
1002
{
1000
HIER
1070
     1
1002
}
1002
{
1000
MANEDIT
1070
     0
1002
}
1002
{
1000
NOSEL
1070
     1
1002
}
1002
{
1000
BEHIND
1070
     0
1002
}
1002
{
1000
REACTOR
1002
}
1002
{
1000
OTHER
1070
     1
1002
}
1001
GENIUS_GENBH_13
1002
{
1000
FGO
1005
E65
1002
}
  0
POINT
  5
E67
100
AcDbEntity
  8
0
 60
     1
100
AcDbPoint
 10
253.292097
 20
177.15347
 30
0.0
1001
GENIUS_GENOBJ-NBEHI-BHF_13
1002
{
1000
OWNER
1000
GENBEHI
1002
}
1001
GENIUS_GENOENT_13
1002
{
1000
MYREF
1005
E67
1002
}
1002
{
1000
GRP
1005
0
1002
}
1001
GENIUS_GENOLIS_13
1002
{
1000
ENT
1005
0
1002
}
1001
GENIUS_GENBH_13
1002
{
1000
OIUMAP
1000
OIU
1002
}
1002
{
1000
FLAGS
1070
    32
1002
}
1002
{
1000
BGO
1005
E68
1002
}
1001
GENIUS_GENODEF_13
1002
{
1000
HIER
1070
     1
1002
}
1002
{
1000
MANEDIT
1070
     1
1002
}
1002
{
1000
NOSEL
1070
     1
1002
}
1002
{
1000
BEHIND
1070
     0
1002
}
1002
{
1000
REACTOR
1002
}
  0
POINT
  5
E68
100
AcDbEntity
  8
0
 60
     1
100
AcDbPoint
 10
253.292097
 20
177.15347
 30
0.0
1001
GENIUS_GENOBJ-NBEHI-BHB_13
1002
{
1000
OWNER
1000
GENBEHI
1002
}
1001
GENIUS_GENOENT_13
1002
{
1000
MYREF
1005
E68
1002
}
1002
{
1000
GRP
1005
0
1002
}
1001
GENIUS_GENOLIS_13
1002
{
1000
ENT
1005
0
1002
}
1001
GENIUS_GENODEF_13
1002
{
1000
HIER
1070
     1
1002
}
1002
{
1000
MANEDIT
1070
     0
1002
}
1002
{
1000
NOSEL
1070
     1
1002
}
1002
{
1000
BEHIND
1070
     0
1002
}
1002
{
1000
REACTOR
1002
}
1002
{
1000
OTHER
1070
     1
1002
}
1001
GENIUS_GENBH_13
1002
{
1000
FGO
1005
E67
1002
}
  0
POINT
  5
E69
100
AcDbEntity
  8
0
 60
     1
100
AcDbPoint
 10
253.292097
 20
177.15347
 30
0.0
1001
GENIUS_GENOBJ-F-SCPASSM_13
1002
{
1000
OWNER
1000
GEF
1002
}
1001
GENIUS_GENOENT_13
1002
{
1000
MYREF
1005
E69
1002
}
1002
{
1000
GRP
1005
0
1002
}
1001
GENIUS_GENOLIS_13
1002
{
1000
ENT
1005
0
1005
0
1002
}
1001
GENIUS_GENODEF_13
1002
{
1000
HIER
1070
   200
1002
}
1002
{
1000
MANEDIT
1070
     1
1002
}
1002
{
1000
NOSEL
1070
     0
1002
}
1002
{
1000
BEHIND
1070
     0
1002
}
1002
{
1000
REACTOR
1002
}
  0
POINT
  5
E6A
100
AcDbEntity
  8
0
 60
     1
100
AcDbPoint
 10
253.292097
 20
177.15347
 30
0.0
1001
GENIUS_GENOBJ-NBEHI-BHF_13
1002
{
1000
OWNER
1000
GENBEHI
1002
}
1001
GENIUS_GENOENT_13
1002
{
1000
MYREF
1005
E6A
1002
}
1002
{
1000
GRP
1005
0
1002
}
1001
GENIUS_GENOLIS_13
1002
{
1000
ENT
1005
0
1002
}
1001
GENIUS_GENODEF_13
1002
{
1000
HIER
1070
     1
1002
}
1002
{
1000
MANEDIT
1070
     0
1002
}
1002
{
1000
NOSEL
1070
     1
1002
}
1002
{
1000
BEHIND
1070
     0
1002
}
1002
{
1000
REACTOR
1002
}
1001
GENIUS_GENBH_13
1002
{
1000
OIUMAP
1000
OIU
1002
}
1002
{
1000
FLAGS
1070
    32
1002
}
1002
{
1000
BGO
1005
E6B
1002
}
  0
POINT
  5
E6B
100
AcDbEntity
  8
0
 60
     1
100
AcDbPoint
 10
253.292097
 20
177.15347
 30
0.0
1001
GENIUS_GENOBJ-NBEHI-BHB_13
1002
{
1000
OWNER
1000
GENBEHI
1002
}
1001
GENIUS_GENOENT_13
1002
{
1000
MYREF
1005
E6B
1002
}
1002
{
1000
GRP
1005
0
1002
}
1001
GENIUS_GENOLIS_13
1002
{
1000
ENT
1002
}
1001
GENIUS_GENODEF_13
1002
{
1000
HIER
1070
     1
1002
}
1002
{
1000
MANEDIT
1070
     0
1002
}
1002
{
1000
NOSEL
1070
     1
1002
}
1002
{
1000
BEHIND
1070
     0
1002
}
1002
{
1000
REACTOR
1002
}
1002
{
1000
OTHER
1070
     1
1002
}
1001
GENIUS_GENBH_13
1002
{
1000
FGO
1005
E6A
1002
}
  0
POINT
  5
E6C
100
AcDbEntity
  8
0
 60
     1
100
AcDbPoint
 10
253.292097
 20
177.15347
 30
0.0
1001
GENIUS_GENOBJ-NBEHI-BHF_13
1002
{
1000
OWNER
1000
GENBEHI
1002
}
1001
GENIUS_GENOENT_13
1002
{
1000
MYREF
1005
E6C
1002
}
1002
{
1000
GRP
1005
0
1002
}
1001
GENIUS_GENOLIS_13
1002
{
1000
ENT
1005
0
1002
}
1001
GENIUS_GENBH_13
1002
{
1000
OIUMAP
1000
OIU
1002
}
1002
{
1000
FLAGS
1070
    32
1002
}
1002
{
1000
BGO
1005
E6D
1002
}
1001
GENIUS_GENODEF_13
1002
{
1000
HIER
1070
     1
1002
}
1002
{
1000
MANEDIT
1070
     1
1002
}
1002
{
1000
NOSEL
1070
     1
1002
}
1002
{
1000
BEHIND
1070
     0
1002
}
1002
{
1000
REACTOR
1002
}
  0
POINT
  5
E6D
100
AcDbEntity
  8
0
 60
     1
100
AcDbPoint
 10
253.292097
 20
177.15347
 30
0.0
1001
GENIUS_GENOBJ-NBEHI-BHB_13
1002
{
1000
OWNER
1000
GENBEHI
1002
}
1001
GENIUS_GENOENT_13
1002
{
1000
MYREF
1005
E6D
1002
}
1002
{
1000
GRP
1005
0
1002
}
1001
GENIUS_GENOLIS_13
1002
{
1000
ENT
1005
0
1002
}
1001
GENIUS_GENODEF_13
1002
{
1000
HIER
1070
     1
1002
}
1002
{
1000
MANEDIT
1070
     0
1002
}
1002
{
1000
NOSEL
1070
     1
1002
}
1002
{
1000
BEHIND
1070
     0
1002
}
1002
{
1000
REACTOR
1002
}
1002
{
1000
OTHER
1070
     1
1002
}
1001
GENIUS_GENBH_13
1002
{
1000
FGO
1005
E6C
1002
}
  0
POINT
  5
E6E
100
AcDbEntity
  8
0
 60
     1
100
AcDbPoint
 10
253.292097
 20
177.15347
 30
0.0
1001
GENIUS_GENOBJ-F-SCPASSM_13
1002
{
1000
OWNER
1000
GEF
1002
}
1001
GENIUS_GENOENT_13
1002
{
1000
MYREF
1005
E6E
1002
}
1002
{
1000
GRP
1005
0
1002
}
1001
GENIUS_GENOLIS_13
1002
{
1000
ENT
1005
0
1005
0
1002
}
1001
GENIUS_GENODEF_13
1002
{
1000
HIER
1070
   200
1002
}
1002
{
1000
MANEDIT
1070
     1
1002
}
1002
{
1000
NOSEL
1070
     0
1002
}
1002
{
1000
BEHIND
1070
     0
1002
}
1002
{
1000
REACTOR
1002
}
  0
POINT
  5
E6F
100
AcDbEntity
  8
0
 60
     1
100
AcDbPoint
 10
253.292097
 20
177.15347
 30
0.0
1001
GENIUS_GENOBJ-NBEHI-BHF_13
1002
{
1000
OWNER
1000
GENBEHI
1002
}
1001
GENIUS_GENOENT_13
1002
{
1000
MYREF
1005
E6F
1002
}
1002
{
1000
GRP
1005
0
1002
}
1001
GENIUS_GENOLIS_13
1002
{
1000
ENT
1005
0
1002
}
1001
GENIUS_GENODEF_13
1002
{
1000
HIER
1070
     1
1002
}
1002
{
1000
MANEDIT
1070
     0
1002
}
1002
{
1000
NOSEL
1070
     1
1002
}
1002
{
1000
BEHIND
1070
     0
1002
}
1002
{
1000
REACTOR
1002
}
1001
GENIUS_GENBH_13
1002
{
1000
OIUMAP
1000
OIU
1002
}
1002
{
1000
FLAGS
1070
    32
1002
}
1002
{
1000
BGO
1005
E70
1002
}
  0
POINT
  5
E70
100
AcDbEntity
  8
0
 60
     1
100
AcDbPoint
 10
253.292097
 20
177.15347
 30
0.0
1001
GENIUS_GENOBJ-NBEHI-BHB_13
1002
{
1000
OWNER
1000
GENBEHI
1002
}
1001
GENIUS_GENOENT_13
1002
{
1000
MYREF
1005
E70
1002
}
1002
{
1000
GRP
1005
0
1002
}
1001
GENIUS_GENOLIS_13
1002
{
1000
ENT
1002
}
1001
GENIUS_GENODEF_13
1002
{
1000
HIER
1070
     1
1002
}
1002
{
1000
MANEDIT
1070
     0
1002
}
1002
{
1000
NOSEL
1070
     1
1002
}
1002
{
1000
BEHIND
1070
     0
1002
}
1002
{
1000
REACTOR
1002
}
1002
{
1000
OTHER
1070
     1
1002
}
1001
GENIUS_GENBH_13
1002
{
1000
FGO
1005
E6F
1002
}
  0
POINT
  5
E71
100
AcDbEntity
  8
0
 60
     1
100
AcDbPoint
 10
253.292097
 20
177.15347
 30
0.0
1001
GENIUS_GENOBJ-NBEHI-BHF_13
1002
{
1000
OWNER
1000
GENBEHI
1002
}
1001
GENIUS_GENOENT_13
1002
{
1000
MYREF
1005
E71
1002
}
1002
{
1000
GRP
1005
0
1002
}
1001
GENIUS_GENOLIS_13
1002
{
1000
ENT
1005
0
1002
}
1001
GENIUS_GENBH_13
1002
{
1000
OIUMAP
1000
OIU
1002
}
1002
{
1000
FLAGS
1070
    32
1002
}
1002
{
1000
BGO
1005
E72
1002
}
1001
GENIUS_GENODEF_13
1002
{
1000
HIER
1070
     1
1002
}
1002
{
1000
MANEDIT
1070
     1
1002
}
1002
{
1000
NOSEL
1070
     1
1002
}
1002
{
1000
BEHIND
1070
     0
1002
}
1002
{
1000
REACTOR
1002
}
  0
POINT
  5
E72
100
AcDbEntity
  8
0
 60
     1
100
AcDbPoint
 10
253.292097
 20
177.15347
 30
0.0
1001
GENIUS_GENOBJ-NBEHI-BHB_13
1002
{
1000
OWNER
1000
GENBEHI
1002
}
1001
GENIUS_GENOENT_13
1002
{
1000
MYREF
1005
E72
1002
}
1002
{
1000
GRP
1005
0
1002
}
1001
GENIUS_GENOLIS_13
1002
{
1000
ENT
1005
0
1002
}
1001
GENIUS_GENODEF_13
1002
{
1000
HIER
1070
     1
1002
}
1002
{
1000
MANEDIT
1070
     0
1002
}
1002
{
1000
NOSEL
1070
     1
1002
}
1002
{
1000
BEHIND
1070
     0
1002
}
1002
{
1000
REACTOR
1002
}
1002
{
1000
OTHER
1070
     1
1002
}
1001
GENIUS_GENBH_13
1002
{
1000
FGO
1005
E71
1002
}
  0
POINT
  5
E73
100
AcDbEntity
  8
0
 60
     1
100
AcDbPoint
 10
253.292097
 20
177.15347
 30
0.0
1001
GENIUS_GENOBJ-F-SCPASSM_13
1002
{
1000
OWNER
1000
GEF
1002
}
1001
GENIUS_GENOENT_13
1002
{
1000
MYREF
1005
E73
1002
}
1002
{
1000
GRP
1005
0
1002
}
1001
GENIUS_GENOLIS_13
1002
{
1000
ENT
1005
0
1005
0
1002
}
1001
GENIUS_GENODEF_13
1002
{
1000
HIER
1070
   200
1002
}
1002
{
1000
MANEDIT
1070
     1
1002
}
1002
{
1000
NOSEL
1070
     0
1002
}
1002
{
1000
BEHIND
1070
     0
1002
}
1002
{
1000
REACTOR
1002
}
  0
POINT
  5
E74
100
AcDbEntity
  8
0
 60
     1
100
AcDbPoint
 10
253.292097
 20
177.15347
 30
0.0
1001
GENIUS_GENOBJ-NBEHI-BHB_13
1002
{
1000
OWNER
1000
GENBEHI
1002
}
1001
GENIUS_GENOENT_13
1002
{
1000
MYREF
1005
E74
1002
}
1002
{
1000
GRP
1005
0
1002
}
1001
GENIUS_GENOLIS_13
1002
{
1000
ENT
1002
}
1001
GENIUS_GENODEF_13
1002
{
1000
HIER
1070
     1
1002
}
1002
{
1000
MANEDIT
1070
     0
1002
}
1002
{
1000
NOSEL
1070
     1
1002
}
1002
{
1000
BEHIND
1070
     0
1002
}
1002
{
1000
REACTOR
1002
}
1002
{
1000
OTHER
1070
     1
1002
}
1001
GENIUS_GENBH_13
1002
{
1000
FGO
1005
0
1002
}
  0
POINT
  5
E75
100
AcDbEntity
  8
0
 60
     1
100
AcDbPoint
 10
253.292097
 20
177.15347
 30
0.0
1001
GENIUS_GENOBJ-NBEHI-BHF_13
1002
{
1000
OWNER
1000
GENBEHI
1002
}
1001
GENIUS_GENOENT_13
1002
{
1000
MYREF
1005
E75
1002
}
1002
{
1000
GRP
1005
0
1002
}
1001
GENIUS_GENOLIS_13
1002
{
1000
ENT
1005
0
1002
}
1001
GENIUS_GENBH_13
1002
{
1000
OIUMAP
1000
OIU
1002
}
1002
{
1000
FLAGS
1070
    32
1002
}
1002
{
1000
BGO
1005
0
1002
}
1001
GENIUS_GENODEF_13
1002
{
1000
HIER
1070
     1
1002
}
1002
{
1000
MANEDIT
1070
     1
1002
}
1002
{
1000
NOSEL
1070
     1
1002
}
1002
{
1000
BEHIND
1070
     0
1002
}
1002
{
1000
REACTOR
1002
}
  0
POINT
  5
E76
100
AcDbEntity
  8
0
 60
     1
100
AcDbPoint
 10
253.292097
 20
177.15347
 30
0.0
1001
GENIUS_GENOBJ-NBEHI-BHF_13
1002
{
1000
OWNER
1000
GENBEHI
1002
}
1001
GENIUS_GENOENT_13
1002
{
1000
MYREF
1005
E76
1002
}
1002
{
1000
GRP
1005
0
1002
}
1001
GENIUS_GENOLIS_13
1002
{
1000
ENT
1005
0
1002
}
1001
GENIUS_GENODEF_13
1002
{
1000
HIER
1070
     1
1002
}
1002
{
1000
MANEDIT
1070
     0
1002
}
1002
{
1000
NOSEL
1070
     1
1002
}
1002
{
1000
BEHIND
1070
     0
1002
}
1002
{
1000
REACTOR
1002
}
1001
GENIUS_GENBH_13
1002
{
1000
OIUMAP
1000
OIU
1002
}
1002
{
1000
FLAGS
1070
    32
1002
}
1002
{
1000
BGO
1005
E77
1002
}
  0
POINT
  5
E77
100
AcDbEntity
  8
0
 60
     1
100
AcDbPoint
 10
253.292097
 20
177.15347
 30
0.0
1001
GENIUS_GENOBJ-NBEHI-BHB_13
1002
{
1000
OWNER
1000
GENBEHI
1002
}
1001
GENIUS_GENOENT_13
1002
{
1000
MYREF
1005
E77
1002
}
1002
{
1000
GRP
1005
0
1002
}
1001
GENIUS_GENOLIS_13
1002
{
1000
ENT
1002
}
1001
GENIUS_GENODEF_13
1002
{
1000
HIER
1070
     1
1002
}
1002
{
1000
MANEDIT
1070
     0
1002
}
1002
{
1000
NOSEL
1070
     1
1002
}
1002
{
1000
BEHIND
1070
     0
1002
}
1002
{
1000
REACTOR
1002
}
1002
{
1000
OTHER
1070
     1
1002
}
1001
GENIUS_GENBH_13
1002
{
1000
FGO
1005
E76
1002
}
  0
POINT
  5
E78
100
AcDbEntity
  8
0
 60
     1
100
AcDbPoint
 10
253.292097
 20
177.15347
 30
0.0
1001
GENIUS_GENOBJ-NBEHI-BHF_13
1002
{
1000
OWNER
1000
GENBEHI
1002
}
1001
GENIUS_GENOENT_13
1002
{
1000
MYREF
1005
E78
1002
}
1002
{
1000
GRP
1005
0
1002
}
1001
GENIUS_GENOLIS_13
1002
{
1000
ENT
1005
0
1002
}
1001
GENIUS_GENBH_13
1002
{
1000
OIUMAP
1000
OIU
1002
}
1002
{
1000
FLAGS
1070
    32
1002
}
1002
{
1000
BGO
1005
E79
1002
}
1001
GENIUS_GENODEF_13
1002
{
1000
HIER
1070
     1
1002
}
1002
{
1000
MANEDIT
1070
     1
1002
}
1002
{
1000
NOSEL
1070
     1
1002
}
1002
{
1000
BEHIND
1070
     0
1002
}
1002
{
1000
REACTOR
1002
}
  0
POINT
  5
E79
100
AcDbEntity
  8
0
 60
     1
100
AcDbPoint
 10
253.292097
 20
177.15347
 30
0.0
1001
GENIUS_GENOBJ-NBEHI-BHB_13
1002
{
1000
OWNER
1000
GENBEHI
1002
}
1001
GENIUS_GENOENT_13
1002
{
1000
MYREF
1005
E79
1002
}
1002
{
1000
GRP
1005
0
1002
}
1001
GENIUS_GENOLIS_13
1002
{
1000
ENT
1005
0
1002
}
1001
GENIUS_GENODEF_13
1002
{
1000
HIER
1070
     1
1002
}
1002
{
1000
MANEDIT
1070
     0
1002
}
1002
{
1000
NOSEL
1070
     1
1002
}
1002
{
1000
BEHIND
1070
     0
1002
}
1002
{
1000
REACTOR
1002
}
1002
{
1000
OTHER
1070
     1
1002
}
1001
GENIUS_GENBH_13
1002
{
1000
FGO
1005
E78
1002
}
  0
POINT
  5
E7A
100
AcDbEntity
  8
0
 60
     1
100
AcDbPoint
 10
253.292097
 20
177.15347
 30
0.0
1001
GENIUS_GENOBJ-F-SCPASSM_13
1002
{
1000
OWNER
1000
GEF
1002
}
1001
GENIUS_GENOENT_13
1002
{
1000
MYREF
1005
E7A
1002
}
1002
{
1000
GRP
1005
0
1002
}
1001
GENIUS_GENOLIS_13
1002
{
1000
ENT
1005
0
1005
0
1002
}
1001
GENIUS_GENODEF_13
1002
{
1000
HIER
1070
   200
1002
}
1002
{
1000
MANEDIT
1070
     1
1002
}
1002
{
1000
NOSEL
1070
     0
1002
}
1002
{
1000
BEHIND
1070
     0
1002
}
1002
{
1000
REACTOR
1002
}
  0
POINT
  5
E7B
100
AcDbEntity
  8
0
 60
     1
100
AcDbPoint
 10
253.292097
 20
177.15347
 30
0.0
1001
GENIUS_GENOBJ-NBEHI-BHF_13
1002
{
1000
OWNER
1000
GENBEHI
1002
}
1001
GENIUS_GENOENT_13
1002
{
1000
MYREF
1005
E7B
1002
}
1002
{
1000
GRP
1005
0
1002
}
1001
GENIUS_GENOLIS_13
1002
{
1000
ENT
1005
0
1002
}
1001
GENIUS_GENODEF_13
1002
{
1000
HIER
1070
     1
1002
}
1002
{
1000
MANEDIT
1070
     0
1002
}
1002
{
1000
NOSEL
1070
     1
1002
}
1002
{
1000
BEHIND
1070
     0
1002
}
1002
{
1000
REACTOR
1002
}
1001
GENIUS_GENBH_13
1002
{
1000
OIUMAP
1000
OIU
1002
}
1002
{
1000
FLAGS
1070
    32
1002
}
1002
{
1000
BGO
1005
E7C
1002
}
  0
POINT
  5
E7C
100
AcDbEntity
  8
0
 60
     1
100
AcDbPoint
 10
253.292097
 20
177.15347
 30
0.0
1001
GENIUS_GENOBJ-NBEHI-BHB_13
1002
{
1000
OWNER
1000
GENBEHI
1002
}
1001
GENIUS_GENOENT_13
1002
{
1000
MYREF
1005
E7C
1002
}
1002
{
1000
GRP
1005
0
1002
}
1001
GENIUS_GENOLIS_13
1002
{
1000
ENT
1002
}
1001
GENIUS_GENODEF_13
1002
{
1000
HIER
1070
     1
1002
}
1002
{
1000
MANEDIT
1070
     0
1002
}
1002
{
1000
NOSEL
1070
     1
1002
}
1002
{
1000
BEHIND
1070
     0
1002
}
1002
{
1000
REACTOR
1002
}
1002
{
1000
OTHER
1070
     1
1002
}
1001
GENIUS_GENBH_13
1002
{
1000
FGO
1005
E7B
1002
}
  0
POINT
  5
E7D
100
AcDbEntity
  8
0
 60
     1
100
AcDbPoint
 10
253.292097
 20
177.15347
 30
0.0
1001
GENIUS_GENOBJ-NBEHI-BHF_13
1002
{
1000
OWNER
1000
GENBEHI
1002
}
1001
GENIUS_GENOENT_13
1002
{
1000
MYREF
1005
E7D
1002
}
1002
{
1000
GRP
1005
0
1002
}
1001
GENIUS_GENOLIS_13
1002
{
1000
ENT
1005
0
1002
}
1001
GENIUS_GENBH_13
1002
{
1000
OIUMAP
1000
OIU
1002
}
1002
{
1000
FLAGS
1070
    32
1002
}
1002
{
1000
BGO
1005
E7E
1002
}
1001
GENIUS_GENODEF_13
1002
{
1000
HIER
1070
     1
1002
}
1002
{
1000
MANEDIT
1070
     1
1002
}
1002
{
1000
NOSEL
1070
     1
1002
}
1002
{
1000
BEHIND
1070
     0
1002
}
1002
{
1000
REACTOR
1002
}
  0
POINT
  5
E7E
100
AcDbEntity
  8
0
 60
     1
100
AcDbPoint
 10
253.292097
 20
177.15347
 30
0.0
1001
GENIUS_GENOBJ-NBEHI-BHB_13
1002
{
1000
OWNER
1000
GENBEHI
1002
}
1001
GENIUS_GENOENT_13
1002
{
1000
MYREF
1005
E7E
1002
}
1002
{
1000
GRP
1005
0
1002
}
1001
GENIUS_GENOLIS_13
1002
{
1000
ENT
1005
0
1002
}
1001
GENIUS_GENODEF_13
1002
{
1000
HIER
1070
     1
1002
}
1002
{
1000
MANEDIT
1070
     0
1002
}
1002
{
1000
NOSEL
1070
     1
1002
}
1002
{
1000
BEHIND
1070
     0
1002
}
1002
{
1000
REACTOR
1002
}
1002
{
1000
OTHER
1070
     1
1002
}
1001
GENIUS_GENBH_13
1002
{
1000
FGO
1005
E7D
1002
}
  0
POINT
  5
E7F
100
AcDbEntity
  8
0
 60
     1
100
AcDbPoint
 10
253.292097
 20
177.15347
 30
0.0
1001
GENIUS_GENOBJ-F-SCPASSM_13
1002
{
1000
OWNER
1000
GEF
1002
}
1001
GENIUS_GENOENT_13
1002
{
1000
MYREF
1005
E7F
1002
}
1002
{
1000
GRP
1005
0
1002
}
1001
GENIUS_GENOLIS_13
1002
{
1000
ENT
1005
0
1005
0
1002
}
1001
GENIUS_GENODEF_13
1002
{
1000
HIER
1070
   200
1002
}
1002
{
1000
MANEDIT
1070
     1
1002
}
1002
{
1000
NOSEL
1070
     0
1002
}
1002
{
1000
BEHIND
1070
     0
1002
}
1002
{
1000
REACTOR
1002
}
  0
POINT
  5
E80
100
AcDbEntity
  8
0
 60
     1
100
AcDbPoint
 10
253.292097
 20
177.15347
 30
0.0
1001
GENIUS_GENOBJ-NBEHI-BHF_13
1002
{
1000
OWNER
1000
GENBEHI
1002
}
1001
GENIUS_GENOENT_13
1002
{
1000
MYREF
1005
E80
1002
}
1002
{
1000
GRP
1005
0
1002
}
1001
GENIUS_GENOLIS_13
1002
{
1000
ENT
1005
0
1002
}
1001
GENIUS_GENODEF_13
1002
{
1000
HIER
1070
     1
1002
}
1002
{
1000
MANEDIT
1070
     0
1002
}
1002
{
1000
NOSEL
1070
     1
1002
}
1002
{
1000
BEHIND
1070
     0
1002
}
1002
{
1000
REACTOR
1002
}
1001
GENIUS_GENBH_13
1002
{
1000
OIUMAP
1000
OIU
1002
}
1002
{
1000
FLAGS
1070
    32
1002
}
1002
{
1000
BGO
1005
E81
1002
}
  0
POINT
  5
E81
100
AcDbEntity
  8
0
 60
     1
100
AcDbPoint
 10
253.292097
 20
177.15347
 30
0.0
1001
GENIUS_GENOBJ-NBEHI-BHB_13
1002
{
1000
OWNER
1000
GENBEHI
1002
}
1001
GENIUS_GENOENT_13
1002
{
1000
MYREF
1005
E81
1002
}
1002
{
1000
GRP
1005
0
1002
}
1001
GENIUS_GENOLIS_13
1002
{
1000
ENT
1002
}
1001
GENIUS_GENODEF_13
1002
{
1000
HIER
1070
     1
1002
}
1002
{
1000
MANEDIT
1070
     0
1002
}
1002
{
1000
NOSEL
1070
     1
1002
}
1002
{
1000
BEHIND
1070
     0
1002
}
1002
{
1000
REACTOR
1002
}
1002
{
1000
OTHER
1070
     1
1002
}
1001
GENIUS_GENBH_13
1002
{
1000
FGO
1005
E80
1002
}
  0
POINT
  5
E82
100
AcDbEntity
  8
0
 60
     1
100
AcDbPoint
 10
253.292097
 20
177.15347
 30
0.0
1001
GENIUS_GENOBJ-NBEHI-BHF_13
1002
{
1000
OWNER
1000
GENBEHI
1002
}
1001
GENIUS_GENOENT_13
1002
{
1000
MYREF
1005
E82
1002
}
1002
{
1000
GRP
1005
0
1002
}
1001
GENIUS_GENOLIS_13
1002
{
1000
ENT
1005
0
1002
}
1001
GENIUS_GENBH_13
1002
{
1000
OIUMAP
1000
OIU
1002
}
1002
{
1000
FLAGS
1070
    32
1002
}
1002
{
1000
BGO
1005
E83
1002
}
1001
GENIUS_GENODEF_13
1002
{
1000
HIER
1070
     1
1002
}
1002
{
1000
MANEDIT
1070
     1
1002
}
1002
{
1000
NOSEL
1070
     1
1002
}
1002
{
1000
BEHIND
1070
     0
1002
}
1002
{
1000
REACTOR
1002
}
  0
POINT
  5
E83
100
AcDbEntity
  8
0
 60
     1
100
AcDbPoint
 10
253.292097
 20
177.15347
 30
0.0
1001
GENIUS_GENOBJ-NBEHI-BHB_13
1002
{
1000
OWNER
1000
GENBEHI
1002
}
1001
GENIUS_GENOENT_13
1002
{
1000
MYREF
1005
E83
1002
}
1002
{
1000
GRP
1005
0
1002
}
1001
GENIUS_GENOLIS_13
1002
{
1000
ENT
1005
0
1002
}
1001
GENIUS_GENODEF_13
1002
{
1000
HIER
1070
     1
1002
}
1002
{
1000
MANEDIT
1070
     0
1002
}
1002
{
1000
NOSEL
1070
     1
1002
}
1002
{
1000
BEHIND
1070
     0
1002
}
1002
{
1000
REACTOR
1002
}
1002
{
1000
OTHER
1070
     1
1002
}
1001
GENIUS_GENBH_13
1002
{
1000
FGO
1005
E82
1002
}
  0
POINT
  5
E84
100
AcDbEntity
  8
0
 60
     1
100
AcDbPoint
 10
253.292097
 20
177.15347
 30
0.0
1001
GENIUS_GENOBJ-F-SCPASSM_13
1002
{
1000
OWNER
1000
GEF
1002
}
1001
GENIUS_GENOENT_13
1002
{
1000
MYREF
1005
E84
1002
}
1002
{
1000
GRP
1005
0
1002
}
1001
GENIUS_GENOLIS_13
1002
{
1000
ENT
1005
0
1005
0
1002
}
1001
GENIUS_GENODEF_13
1002
{
1000
HIER
1070
   200
1002
}
1002
{
1000
MANEDIT
1070
     1
1002
}
1002
{
1000
NOSEL
1070
     0
1002
}
1002
{
1000
BEHIND
1070
     0
1002
}
1002
{
1000
REACTOR
1002
}
  0
LINE
  5
E85
100
AcDbEntity
  8
0
  6
HIDDEN
100
AcDbLine
 10
129.348216
 20
178.927467
 30
0.0
 11
130.045154
 21
178.927467
 31
0.0
1001
GENIUS_GENOREF_13
1005
E82
1005
E84
  0
LINE
  5
E86
100
AcDbEntity
  8
0
  6
HIDDEN
100
AcDbLine
 10
122.845154
 20
165.927467
 30
0.0
 11
130.045154
 21
165.927467
 31
0.0
1001
GENIUS_GENOREF_13
1005
E82
1005
E84
  0
LINE
  5
E87
100
AcDbEntity
  8
0
  6
HIDDEN
100
AcDbLine
 10
122.045154
 20
166.727467
 30
0.0
 11
122.045154
 21
174.796036
 31
0.0
1001
GENIUS_GENOREF_13
1005
E82
1005
E84
  0
ARC
  5
E88
100
AcDbEntity
  8
0
100
AcDbCircle
 10
122.845154
 20
166.727467
 30
0.0
 40
0.8
100
AcDbArc
 50
180.0
 51
270.0
1001
GENIUS_GENOREF_13
1005
E82
1005
E84
  0
ARC
  5
E89
100
AcDbEntity
  8
0
100
AcDbCircle
 10
122.845154
 20
178.127467
 30
0.0
 40
0.8
100
AcDbArc
 50
90.0
 51
180.0
1001
GENIUS_GENOREF_13
1005
E82
1005
E84
  0
LINE
  5
E8A
100
AcDbEntity
  8
0
  6
HIDDEN
100
AcDbLine
 10
172.202835
 20
169.194279
 30
0.0
 11
145.545154
 21
169.194279
 31
0.0
1001
GENIUS_GENOREF_13
1005
E82
1005
E84
  0
LINE
  5
E8B
100
AcDbEntity
  8
0
  6
HIDDEN
100
AcDbLine
 10
164.799383
 20
175.660654
 30
0.0
 11
145.545154
 21
175.660654
 31
0.0
1001
GENIUS_GENOREF_13
1005
E82
1005
E84
  0
LINE
  5
E8C
100
AcDbEntity
  8
0
100
AcDbLine
 10
159.278342
 20
168.427467
 30
0.0
 11
160.045154
 21
169.194279
 31
0.0
1001
GENIUS_GENOREF_13
1005
E82
1005
E84
  0
LINE
  5
E8D
100
AcDbEntity
  8
0
100
AcDbLine
 10
159.278342
 20
176.427467
 30
0.0
 11
160.045154
 21
175.660654
 31
0.0
1001
GENIUS_GENOREF_13
1005
E82
1005
E84
  0
LINE
  5
E8E
100
AcDbEntity
  8
0
  6
HIDDEN
100
AcDbLine
 10
130.045154
 20
168.427467
 30
0.0
 11
142.545154
 21
168.427467
 31
0.0
1001
GENIUS_GENOREF_13
1005
E82
1005
E84
  0
LINE
  5
E8F
100
AcDbEntity
  8
0
  6
HIDDEN
100
AcDbLine
 10
130.045154
 20
176.427467
 30
0.0
 11
142.545154
 21
176.427467
 31
0.0
1001
GENIUS_GENOREF_13
1005
E82
1005
E84
  0
LINE
  5
E91
100
AcDbEntity
  8
0
  6
HIDDEN
100
AcDbLine
 10
133.170154
 20
176.427467
 30
0.0
 11
133.170154
 21
168.427467
 31
0.0
1001
GENIUS_GENOREF_13
1005
E82
1005
E84
  0
LINE
  5
E92
100
AcDbEntity
  8
0
100
AcDbLine
 10
133.170154
 20
169.194279
 30
0.0
 11
132.403342
 21
168.427467
 31
0.0
1001
GENIUS_GENOREF_13
1005
E82
1005
E84
  0
LINE
  5
E93
100
AcDbEntity
  8
0
100
AcDbLine
 10
133.170154
 20
175.660654
 30
0.0
 11
132.403342
 21
176.427467
 31
0.0
1001
GENIUS_GENOREF_13
1005
E82
1005
E84
  0
LINE
  5
E94
100
AcDbEntity
  8
0
  6
HIDDEN
100
AcDbLine
 10
159.278342
 20
176.427467
 30
0.0
 11
159.278342
 21
168.427467
 31
0.0
1001
GENIUS_GENOREF_13
1005
E82
1005
E84
  0
LINE
  5
E95
100
AcDbEntity
  8
0
  6
HIDDEN
100
AcDbLine
 10
160.045154
 20
175.660654
 30
0.0
 11
160.045154
 21
169.194279
 31
0.0
1001
GENIUS_GENOREF_13
1005
E82
1005
E84
  0
POINT
  5
E96
100
AcDbEntity
  8
0
 60
     1
100
AcDbPoint
 10
253.292097
 20
177.15347
 30
0.0
1001
GENIUS_GENOBJ-NBEHI-BHF_13
1002
{
1000
OWNER
1000
GENBEHI
1002
}
1001
GENIUS_GENOENT_13
1002
{
1000
MYREF
1005
E96
1002
}
1002
{
1000
GRP
1005
0
1002
}
1001
GENIUS_GENOLIS_13
1002
{
1000
ENT
1005
0
1002
}
1001
GENIUS_GENODEF_13
1002
{
1000
HIER
1070
     1
1002
}
1002
{
1000
MANEDIT
1070
     0
1002
}
1002
{
1000
NOSEL
1070
     1
1002
}
1002
{
1000
BEHIND
1070
     0
1002
}
1002
{
1000
REACTOR
1002
}
1001
GENIUS_GENBH_13
1002
{
1000
OIUMAP
1000
OIU
1002
}
1002
{
1000
FLAGS
1070
    32
1002
}
1002
{
1000
BGO
1005
E97
1002
}
  0
POINT
  5
E97
100
AcDbEntity
  8
0
 60
     1
100
AcDbPoint
 10
253.292097
 20
177.15347
 30
0.0
1001
GENIUS_GENOBJ-NBEHI-BHB_13
1002
{
1000
OWNER
1000
GENBEHI
1002
}
1001
GENIUS_GENOENT_13
1002
{
1000
MYREF
1005
E97
1002
}
1002
{
1000
GRP
1005
0
1002
}
1001
GENIUS_GENOLIS_13
1002
{
1000
ENT
1002
}
1001
GENIUS_GENODEF_13
1002
{
1000
HIER
1070
     1
1002
}
1002
{
1000
MANEDIT
1070
     0
1002
}
1002
{
1000
NOSEL
1070
     1
1002
}
1002
{
1000
BEHIND
1070
     0
1002
}
1002
{
1000
REACTOR
1002
}
1002
{
1000
OTHER
1070
     1
1002
}
1001
GENIUS_GENBH_13
1002
{
1000
FGO
1005
E96
1002
}
  0
POINT
  5
E98
100
AcDbEntity
  8
0
 60
     1
100
AcDbPoint
 10
253.292097
 20
177.15347
 30
0.0
1001
GENIUS_GENOBJ-NBEHI-BHF_13
1002
{
1000
OWNER
1000
GENBEHI
1002
}
1001
GENIUS_GENOENT_13
1002
{
1000
MYREF
1005
E98
1002
}
1002
{
1000
GRP
1005
0
1002
}
1001
GENIUS_GENOLIS_13
1002
{
1000
ENT
1005
0
1002
}
1001
GENIUS_GENBH_13
1002
{
1000
OIUMAP
1000
OIU
1002
}
1002
{
1000
FLAGS
1070
    32
1002
}
1002
{
1000
BGO
1005
E99
1002
}
1001
GENIUS_GENODEF_13
1002
{
1000
HIER
1070
     1
1002
}
1002
{
1000
MANEDIT
1070
     1
1002
}
1002
{
1000
NOSEL
1070
     1
1002
}
1002
{
1000
BEHIND
1070
     0
1002
}
1002
{
1000
REACTOR
1002
}
  0
POINT
  5
E99
100
AcDbEntity
  8
0
 60
     1
100
AcDbPoint
 10
253.292097
 20
177.15347
 30
0.0
1001
GENIUS_GENOBJ-NBEHI-BHB_13
1002
{
1000
OWNER
1000
GENBEHI
1002
}
1001
GENIUS_GENOENT_13
1002
{
1000
MYREF
1005
E99
1002
}
1002
{
1000
GRP
1005
0
1002
}
1001
GENIUS_GENOLIS_13
1002
{
1000
ENT
1005
0
1002
}
1001
GENIUS_GENODEF_13
1002
{
1000
HIER
1070
     1
1002
}
1002
{
1000
MANEDIT
1070
     0
1002
}
1002
{
1000
NOSEL
1070
     1
1002
}
1002
{
1000
BEHIND
1070
     0
1002
}
1002
{
1000
REACTOR
1002
}
1002
{
1000
OTHER
1070
     1
1002
}
1001
GENIUS_GENBH_13
1002
{
1000
FGO
1005
E98
1002
}
  0
POINT
  5
E9A
100
AcDbEntity
  8
0
 60
     1
100
AcDbPoint
 10
253.292097
 20
177.15347
 30
0.0
1001
GENIUS_GENOBJ-F-SCPASSM_13
1002
{
1000
OWNER
1000
GEF
1002
}
1001
GENIUS_GENOENT_13
1002
{
1000
MYREF
1005
E9A
1002
}
1002
{
1000
GRP
1005
0
1002
}
1001
GENIUS_GENOLIS_13
1002
{
1000
ENT
1005
0
1005
0
1002
}
1001
GENIUS_GENODEF_13
1002
{
1000
HIER
1070
   200
1002
}
1002
{
1000
MANEDIT
1070
     1
1002
}
1002
{
1000
NOSEL
1070
     0
1002
}
1002
{
1000
BEHIND
1070
     0
1002
}
1002
{
1000
REACTOR
1002
}
  0
CIRCLE
  5
E9B
100
AcDbEntity
  8
0
100
AcDbCircle
 10
57.785086
 20
172.427467
 30
0.0
 40
6.5
1001
GENIUS_GENOREF_13
1005
E98
1005
E9A
  0
LINE
  5
E9C
100
AcDbEntity
  8
0
100
AcDbLine
 10
60.785086
 20
174.159518
 30
0.0
 11
57.785086
 21
175.891568
 31
0.0
1001
GENIUS_GENOREF_13
1005
E98
1005
E9A
  0
LINE
  5
E9D
100
AcDbEntity
  8
0
100
AcDbLine
 10
57.785086
 20
168.963365
 30
0.0
 11
60.785086
 21
170.695416
 31
0.0
1001
GENIUS_GENOREF_13
1005
E98
1005
E9A
  0
LINE
  5
E9E
100
AcDbEntity
  8
0
100
AcDbLine
 10
60.785086
 20
170.695416
 30
0.0
 11
60.785086
 21
174.159518
 31
0.0
1001
GENIUS_GENOREF_13
1005
E98
1005
E9A
  0
LINE
  5
E9F
100
AcDbEntity
  8
0
100
AcDbLine
 10
54.785086
 20
174.159518
 30
0.0
 11
54.785086
 21
170.695416
 31
0.0
1001
GENIUS_GENOREF_13
1005
E98
1005
E9A
  0
LINE
  5
EA0
100
AcDbEntity
  8
0
100
AcDbLine
 10
54.785086
 20
170.695416
 30
0.0
 11
57.785086
 21
168.963365
 31
0.0
1001
GENIUS_GENOREF_13
1005
E98
1005
E9A
  0
LINE
  5
EA1
100
AcDbEntity
  8
0
100
AcDbLine
 10
57.785086
 20
175.891568
 30
0.0
 11
54.785086
 21
174.159518
 31
0.0
1001
GENIUS_GENOREF_13
1005
E98
1005
E9A
  0
LINE
  5
EA2
100
AcDbEntity
  8
0
100
AcDbLine
 10
129.348216
 20
178.927467
 30
0.0
 11
122.845154
 21
178.927467
 31
0.0
  0
LINE
  5
EA3
100
AcDbEntity
  8
0
100
AcDbLine
 10
122.045154
 20
178.127467
 30
0.0
 11
122.045154
 21
174.796036
 31
0.0
  0
LINE
  5
EA4
100
AcDbEntity
  8
0
  6
HIDDEN
100
AcDbLine
 10
145.545154
 20
176.427467
 30
0.0
 11
159.278342
 21
176.427467
 31
0.0
1001
GENIUS_GENOREF_13
1005
E82
1005
E84
  0
LINE
  5
EA5
100
AcDbEntity
  8
0
  6
HIDDEN
100
AcDbLine
 10
142.545154
 20
175.660654
 30
0.0
 11
133.170154
 21
175.660654
 31
0.0
1001
GENIUS_GENOREF_13
1005
E82
1005
E84
  0
LINE
  5
EA6
100
AcDbEntity
  8
0
  6
HIDDEN
100
AcDbLine
 10
145.545154
 20
168.427467
 30
0.0
 11
159.278342
 21
168.427467
 31
0.0
1001
GENIUS_GENOREF_13
1005
E82
1005
E84
  0
LINE
  5
EA7
100
AcDbEntity
  8
0
  6
HIDDEN
100
AcDbLine
 10
142.545154
 20
169.194279
 30
0.0
 11
133.170154
 21
169.194279
 31
0.0
1001
GENIUS_GENOREF_13
1005
E82
1005
E84
  0
LINE
  5
EA8
100
AcDbEntity
  8
0
100
AcDbLine
 10
142.545154
 20
176.427467
 30
0.0
 11
145.545154
 21
176.427467
 31
0.0
  0
LINE
  5
EA9
100
AcDbEntity
  8
0
100
AcDbLine
 10
142.545154
 20
175.660654
 30
0.0
 11
145.545154
 21
175.660654
 31
0.0
  0
LINE
  5
EAA
100
AcDbEntity
  8
0
100
AcDbLine
 10
142.545154
 20
169.194279
 30
0.0
 11
145.545154
 21
169.194279
 31
0.0
  0
LINE
  5
EAB
100
AcDbEntity
  8
0
100
AcDbLine
 10
142.545154
 20
168.427467
 30
0.0
 11
145.545154
 21
168.427467
 31
0.0
  0
LINE
  5
EAC
100
AcDbEntity
  8
0
  6
HIDDEN
100
AcDbLine
 10
112.976681
 20
123.427467
 30
0.0
 11
130.045154
 21
123.427467
 31
0.0
  0
LINE
  5
EAD
100
AcDbEntity
  8
0
  6
HIDDEN
100
AcDbLine
 10
172.202835
 20
119.660654
 30
0.0
 11
145.545154
 21
119.660654
 31
0.0
1001
GENIUS_GENOREF_13
1005
E82
1005
E84
  0
LINE
  5
EAE
100
AcDbEntity
  8
0
  6
HIDDEN
100
AcDbLine
 10
145.545154
 20
120.427467
 30
0.0
 11
159.278342
 21
120.427467
 31
0.0
1001
GENIUS_GENOREF_13
1005
E82
1005
E84
  0
LINE
  5
EAF
100
AcDbEntity
  8
0
  6
HIDDEN
100
AcDbLine
 10
164.799383
 20
113.194279
 30
0.0
 11
145.545154
 21
113.194279
 31
0.0
1001
GENIUS_GENOREF_13
1005
E82
1005
E84
  0
LINE
  5
EB0
100
AcDbEntity
  8
0
  6
HIDDEN
100
AcDbLine
 10
145.545154
 20
112.427467
 30
0.0
 11
159.278342
 21
112.427467
 31
0.0
1001
GENIUS_GENOREF_13
1005
E82
1005
E84
  0
LINE
  5
EB1
100
AcDbEntity
  8
0
  6
HIDDEN
100
AcDbLine
 10
122.045154
 20
122.127467
 30
0.0
 11
122.045154
 21
114.058898
 31
0.0
1001
GENIUS_GENOREF_13
1005
E82
1005
E84
  0
LINE
  5
EB2
100
AcDbEntity
  8
0
  6
HIDDEN
100
AcDbLine
 10
133.170154
 20
112.427467
 30
0.0
 11
133.170154
 21
120.427467
 31
0.0
1001
GENIUS_GENOREF_13
1005
E82
1005
E84
  0
LINE
  5
EB3
100
AcDbEntity
  8
0
100
AcDbLine
 10
145.545154
 20
121.977523
 30
0.0
 11
145.545154
 21
106.957479
 31
0.0
  0
LINE
  5
EB4
100
AcDbEntity
  8
0
100
AcDbLine
 10
142.545154
 20
106.957479
 30
0.0
 11
142.545154
 21
121.977523
 31
0.0
  0
LINE
  5
EB5
100
AcDbEntity
  8
0
  6
HIDDEN
100
AcDbLine
 10
130.045154
 20
109.638819
 30
0.0
 11
130.045154
 21
123.427467
 31
0.0
  0
LINE
  5
EB6
100
AcDbEntity
  8
0
  6
HIDDEN
100
AcDbLine
 10
142.545154
 20
119.660654
 30
0.0
 11
133.170154
 21
119.660654
 31
0.0
1001
GENIUS_GENOREF_13
1005
E82
1005
E84
  0
LINE
  5
EB7
100
AcDbEntity
  8
0
  6
HIDDEN
100
AcDbLine
 10
130.045154
 20
120.427467
 30
0.0
 11
142.545154
 21
120.427467
 31
0.0
1001
GENIUS_GENOREF_13
1005
E82
1005
E84
  0
LINE
  5
EB8
100
AcDbEntity
  8
0
  6
HIDDEN
100
AcDbLine
 10
130.045154
 20
120.927467
 30
0.0
 11
142.545154
 21
120.927467
 31
0.0
  0
LINE
  5
EB9
100
AcDbEntity
  8
0
  6
HIDDEN
100
AcDbLine
 10
122.845154
 20
122.927467
 30
0.0
 11
130.045154
 21
122.927467
 31
0.0
1001
GENIUS_GENOREF_13
1005
E82
1005
E84
  0
ARC
  5
EBA
100
AcDbEntity
  8
0
100
AcDbCircle
 10
122.845154
 20
122.127467
 30
0.0
 40
0.8
100
AcDbArc
 50
90.0
 51
180.0
1001
GENIUS_GENOREF_13
1005
E82
1005
E84
  0
LINE
  5
EBB
100
AcDbEntity
  8
0
100
AcDbLine
 10
133.170154
 20
119.660654
 30
0.0
 11
132.403342
 21
120.427467
 31
0.0
1001
GENIUS_GENOREF_13
1005
E82
1005
E84
  0
LINE
  5
EBC
100
AcDbEntity
  8
0
100
AcDbLine
 10
142.545154
 20
120.427467
 30
0.0
 11
145.545154
 21
120.427467
 31
0.0
  0
LINE
  5
EBD
100
AcDbEntity
  8
0
100
AcDbLine
 10
142.545154
 20
119.660654
 30
0.0
 11
145.545154
 21
119.660654
 31
0.0
  0
LINE
  5
EBE
100
AcDbEntity
  8
0
  6
HIDDEN
100
AcDbLine
 10
142.545154
 20
113.194279
 30
0.0
 11
133.170154
 21
113.194279
 31
0.0
1001
GENIUS_GENOREF_13
1005
E82
1005
E84
  0
LINE
  5
EBF
100
AcDbEntity
  8
0
  6
HIDDEN
100
AcDbLine
 10
130.045154
 20
112.427467
 30
0.0
 11
142.545154
 21
112.427467
 31
0.0
1001
GENIUS_GENOREF_13
1005
E82
1005
E84
  0
LINE
  5
EC0
100
AcDbEntity
  8
0
  6
HIDDEN
100
AcDbLine
 10
130.045154
 20
111.927467
 30
0.0
 11
142.545154
 21
111.927467
 31
0.0
  0
LINE
  5
EC1
100
AcDbEntity
  8
0
100
AcDbLine
 10
129.348216
 20
109.927467
 30
0.0
 11
122.845154
 21
109.927467
 31
0.0
  0
LINE
  5
EC2
100
AcDbEntity
  8
0
100
AcDbLine
 10
122.045154
 20
110.727467
 30
0.0
 11
122.045154
 21
114.058898
 31
0.0
  0
ARC
  5
EC3
100
AcDbEntity
  8
0
100
AcDbCircle
 10
122.845154
 20
110.727467
 30
0.0
 40
0.8
100
AcDbArc
 50
180.0
 51
270.0
1001
GENIUS_GENOREF_13
1005
E82
1005
E84
  0
LINE
  5
EC4
100
AcDbEntity
  8
0
100
AcDbLine
 10
133.170154
 20
113.194279
 30
0.0
 11
132.403342
 21
112.427467
 31
0.0
1001
GENIUS_GENOREF_13
1005
E82
1005
E84
  0
LINE
  5
EC5
100
AcDbEntity
  8
0
  6
HIDDEN
100
AcDbLine
 10
129.348216
 20
109.927467
 30
0.0
 11
130.045154
 21
109.927467
 31
0.0
1001
GENIUS_GENOREF_13
1005
E82
1005
E84
  0
LINE
  5
EC6
100
AcDbEntity
  8
0
100
AcDbLine
 10
142.545154
 20
113.194279
 30
0.0
 11
145.545154
 21
113.194279
 31
0.0
  0
LINE
  5
EC7
100
AcDbEntity
  8
0
100
AcDbLine
 10
142.545154
 20
112.427467
 30
0.0
 11
145.545154
 21
112.427467
 31
0.0
  0
LINE
  5
EC8
100
AcDbEntity
  8
0
  6
HIDDEN
100
AcDbLine
 10
160.045154
 20
113.194279
 30
0.0
 11
160.045154
 21
119.660654
 31
0.0
1001
GENIUS_GENOREF_13
1005
E82
1005
E84
  0
LINE
  5
EC9
100
AcDbEntity
  8
0
  6
HIDDEN
100
AcDbLine
 10
159.278342
 20
112.427467
 30
0.0
 11
159.278342
 21
120.427467
 31
0.0
1001
GENIUS_GENOREF_13
1005
E82
1005
E84
  0
LINE
  5
ECA
100
AcDbEntity
  8
0
  6
HIDDEN
 62
     3
100
AcDbLine
 10
159.278342
 20
120.427467
 30
0.0
 11
172.859213
 21
120.427467
 31
0.0
  0
LINE
  5
ECB
100
AcDbEntity
  8
0
100
AcDbLine
 10
159.278342
 20
120.427467
 30
0.0
 11
160.045154
 21
119.660654
 31
0.0
1001
GENIUS_GENOREF_13
1005
E82
1005
E84
  0
LINE
  5
ECC
100
AcDbEntity
  8
0
  6
HIDDEN
 62
     3
100
AcDbLine
 10
159.278342
 20
112.427467
 30
0.0
 11
163.596369
 21
112.427467
 31
0.0
  0
LINE
  5
ECD
100
AcDbEntity
  8
0
100
AcDbLine
 10
159.278342
 20
112.427467
 30
0.0
 11
160.045154
 21
113.194279
 31
0.0
1001
GENIUS_GENOREF_13
1005
E82
1005
E84
  0
LINE
  5
ECE
100
AcDbEntity
  8
0
100
AcDbLine
 10
60.785086
 20
118.159518
 30
0.0
 11
60.785086
 21
114.695416
 31
0.0
1001
GENIUS_GENOREF_13
1005
E98
1005
E9A
  0
LINE
  5
ECF
100
AcDbEntity
  8
0
100
AcDbLine
 10
54.785086
 20
114.695416
 30
0.0
 11
54.785086
 21
118.159518
 31
0.0
1001
GENIUS_GENOREF_13
1005
E98
1005
E9A
  0
LINE
  5
ED0
100
AcDbEntity
  8
0
100
AcDbLine
 10
54.785086
 20
118.159518
 30
0.0
 11
57.785086
 21
119.891568
 31
0.0
1001
GENIUS_GENOREF_13
1005
E98
1005
E9A
  0
LINE
  5
ED1
100
AcDbEntity
  8
0
100
AcDbLine
 10
57.785086
 20
119.891568
 30
0.0
 11
60.785086
 21
118.159518
 31
0.0
1001
GENIUS_GENOREF_13
1005
E98
1005
E9A
  0
LINE
  5
ED2
100
AcDbEntity
  8
0
100
AcDbLine
 10
65.785086
 20
121.927467
 30
0.0
 11
66.785086
 21
120.927467
 31
0.0
  0
LINE
  5
ED3
100
AcDbEntity
  8
0
100
AcDbLine
 10
57.785086
 20
112.963365
 30
0.0
 11
54.785086
 21
114.695416
 31
0.0
1001
GENIUS_GENOREF_13
1005
E98
1005
E9A
  0
LINE
  5
ED4
100
AcDbEntity
  8
0
100
AcDbLine
 10
60.785086
 20
114.695416
 30
0.0
 11
57.785086
 21
112.963365
 31
0.0
1001
GENIUS_GENOREF_13
1005
E98
1005
E9A
  0
LINE
  5
ED5
100
AcDbEntity
  8
0
100
AcDbLine
 10
64.785086
 20
116.427467
 30
0.0
 11
64.785086
 21
109.638819
 31
0.0
  0
LINE
  5
ED6
100
AcDbEntity
  8
0
100
AcDbLine
 10
66.785086
 20
107.927467
 30
0.0
 11
65.785086
 21
106.927467
 31
0.0
  0
LINE
  5
ED7
100
AcDbEntity
  8
0
100
AcDbLine
 10
64.785086
 20
109.638819
 30
0.0
 11
50.785086
 21
109.638819
 31
0.0
  0
CIRCLE
  5
ED8
100
AcDbEntity
  8
0
100
AcDbCircle
 10
57.785086
 20
116.427467
 30
0.0
 40
6.5
1001
GENIUS_GENOREF_13
1005
E98
1005
E9A
  0
LINE
  5
ED9
100
AcDbEntity
  8
0
100
AcDbLine
 10
50.785086
 20
116.427467
 30
0.0
 11
50.785086
 21
109.638819
 31
0.0
  0
ARC
  5
EDA
100
AcDbEntity
  8
0
100
AcDbCircle
 10
57.785086
 20
116.427467
 30
0.0
 40
7.0
100
AcDbArc
 50
0.0
 51
180.0
  0
LINE
  5
EDB
100
AcDbEntity
  8
0
100
AcDbLine
 10
-34.586035
 20
167.927467
 30
0.0
 11
-34.586035
 21
180.927467
 31
0.0
  0
LINE
  5
EE0
100
AcDbEntity
  8
0
100
AcDbLine
 10
-16.586035
 20
120.927467
 30
0.0
 11
-16.586035
 21
107.927467
 31
0.0
  0
ARC
  5
EE3
100
AcDbEntity
  8
0
  6
HIDDEN
100
AcDbCircle
 10
-25.586035
 20
116.427467
 30
0.0
 40
6.5
100
AcDbArc
 50
122.204228
 51
57.795772
1001
GENIUS_GENOREF_13
1005
E98
1005
E9A
  0
ARC
  5
EE4
100
AcDbEntity
  8
0
  6
HIDDEN
100
AcDbCircle
 10
-25.586035
 20
172.427467
 30
0.0
 40
6.5
100
AcDbArc
 50
302.204228
 51
237.795772
1001
GENIUS_GENOREF_13
1005
E98
1005
E9A
  0
ENDSEC
  0
SECTION
  2
OBJECTS
  0
DICTIONARY
  5
C
100
AcDbDictionary
  3
ACAD_GROUP
350
D
  3
ACAD_LAYOUT
350
C6F
  3
ACAD_MLINESTYLE
350
1B
  3
ACAD_PLOTSETTINGS
350
C70
  3
ADE_QUERY_LIBRARY
350
F0A
  3
CONTENTDICTIONARY
350
23
1001
ADE
1000
ADE02C004
1000
[Query]
1000
CaseSensitiveMatch=0
1000
SaveCurrQueryInSession=1
1000
MkSelSetWithQryObj=0
1000
ShowBlockAsInsPt=0
1000
CreateAssociativeHatchObjects=0
1000
ReferenceBoundaryForAreaLocation=1
1000
ShowImageAsBoundary=1
1000
DefaultJoinOperator=2
1000
ColorForAdd=red
1000
ColorForRemove=red
1000
BlockLocnForQuery=1
1000
TextLocnForQuery=1
1000
[Save Back]
1000
RedefineBlockDefinitions=1
1000
RedefineLayerDefinitions=1
1000
RedefineTextStyleDefinitions=1
1000
RemoveUnusedGroups=1
1000
EraseSavedBackObjects=1
1000
RemoveLockAfterSave=1
1000
CreateHistoryFileOfChanges=0
1000
CreateBackupFileOfSourceDwg=1
1000
DontAddObjectsToSaveSet=0
1000
MarkObjectsForEditingWithoutPrompting=0
1000
[Coordinate Transformation]
1000
RestoreLastActiveDwgsOnStartup=1
1000
ActivateDwgsOnAttach=1
1000
AdjustSizesAndScalesForChangesInUnits=1
1000
AdjustRotationsForMapDistortions=1
1000
AdjustSizesAndScalesForMapDistortions=1
1000
AdjustElevations=1
1000
AdjustZeroRotationObjects=1
1000
ReconnectDbOnWSOpen=1
1000
NoOfSQLConditionsInHistory=10
1001
ACAD
1000
TREAT_AS_HARD
1070
     0
  0
DICTIONARY
  5
F0E
100
AcDbDictionary
  3
ACAD_LAYOUTSELFREF
350
F0F
  0
DICTIONARY
  5
F0C
100
AcDbDictionary
  3
ACAD_LAYOUTSELFREF
350
F0D
  0
DICTIONARY
  5
D
102
{ACAD_REACTORS
330
C
102
}
100
AcDbDictionary
1001
ACAD
1000
TREAT_AS_HARD
1070
     0
  0
DICTIONARY
  5
C6F
102
{ACAD_REACTORS
330
C
102
}
100
AcDbDictionary
1001
ACAD
1000
TREAT_AS_HARD
1070
     0
  0
DICTIONARY
  5
1B
102
{ACAD_REACTORS
330
C
102
}
100
AcDbDictionary
  3
STANDARD
350
1C
1001
ACAD
1000
TREAT_AS_HARD
1070
     0
  0
DICTIONARY
  5
C70
102
{ACAD_REACTORS
330
C
102
}
100
AcDbDictionary
1001
ACAD
1000
TREAT_AS_HARD
1070
     0
  0
DICTIONARY
  5
F0A
102
{ACAD_REACTORS
330
C
102
}
100
AcDbDictionary
  3
_CURRQRY
350
F0B
1001
ACAD
1000
TREAT_AS_HARD
1070
     0
  0
DICTIONARY
  5
23
102
{ACAD_REACTORS
330
C
102
}
100
AcDbDictionary
1001
ACAD
1000
TREAT_AS_HARD
1070
     0
  0
XRECORD
  5
F0F
102
{ACAD_REACTORS
330
F0E
102
}
100
AcDbXrecord
340
18
  0
XRECORD
  5
F0D
102
{ACAD_REACTORS
330
F0C
102
}
100
AcDbXrecord
340
15
  0
MLINESTYLE
  5
1C
102
{ACAD_REACTORS
330
1B
102
}
100
AcDbMlineStyle
  2
STANDARD
 70
     0
  3

 62
   256
 51
90.0
 52
90.0
 71
     2
 49
0.5
 62
   256
  6
BYLAYER
 49
-0.5
 62
   256
  6
BYLAYER
  0
XRECORD
  5
F0B
102
{ACAD_REACTORS
330
F0A
102
}
100
AcDbXrecord
1000
ADE02C001
1070
     1
1070
     0
1002
{
1002
}
1002
{
1002
}
1002
{
1002
}
1000

  0
ENDSEC
  0
EOF
