  0
SECTION
  2
HEADER
  9
$ACADVER
  1
AC1014
  9
$ACADMAINTVER
 70
     0
  9
$DWGCODEPAGE
  3
ANSI_932
  9
$INSBASE
 10
0.0
 20
0.0
 30
0.0
  9
$EXTMIN
 10
-53.148161
 20
33.444941
 30
0.0
  9
$EXTMAX
 10
208.493129
 20
188.05842
 30
0.0
  9
$LIMMIN
 10
0.0
 20
0.0
  9
$LIMMAX
 10
420.0
 20
297.0
  9
$ORTHOMODE
 70
     0
  9
$REGENMODE
 70
     1
  9
$FILLMODE
 70
     1
  9
$QTEXTMODE
 70
     0
  9
$MIRRTEXT
 70
     1
  9
$DRAGMODE
 70
     2
  9
$LTSCALE
 40
0.4
  9
$OSMODE
 70
    37
  9
$ATTMODE
 70
     1
  9
$TEXTSIZE
 40
10.0
  9
$TRACEWID
 40
1.0
  9
$TEXTSTYLE
  7
BIGFONT
  9
$CLAYER
  8
0
  9
$CELTYPE
  6
BYLAYER
  9
$CECOLOR
 62
   256
  9
$CELTSCALE
 40
1.0
  9
$DELOBJ
 70
     1
  9
$DISPSILH
 70
     0
  9
$DIMSCALE
 40
1.0
  9
$DIMASZ
 40
2.5
  9
$DIMEXO
 40
0.625
  9
$DIMDLI
 40
3.75
  9
$DIMRND
 40
0.0
  9
$DIMDLE
 40
0.0
  9
$DIMEXE
 40
1.25
  9
$DIMTP
 40
0.0
  9
$DIMTM
 40
0.0
  9
$DIMTXT
 40
2.5
  9
$DIMCEN
 40
0.5
  9
$DIMTSZ
 40
0.0
  9
$DIMTOL
 70
     0
  9
$DIMLIM
 70
     0
  9
$DIMTIH
 70
     0
  9
$DIMTOH
 70
     0
  9
$DIMSE1
 70
     0
  9
$DIMSE2
 70
     0
  9
$DIMTAD
 70
     3
  9
$DIMZIN
 70
     8
  9
$DIMBLK
  1

  9
$DIMASO
 70
     1
  9
$DIMSHO
 70
     1
  9
$DIMPOST
  1

  9
$DIMAPOST
  1

  9
$DIMALT
 70
     0
  9
$DIMALTD
 70
     4
  9
$DIMALTF
 40
0.0394
  9
$DIMLFAC
 40
1.0
  9
$DIMTOFL
 70
     1
  9
$DIMTVP
 40
0.0
  9
$DIMTIX
 70
     0
  9
$DIMSOXD
 70
     0
  9
$DIMSAH
 70
     0
  9
$DIMBLK1
  1

  9
$DIMBLK2
  1

  9
$DIMSTYLE
  2
STANDARD_WS
  9
$DIMCLRD
 70
     0
  9
$DIMCLRE
 70
     0
  9
$DIMCLRT
 70
   256
  9
$DIMTFAC
 40
1.0
  9
$DIMGAP
 40
1.2
  9
$DIMJUST
 70
     0
  9
$DIMSD1
 70
     0
  9
$DIMSD2
 70
     0
  9
$DIMTOLJ
 70
     1
  9
$DIMTZIN
 70
     0
  9
$DIMALTZ
 70
     0
  9
$DIMALTTZ
 70
     0
  9
$DIMFIT
 70
     3
  9
$DIMUPT
 70
     0
  9
$DIMUNIT
 70
     2
  9
$DIMDEC
 70
     4
  9
$DIMTDEC
 70
     4
  9
$DIMALTU
 70
     8
  9
$DIMALTTD
 70
     4
  9
$DIMTXSTY
  7
BIGFONT
  9
$DIMAUNIT
 70
     0
  9
$LUNITS
 70
     2
  9
$LUPREC
 70
     4
  9
$SKETCHINC
 40
1.0
  9
$FILLETRAD
 40
0.0
  9
$AUNITS
 70
     0
  9
$AUPREC
 70
     0
  9
$MENU
  1
acad
  9
$ELEVATION
 40
0.0
  9
$PELEVATION
 40
0.0
  9
$THICKNESS
 40
0.0
  9
$LIMCHECK
 70
     0
  9
$BLIPMODE
 70
     0
  9
$CHAMFERA
 40
1.0
  9
$CHAMFERB
 40
1.0
  9
$CHAMFERC
 40
20.0
  9
$CHAMFERD
 40
0.0
  9
$SKPOLY
 70
     0
  9
$TDCREATE
 40
2451225.415346065
  9
$TDUPDATE
 40
2453594.469826018
  9
$TDINDWG
 40
0.1938923032
  9
$TDUSRTIMER
 40
0.1938923032
  9
$USRTIMER
 70
     1
  9
$ANGBASE
 50
0.0
  9
$ANGDIR
 70
     0
  9
$PDMODE
 70
     0
  9
$PDSIZE
 40
0.0
  9
$PLINEWID
 40
0.0
  9
$COORDS
 70
     1
  9
$SPLFRAME
 70
     0
  9
$SPLINETYPE
 70
     6
  9
$SPLINESEGS
 70
     8
  9
$ATTDIA
 70
     0
  9
$ATTREQ
 70
     1
  9
$HANDLING
 70
     1
  9
$HANDSEED
  5
F52
  9
$SURFTAB1
 70
     6
  9
$SURFTAB2
 70
     6
  9
$SURFTYPE
 70
     6
  9
$SURFU
 70
     6
  9
$SURFV
 70
     6
  9
$UCSNAME
  2

  9
$UCSORG
 10
0.0
 20
0.0
 30
0.0
  9
$UCSXDIR
 10
1.0
 20
0.0
 30
0.0
  9
$UCSYDIR
 10
0.0
 20
1.0
 30
0.0
  9
$PUCSNAME
  2

  9
$PUCSORG
 10
0.0
 20
0.0
 30
0.0
  9
$PUCSXDIR
 10
1.0
 20
0.0
 30
0.0
  9
$PUCSYDIR
 10
0.0
 20
1.0
 30
0.0
  9
$USERI1
 70
     0
  9
$USERI2
 70
     0
  9
$USERI3
 70
     0
  9
$USERI4
 70
     0
  9
$USERI5
 70
     0
  9
$USERR1
 40
0.0
  9
$USERR2
 40
0.0
  9
$USERR3
 40
0.0
  9
$USERR4
 40
0.0
  9
$USERR5
 40
0.0
  9
$WORLDVIEW
 70
     1
  9
$SHADEDGE
 70
     3
  9
$SHADEDIF
 70
    70
  9
$TILEMODE
 70
     1
  9
$MAXACTVP
 70
    48
  9
$PINSBASE
 10
0.0
 20
0.0
 30
0.0
  9
$PLIMCHECK
 70
     0
  9
$PEXTMIN
 10
1.000000E+20
 20
1.000000E+20
 30
1.000000E+20
  9
$PEXTMAX
 10
-1.000000E+20
 20
-1.000000E+20
 30
-1.000000E+20
  9
$PLIMMIN
 10
0.0
 20
0.0
  9
$PLIMMAX
 10
420.0
 20
297.0
  9
$UNITMODE
 70
     0
  9
$VISRETAIN
 70
     1
  9
$PLINEGEN
 70
     0
  9
$PSLTSCALE
 70
     0
  9
$TREEDEPTH
 70
  3020
  9
$PICKSTYLE
 70
     1
  9
$CMLSTYLE
  2
STANDARD
  9
$CMLJUST
 70
     0
  9
$CMLSCALE
 40
20.0
  9
$PROXYGRAPHICS
 70
     1
  9
$MEASUREMENT
 70
     0
  0
ENDSEC
  0
SECTION
  2
CLASSES
  0
CLASS
  1
DICTIONARYVAR
  2
AcDbDictionaryVar
  3
"AutoCAD"
 90
        0
280
     0
281
     0
  0
CLASS
  1
HATCH
  2
AcDbHatch
  3
"ACAD_SEDONA"
 90
        0
280
     0
281
     1
  0
CLASS
  1
LWPOLYLINE
  2
AcDbPolyline
  3
"AutoCAD"
 90
        0
280
     0
281
     1
  0
CLASS
  1
ACDBDICTIONARYWDFLT
  2
AcDbDictionaryWithDefault
  3
AutoCAD 2000
 90
        0
280
     0
281
     0
  0
CLASS
  1
ACDBPLACEHOLDER
  2
AcDbPlaceHolder
  3
AutoCAD 2000
 90
        0
280
     0
281
     0
  0
CLASS
  1
LAYOUT
  2
AcDbLayout
  3
AutoCAD 2000
 90
        0
280
     0
281
     0
  0
CLASS
  1
LONG_TRANSACTION
  2
AcDbLongTransaction
  3
AutoCAD 2000
 90
        0
280
     0
281
     0
  0
CLASS
  1
LWPOLYLINE
  2
AcDbPolyline
  3
"AutoCAD"
 90
        0
280
     0
281
     1
  0
CLASS
  1
HATCH
  2
AcDbHatch
  3
"ACAD_SEDONA"
 90
        0
280
     0
281
     1
  0
CLASS
  1
XRECORD
  2
AcDbXrecord
  3
"<Built In>"
 90
        0
280
     0
281
     0
  0
ENDSEC
  0
SECTION
  2
TABLES
  0
TABLE
  2
VPORT
  5
8
100
AcDbSymbolTable
 70
     2
  0
VPORT
  5
F51
100
AcDbSymbolTableRecord
100
AcDbViewportTableRecord
  2
*ACTIVE
 70
     0
 10
0.0
 20
0.0
 11
1.0
 21
1.0
 12
183.425919
 22
148.5
 13
0.0
 23
0.0
 14
10.0
 24
10.0
 15
10.0
 25
10.0
 16
0.0
 26
0.0
 36
1.0
 17
0.0
 27
0.0
 37
0.0
 40
331.439132
 41
1.434944
 42
50.0
 43
0.0
 44
0.0
 50
0.0
 51
0.0
 71
     0
 72
   100
 73
     1
 74
     0
 75
     0
 76
     0
 77
     0
 78
     0
  0
ENDTAB
  0
TABLE
  2
LTYPE
  5
5
100
AcDbSymbolTable
 70
     3
  0
LTYPE
  5
12
100
AcDbSymbolTableRecord
100
AcDbLinetypeTableRecord
  2
BYBLOCK
 70
     0
  3

 72
    65
 73
     0
 40
0.0
  0
LTYPE
  5
13
100
AcDbSymbolTableRecord
100
AcDbLinetypeTableRecord
  2
BYLAYER
 70
     0
  3

 72
    65
 73
     0
 40
0.0
  0
LTYPE
  5
14
100
AcDbSymbolTableRecord
100
AcDbLinetypeTableRecord
  2
CONTINUOUS
 70
     0
  3
Solid line
 72
    65
 73
     0
 40
0.0
  0
LTYPE
  5
11A
100
AcDbSymbolTableRecord
100
AcDbLinetypeTableRecord
  2
CENTER
 70
     0
  3
Center ____ _ ____ _ ____ _ ____ _ ____ _ ____
 72
    65
 73
     4
 40
50.8
 49
31.75
 74
     0
 49
-6.35
 74
     0
 49
6.35
 74
     0
 49
-6.35
 74
     0
  0
LTYPE
  5
11B
100
AcDbSymbolTableRecord
100
AcDbLinetypeTableRecord
  2
HIDDEN
 70
     0
  3
Hidden __ __ __ __ __ __ __ __ __ __ __ __ __ _
 72
    65
 73
     2
 40
9.525
 49
6.35
 74
     0
 49
-3.175
 74
     0
  0
ENDTAB
  0
TABLE
  2
LAYER
  5
2
100
AcDbSymbolTable
 70
     6
  0
LAYER
  5
E
100
AcDbSymbolTableRecord
100
AcDbLayerTableRecord
  2
0
 70
     0
 62
     7
  6
CONTINUOUS
  0
LAYER
  5
37
100
AcDbSymbolTableRecord
100
AcDbLayerTableRecord
  2
図枠
 70
     0
 62
     7
  6
CONTINUOUS
  0
LAYER
  5
38
100
AcDbSymbolTableRecord
100
AcDbLayerTableRecord
  2
図枠部品表
 70
     0
 62
     7
  6
CONTINUOUS
  0
LAYER
  5
215
100
AcDbSymbolTableRecord
100
AcDbLayerTableRecord
  2
CENTER
 70
     0
 62
     2
  6
CENTER
  0
LAYER
  5
216
100
AcDbSymbolTableRecord
100
AcDbLayerTableRecord
  2
DIM
 70
     0
 62
     4
  6
CONTINUOUS
  0
LAYER
  5
21F
100
AcDbSymbolTableRecord
100
AcDbLayerTableRecord
  2
DEFPOINTS
 70
     0
 62
     7
  6
CONTINUOUS
  0
ENDTAB
  0
TABLE
  2
STYLE
  5
3
100
AcDbSymbolTable
 70
     3
  0
STYLE
  5
F
100
AcDbSymbolTableRecord
100
AcDbTextStyleTableRecord
  2
STANDARD
 70
     0
 40
0.0
 41
1.0
 50
0.0
 71
     0
 42
2.5
  3
txt
  4

  0
STYLE
  5
39
100
AcDbSymbolTableRecord
100
AcDbTextStyleTableRecord
  2
BIGFONT
 70
     0
 40
0.0
 41
1.0
 50
0.0
 71
     0
 42
10.0
  3
txt.shx
  4
bigfont.shx
  0
STYLE
  5
3B
100
AcDbSymbolTableRecord
100
AcDbTextStyleTableRecord
  2
KANJI
 70
     0
 40
0.0
 41
1.0
 50
0.0
 71
     0
 42
3.0
  3
TXT
  4
BIGFONT
  0
ENDTAB
  0
TABLE
  2
VIEW
  5
6
100
AcDbSymbolTable
 70
     0
  0
ENDTAB
  0
TABLE
  2
UCS
  5
7
100
AcDbSymbolTable
 70
     0
  0
ENDTAB
  0
TABLE
  2
APPID
  5
9
100
AcDbSymbolTable
 70
    36
  0
APPID
  5
10
100
AcDbSymbolTableRecord
100
AcDbRegAppTableRecord
  2
ACAD
 70
     0
  0
APPID
  5
24
100
AcDbSymbolTableRecord
100
AcDbRegAppTableRecord
  2
CONTENTTABDATA
 70
     0
  0
APPID
  5
25
100
AcDbSymbolTableRecord
100
AcDbRegAppTableRecord
  2
CONTENTCURRENTTAB
 70
     0
  0
APPID
  5
422
100
AcDbSymbolTableRecord
100
AcDbRegAppTableRecord
  2
CONTENTBLOCKDESCRIPTION
 70
     0
  0
APPID
  5
E14
100
AcDbSymbolTableRecord
100
AcDbRegAppTableRecord
  2
MCAD_NO_VIS
 70
     0
  0
APPID
  5
E15
100
AcDbSymbolTableRecord
100
AcDbRegAppTableRecord
  2
ACAD_TEMP_GRAPHIC
 70
     0
  0
APPID
  5
E16
100
AcDbSymbolTableRecord
100
AcDbRegAppTableRecord
  2
GEVID966397200
 70
     0
  0
APPID
  5
E17
100
AcDbSymbolTableRecord
100
AcDbRegAppTableRecord
  2
GEVDC
 70
     0
  0
APPID
  5
E18
100
AcDbSymbolTableRecord
100
AcDbRegAppTableRecord
  2
GEVCON
 70
     0
  0
APPID
  5
E19
100
AcDbSymbolTableRecord
100
AcDbRegAppTableRecord
  2
GEVID966397201
 70
     0
  0
APPID
  5
E1A
100
AcDbSymbolTableRecord
100
AcDbRegAppTableRecord
  2
GEVID966397202
 70
     0
  0
APPID
  5
E1B
100
AcDbSymbolTableRecord
100
AcDbRegAppTableRecord
  2
GEVID966397203
 70
     0
  0
APPID
  5
E1C
100
AcDbSymbolTableRecord
100
AcDbRegAppTableRecord
  2
GEVID966397204
 70
     0
  0
APPID
  5
E1D
100
AcDbSymbolTableRecord
100
AcDbRegAppTableRecord
  2
GEVID966397205
 70
     0
  0
APPID
  5
E1E
100
AcDbSymbolTableRecord
100
AcDbRegAppTableRecord
  2
GEVID966397206
 70
     0
  0
APPID
  5
E1F
100
AcDbSymbolTableRecord
100
AcDbRegAppTableRecord
  2
GENIUS_GENBH_13
 70
     0
  0
APPID
  5
E20
100
AcDbSymbolTableRecord
100
AcDbRegAppTableRecord
  2
GENIUS_GENODEF_13
 70
     0
  0
APPID
  5
E21
100
AcDbSymbolTableRecord
100
AcDbRegAppTableRecord
  2
GENIUS_GENOBJ-NBEHI-BHF_13
 70
     0
  0
APPID
  5
E22
100
AcDbSymbolTableRecord
100
AcDbRegAppTableRecord
  2
GENIUS_GENOENT_13
 70
     0
  0
APPID
  5
E23
100
AcDbSymbolTableRecord
100
AcDbRegAppTableRecord
  2
GENIUS_GENOREF_13
 70
     0
  0
APPID
  5
E24
100
AcDbSymbolTableRecord
100
AcDbRegAppTableRecord
  2
GENIUS_GENOLIS_13
 70
     0
  0
APPID
  5
E25
100
AcDbSymbolTableRecord
100
AcDbRegAppTableRecord
  2
GENIUS_GENOBJ-NBEHI-BHB_13
 70
     0
  0
APPID
  5
E26
100
AcDbSymbolTableRecord
100
AcDbRegAppTableRecord
  2
GEVID966397207
 70
     0
  0
APPID
  5
E27
100
AcDbSymbolTableRecord
100
AcDbRegAppTableRecord
  2
GENIUS_GENOBJ-F-SCPASSM_13
 70
     0
  0
APPID
  5
E28
100
AcDbSymbolTableRecord
100
AcDbRegAppTableRecord
  2
GENIUS_GENDTOL_13
 70
     0
  0
APPID
  5
E29
100
AcDbSymbolTableRecord
100
AcDbRegAppTableRecord
  2
GEVID966521051
 70
     0
  0
APPID
  5
E2A
100
AcDbSymbolTableRecord
100
AcDbRegAppTableRecord
  2
GEVID966521052
 70
     0
  0
APPID
  5
E2B
100
AcDbSymbolTableRecord
100
AcDbRegAppTableRecord
  2
GEVID966521054
 70
     0
  0
APPID
  5
E2C
100
AcDbSymbolTableRecord
100
AcDbRegAppTableRecord
  2
GEVID966521055
 70
     0
  0
APPID
  5
E2D
100
AcDbSymbolTableRecord
100
AcDbRegAppTableRecord
  2
GEVID966521056
 70
     0
  0
APPID
  5
E2E
100
AcDbSymbolTableRecord
100
AcDbRegAppTableRecord
  2
GEVID966521057
 70
     0
  0
APPID
  5
E2F
100
AcDbSymbolTableRecord
100
AcDbRegAppTableRecord
  2
GEVID966521058
 70
     0
  0
APPID
  5
E30
100
AcDbSymbolTableRecord
100
AcDbRegAppTableRecord
  2
GEVID966521059
 70
     0
  0
APPID
  5
E31
100
AcDbSymbolTableRecord
100
AcDbRegAppTableRecord
  2
GEVID966521062
 70
     0
  0
APPID
  5
E32
100
AcDbSymbolTableRecord
100
AcDbRegAppTableRecord
  2
GEVID966521063
 70
     0
  0
APPID
  5
F3F
100
AcDbSymbolTableRecord
100
AcDbRegAppTableRecord
  2
ADE
 70
     0
  0
ENDTAB
  0
TABLE
  2
DIMSTYLE
  5
A
100
AcDbSymbolTable
 70
     1
  0
DIMSTYLE
105
35
100
AcDbSymbolTableRecord
100
AcDbDimStyleTableRecord
  2
STANDARD_WS
 70
     0
  3

  4

  5

  6

  7

 40
1.0
 41
2.5
 42
0.625
 43
3.75
 44
1.25
 45
0.0
 46
0.0
 47
0.0
 48
0.0
140
2.5
141
2.5
142
0.0
143
0.0394
144
1.0
145
0.0
146
1.0
147
0.625
 71
     0
 72
     0
 73
     0
 74
     0
 75
     0
 76
     0
 77
     1
 78
     8
170
     0
171
     4
172
     1
173
     0
174
     0
175
     0
176
     0
177
     0
178
     0
270
     2
271
     4
272
     4
273
     8
274
     4
340
F
275
     0
280
     0
281
     0
282
     0
283
     1
284
     0
285
     0
286
     0
287
     3
288
     0
  0
ENDTAB
  0
TABLE
  2
BLOCK_RECORD
  5
1
100
AcDbSymbolTable
 70
    12
  0
BLOCK_RECORD
  5
18
102
{ACAD_XDICTIONARY
360
F44
102
}
100
AcDbSymbolTableRecord
100
AcDbBlockTableRecord
  2
*MODEL_SPACE
  0
BLOCK_RECORD
  5
15
102
{ACAD_XDICTIONARY
360
F42
102
}
100
AcDbSymbolTableRecord
100
AcDbBlockTableRecord
  2
*PAPER_SPACE
  0
BLOCK_RECORD
  5
B49
100
AcDbSymbolTableRecord
100
AcDbBlockTableRecord
  2
*D0
  0
BLOCK_RECORD
  5
B56
100
AcDbSymbolTableRecord
100
AcDbBlockTableRecord
  2
*D1
  0
BLOCK_RECORD
  5
B65
100
AcDbSymbolTableRecord
100
AcDbBlockTableRecord
  2
*D2
  0
BLOCK_RECORD
  5
B72
100
AcDbSymbolTableRecord
100
AcDbBlockTableRecord
  2
*D3
  0
BLOCK_RECORD
  5
B7F
100
AcDbSymbolTableRecord
100
AcDbBlockTableRecord
  2
*D4
  0
BLOCK_RECORD
  5
B8C
100
AcDbSymbolTableRecord
100
AcDbBlockTableRecord
  2
*D5
  0
BLOCK_RECORD
  5
B99
100
AcDbSymbolTableRecord
100
AcDbBlockTableRecord
  2
*D6
  0
BLOCK_RECORD
  5
BA6
100
AcDbSymbolTableRecord
100
AcDbBlockTableRecord
  2
*D7
  0
BLOCK_RECORD
  5
BB3
100
AcDbSymbolTableRecord
100
AcDbBlockTableRecord
  2
*D8
  0
BLOCK_RECORD
  5
BE0
100
AcDbSymbolTableRecord
100
AcDbBlockTableRecord
  2
*D9
  0
BLOCK_RECORD
  5
D85
100
AcDbSymbolTableRecord
100
AcDbBlockTableRecord
  2
*D10
  0
BLOCK_RECORD
  5
DF7
100
AcDbSymbolTableRecord
100
AcDbBlockTableRecord
  2
_OPEN30
  0
ENDTAB
  0
ENDSEC
  0
SECTION
  2
BLOCKS
  0
BLOCK
  5
19
100
AcDbEntity
  8
0
100
AcDbBlockBegin
  2
*MODEL_SPACE
 70
     2
 10
0.0
 20
0.0
 30
0.0
  3
*MODEL_SPACE
  1

  0
ENDBLK
  5
1A
100
AcDbEntity
  8
0
100
AcDbBlockEnd
  0
BLOCK
  5
16
100
AcDbEntity
 67
     1
  8
0
100
AcDbBlockBegin
  2
*PAPER_SPACE
 70
     0
 10
0.0
 20
0.0
 30
0.0
  3
*PAPER_SPACE
  1

  0
ENDBLK
  5
17
100
AcDbEntity
 67
     1
  8
0
100
AcDbBlockEnd
  0
BLOCK
  5
B4A
100
AcDbEntity
  8
0
100
AcDbBlockBegin
  2
*D0
 70
     1
 10
0.0
 20
0.0
 30
0.0
  3
*D0
  1

  0
LINE
  5
D2A
100
AcDbEntity
  8
DIM
 62
     0
100
AcDbLine
 10
146.336432
 20
102.143323
 30
0.0
 11
146.336432
 21
87.926755
 31
0.0
  0
LINE
  5
D2B
100
AcDbEntity
  8
DIM
 62
     0
100
AcDbLine
 10
133.336432
 20
109.647169
 30
0.0
 11
133.336432
 21
87.926755
 31
0.0
  0
LINE
  5
D2C
100
AcDbEntity
  8
DIM
 62
     0
100
AcDbLine
 10
143.836432
 20
89.176755
 30
0.0
 11
135.836432
 21
89.176755
 31
0.0
  0
SOLID
  5
D2D
100
AcDbEntity
  8
DIM
 62
     0
100
AcDbTrace
 10
143.836432
 20
89.593422
 30
0.0
 11
143.836432
 21
88.760089
 31
0.0
 12
146.336432
 22
89.176755
 32
0.0
 13
146.336432
 23
89.176755
 33
0.0
  0
SOLID
  5
D2E
100
AcDbEntity
  8
DIM
 62
     0
100
AcDbTrace
 10
135.836432
 20
89.593422
 30
0.0
 11
135.836432
 21
88.760089
 31
0.0
 12
133.336432
 22
89.176755
 32
0.0
 13
133.336432
 23
89.176755
 33
0.0
  0
MTEXT
  5
D2F
100
AcDbEntity
  8
DIM
100
AcDbMText
 10
139.836432
 20
91.626755
 30
0.0
 40
2.5
 41
0.0
 71
     5
 72
     5
  1
\A1;13
  7
BIGFONT
1001
ACAD
1000
MTEXTBEGIN
1070
    73
1070
     1
1070
    44
1040
1.0
1070
    74
1070
     0
1000
MTEXTEND
  0
POINT
  5
D30
100
AcDbEntity
  8
DEFPOINTS
 62
     0
100
AcDbPoint
 10
146.336432
 20
102.768323
 30
0.0
  0
POINT
  5
D31
100
AcDbEntity
  8
DEFPOINTS
 62
     0
100
AcDbPoint
 10
133.336432
 20
110.272169
 30
0.0
  0
POINT
  5
D32
100
AcDbEntity
  8
DEFPOINTS
 62
     0
100
AcDbPoint
 10
133.336432
 20
89.176755
 30
0.0
  0
ENDBLK
  5
B54
100
AcDbEntity
  8
0
100
AcDbBlockEnd
  0
BLOCK
  5
B57
100
AcDbEntity
  8
0
100
AcDbBlockBegin
  2
*D1
 70
     1
 10
0.0
 20
0.0
 30
0.0
  3
*D1
  1

  0
LINE
  5
D1F
100
AcDbEntity
  8
DIM
 62
     0
100
AcDbLine
 10
145.336432
 20
107.157612
 30
0.0
 11
145.336432
 21
95.36872
 31
0.0
  0
LINE
  5
D20
100
AcDbEntity
  8
DIM
 62
     0
100
AcDbLine
 10
147.336432
 20
107.157612
 30
0.0
 11
147.336432
 21
95.36872
 31
0.0
  0
LINE
  5
D21
100
AcDbEntity
  8
DIM
 62
     0
100
AcDbLine
 10
142.836432
 20
96.61872
 30
0.0
 11
140.336432
 21
96.61872
 31
0.0
  0
LINE
  5
D22
100
AcDbEntity
  8
DIM
 62
     0
100
AcDbLine
 10
149.836432
 20
96.61872
 30
0.0
 11
156.403098
 21
96.61872
 31
0.0
  0
LINE
  5
D23
100
AcDbEntity
  8
DIM
 62
     0
100
AcDbLine
 10
145.336432
 20
96.61872
 30
0.0
 11
147.336432
 21
96.61872
 31
0.0
  0
SOLID
  5
D24
100
AcDbEntity
  8
DIM
 62
     0
100
AcDbTrace
 10
142.836432
 20
97.035386
 30
0.0
 11
142.836432
 21
96.202053
 31
0.0
 12
145.336432
 22
96.61872
 32
0.0
 13
145.336432
 23
96.61872
 33
0.0
  0
SOLID
  5
D25
100
AcDbEntity
  8
DIM
 62
     0
100
AcDbTrace
 10
149.836432
 20
97.035386
 30
0.0
 11
149.836432
 21
96.202053
 31
0.0
 12
147.336432
 22
96.61872
 32
0.0
 13
147.336432
 23
96.61872
 33
0.0
  0
MTEXT
  5
D26
100
AcDbEntity
  8
DIM
100
AcDbMText
 10
154.369765
 20
99.06872
 30
0.0
 40
2.5
 41
0.0
 71
     5
 72
     5
  1
\A1;2
  7
BIGFONT
1001
ACAD
1000
MTEXTBEGIN
1070
    73
1070
     1
1070
    44
1040
1.0
1070
    74
1070
     0
1000
MTEXTEND
  0
POINT
  5
D27
100
AcDbEntity
  8
DEFPOINTS
 62
     0
100
AcDbPoint
 10
145.336432
 20
107.782612
 30
0.0
  0
POINT
  5
D28
100
AcDbEntity
  8
DEFPOINTS
 62
     0
100
AcDbPoint
 10
147.336432
 20
107.782612
 30
0.0
  0
POINT
  5
D29
100
AcDbEntity
  8
DEFPOINTS
 62
     0
100
AcDbPoint
 10
147.336432
 20
96.61872
 30
0.0
  0
ENDBLK
  5
B63
100
AcDbEntity
  8
0
100
AcDbBlockEnd
  0
BLOCK
  5
B66
100
AcDbEntity
  8
0
100
AcDbBlockBegin
  2
*D2
 70
     1
 10
0.0
 20
0.0
 30
0.0
  3
*D2
  1

  0
LINE
  5
CCC
100
AcDbEntity
  8
DIM
 62
     0
100
AcDbLine
 10
105.711432
 20
142.768323
 30
0.0
 11
100.642686
 21
142.768323
 31
0.0
  0
LINE
  5
CCD
100
AcDbEntity
  8
DIM
 62
     0
100
AcDbLine
 10
115.314063
 20
116.768323
 30
0.0
 11
100.642686
 21
116.768323
 31
0.0
  0
LINE
  5
CCE
100
AcDbEntity
  8
DIM
 62
     0
100
AcDbLine
 10
101.892686
 20
140.268323
 30
0.0
 11
101.892686
 21
119.268323
 31
0.0
  0
SOLID
  5
CCF
100
AcDbEntity
  8
DIM
 62
     0
100
AcDbTrace
 10
101.476019
 20
140.268323
 30
0.0
 11
102.309353
 21
140.268323
 31
0.0
 12
101.892686
 22
142.768323
 32
0.0
 13
101.892686
 23
142.768323
 33
0.0
  0
SOLID
  5
CD0
100
AcDbEntity
  8
DIM
 62
     0
100
AcDbTrace
 10
101.476019
 20
119.268323
 30
0.0
 11
102.309353
 21
119.268323
 31
0.0
 12
101.892686
 22
116.768323
 32
0.0
 13
101.892686
 23
116.768323
 33
0.0
  0
MTEXT
  5
CD1
100
AcDbEntity
  8
DIM
100
AcDbMText
 10
99.442686
 20
129.768323
 30
0.0
 40
2.5
 41
0.0
 71
     5
 72
     5
  1
\A1;26
  7
BIGFONT
 11
0.0
 21
1.0
 31
0.0
1001
ACAD
1000
MTEXTBEGIN
1070
    73
1070
     1
1070
    44
1040
1.0
1070
    74
1070
     0
1000
MTEXTEND
  0
POINT
  5
CD2
100
AcDbEntity
  8
DEFPOINTS
 62
     0
100
AcDbPoint
 10
106.336432
 20
142.768323
 30
0.0
  0
POINT
  5
CD3
100
AcDbEntity
  8
DEFPOINTS
 62
     0
100
AcDbPoint
 10
115.939063
 20
116.768323
 30
0.0
  0
POINT
  5
CD4
100
AcDbEntity
  8
DEFPOINTS
 62
     0
100
AcDbPoint
 10
101.892686
 20
116.768323
 30
0.0
  0
ENDBLK
  5
B70
100
AcDbEntity
  8
0
100
AcDbBlockEnd
  0
BLOCK
  5
C1B
100
AcDbEntity
  8
0
100
AcDbBlockBegin
  2
*D3
 70
     1
 10
0.0
 20
0.0
 30
0.0
  3
*D3
  1

  0
LINE
  5
D63
100
AcDbEntity
  8
DIM
 62
     0
100
AcDbLine
 10
51.942121
 20
107.768323
 30
0.0
 11
25.969191
 21
107.768323
 31
0.0
  0
LINE
  5
D64
100
AcDbEntity
  8
DIM
 62
     0
100
AcDbLine
 10
51.942121
 20
177.768323
 30
0.0
 11
25.969191
 21
177.768323
 31
0.0
  0
LINE
  5
D65
100
AcDbEntity
  8
DIM
 62
     0
100
AcDbLine
 10
27.219191
 20
110.268323
 30
0.0
 11
27.219191
 21
175.268323
 31
0.0
  0
SOLID
  5
D66
100
AcDbEntity
  8
DIM
 62
     0
100
AcDbTrace
 10
26.802524
 20
110.268323
 30
0.0
 11
27.635857
 21
110.268323
 31
0.0
 12
27.219191
 22
107.768323
 32
0.0
 13
27.219191
 23
107.768323
 33
0.0
  0
SOLID
  5
D67
100
AcDbEntity
  8
DIM
 62
     0
100
AcDbTrace
 10
26.802524
 20
175.268323
 30
0.0
 11
27.635857
 21
175.268323
 31
0.0
 12
27.219191
 22
177.768323
 32
0.0
 13
27.219191
 23
177.768323
 33
0.0
  0
MTEXT
  5
D68
100
AcDbEntity
  8
DIM
100
AcDbMText
 10
24.769191
 20
142.768323
 30
0.0
 40
2.5
 41
0.0
 71
     5
 72
     5
  1
\A1;%%c70%%p0.1
  7
BIGFONT
 11
0.0
 21
1.0
 31
0.0
1001
ACAD
1000
MTEXTBEGIN
1070
    73
1070
     1
1070
    44
1040
1.0
1070
    74
1070
     0
1000
MTEXTEND
  0
POINT
  5
D69
100
AcDbEntity
  8
DEFPOINTS
 62
     0
100
AcDbPoint
 10
52.567121
 20
107.768323
 30
0.0
  0
POINT
  5
D6A
100
AcDbEntity
  8
DEFPOINTS
 62
     0
100
AcDbPoint
 10
52.567121
 20
177.768323
 30
0.0
  0
POINT
  5
D6B
100
AcDbEntity
  8
DEFPOINTS
 62
     0
100
AcDbPoint
 10
27.219191
 20
177.768323
 30
0.0
  0
ENDBLK
  5
C25
100
AcDbEntity
  8
0
100
AcDbBlockEnd
  0
BLOCK
  5
C26
100
AcDbEntity
  8
0
100
AcDbBlockBegin
  2
*D4
 70
     1
 10
0.0
 20
0.0
 30
0.0
  3
*D4
  1

  0
LINE
  5
D5A
100
AcDbEntity
  8
DIM
 62
     0
100
AcDbLine
 10
51.942121
 20
162.768323
 30
0.0
 11
33.549374
 21
162.768323
 31
0.0
  0
LINE
  5
D5B
100
AcDbEntity
  8
DIM
 62
     0
100
AcDbLine
 10
51.942121
 20
122.768323
 30
0.0
 11
33.549374
 21
122.768323
 31
0.0
  0
LINE
  5
D5C
100
AcDbEntity
  8
DIM
 62
     0
100
AcDbLine
 10
34.799374
 20
160.268323
 30
0.0
 11
34.799374
 21
125.268323
 31
0.0
  0
SOLID
  5
D5D
100
AcDbEntity
  8
DIM
 62
     0
100
AcDbTrace
 10
34.382707
 20
160.268323
 30
0.0
 11
35.21604
 21
160.268323
 31
0.0
 12
34.799374
 22
162.768323
 32
0.0
 13
34.799374
 23
162.768323
 33
0.0
  0
SOLID
  5
D5E
100
AcDbEntity
  8
DIM
 62
     0
100
AcDbTrace
 10
34.382707
 20
125.268323
 30
0.0
 11
35.21604
 21
125.268323
 31
0.0
 12
34.799374
 22
122.768323
 32
0.0
 13
34.799374
 23
122.768323
 33
0.0
  0
MTEXT
  5
D5F
100
AcDbEntity
  8
DIM
100
AcDbMText
 10
32.349374
 20
142.768323
 30
0.0
 40
2.5
 41
0.0
 71
     5
 72
     5
  1
\A1;%%c40H8
  7
BIGFONT
 11
0.0
 21
1.0
 31
0.0
1001
ACAD
1000
MTEXTBEGIN
1070
    73
1070
     1
1070
    44
1040
1.0
1070
    74
1070
     0
1000
MTEXTEND
  0
POINT
  5
D60
100
AcDbEntity
  8
DEFPOINTS
 62
     0
100
AcDbPoint
 10
52.567121
 20
162.768323
 30
0.0
  0
POINT
  5
D61
100
AcDbEntity
  8
DEFPOINTS
 62
     0
100
AcDbPoint
 10
52.567121
 20
122.768323
 30
0.0
  0
POINT
  5
D62
100
AcDbEntity
  8
DEFPOINTS
 62
     0
100
AcDbPoint
 10
34.799374
 20
122.768323
 30
0.0
  0
ENDBLK
  5
C30
100
AcDbEntity
  8
0
100
AcDbBlockEnd
  0
BLOCK
  5
C5D
100
AcDbEntity
  8
0
100
AcDbBlockBegin
  2
*D5
 70
     1
 10
0.0
 20
0.0
 30
0.0
  3
*D5
  1

  0
LINE
  5
C92
100
AcDbEntity
  8
DIM
 62
     0
100
AcDbLine
 10
53.567121
 20
109.647169
 30
0.0
 11
53.567121
 21
95.551198
 31
0.0
  0
LINE
  5
C93
100
AcDbEntity
  8
DIM
 62
     0
100
AcDbLine
 10
67.567121
 20
109.647169
 30
0.0
 11
67.567121
 21
95.551198
 31
0.0
  0
LINE
  5
C94
100
AcDbEntity
  8
DIM
 62
     0
100
AcDbLine
 10
51.067121
 20
96.801198
 30
0.0
 11
48.567121
 21
96.801198
 31
0.0
  0
LINE
  5
C95
100
AcDbEntity
  8
DIM
 62
     0
100
AcDbLine
 10
70.067121
 20
96.801198
 30
0.0
 11
72.567121
 21
96.801198
 31
0.0
  0
LINE
  5
C96
100
AcDbEntity
  8
DIM
 62
     0
100
AcDbLine
 10
53.567121
 20
96.801198
 30
0.0
 11
67.567121
 21
96.801198
 31
0.0
  0
SOLID
  5
C97
100
AcDbEntity
  8
DIM
 62
     0
100
AcDbTrace
 10
51.067121
 20
97.217865
 30
0.0
 11
51.067121
 21
96.384531
 31
0.0
 12
53.567121
 22
96.801198
 32
0.0
 13
53.567121
 23
96.801198
 33
0.0
  0
SOLID
  5
C98
100
AcDbEntity
  8
DIM
 62
     0
100
AcDbTrace
 10
70.067121
 20
97.217865
 30
0.0
 11
70.067121
 21
96.384531
 31
0.0
 12
67.567121
 22
96.801198
 32
0.0
 13
67.567121
 23
96.801198
 33
0.0
  0
MTEXT
  5
C99
100
AcDbEntity
  8
DIM
100
AcDbMText
 10
63.627477
 20
99.251198
 30
0.0
 40
2.5
 41
0.0
 71
     5
 72
     5
  1
\A1;14
  7
BIGFONT
1001
ACAD
1000
MTEXTBEGIN
1070
    73
1070
     1
1070
    44
1040
1.0
1070
    74
1070
     0
1000
MTEXTEND
  0
POINT
  5
C9A
100
AcDbEntity
  8
DEFPOINTS
 62
     0
100
AcDbPoint
 10
53.567121
 20
110.272169
 30
0.0
  0
POINT
  5
C9B
100
AcDbEntity
  8
DEFPOINTS
 62
     0
100
AcDbPoint
 10
67.567121
 20
110.272169
 30
0.0
  0
POINT
  5
C9C
100
AcDbEntity
  8
DEFPOINTS
 62
     0
100
AcDbPoint
 10
67.567121
 20
96.801198
 30
0.0
  0
ENDBLK
  5
C68
100
AcDbEntity
  8
0
100
AcDbBlockEnd
  0
BLOCK
  5
C52
100
AcDbEntity
  8
0
100
AcDbBlockBegin
  2
*D6
 70
     1
 10
0.0
 20
0.0
 30
0.0
  3
*D6
  1

  0
LINE
  5
C9D
100
AcDbEntity
  8
DIM
 62
     0
100
AcDbLine
 10
69.567121
 20
108.143323
 30
0.0
 11
69.567121
 21
87.658799
 31
0.0
  0
LINE
  5
C9E
100
AcDbEntity
  8
DIM
 62
     0
100
AcDbLine
 10
60.567121
 20
105.545468
 30
0.0
 11
60.567121
 21
87.658799
 31
0.0
  0
LINE
  5
C9F
100
AcDbEntity
  8
DIM
 62
     0
100
AcDbLine
 10
67.067121
 20
88.908799
 30
0.0
 11
63.067121
 21
88.908799
 31
0.0
  0
SOLID
  5
CA0
100
AcDbEntity
  8
DIM
 62
     0
100
AcDbTrace
 10
67.067121
 20
89.325465
 30
0.0
 11
67.067121
 21
88.492132
 31
0.0
 12
69.567121
 22
88.908799
 32
0.0
 13
69.567121
 23
88.908799
 33
0.0
  0
SOLID
  5
CA1
100
AcDbEntity
  8
DIM
 62
     0
100
AcDbTrace
 10
63.067121
 20
89.325465
 30
0.0
 11
63.067121
 21
88.492132
 31
0.0
 12
60.567121
 22
88.908799
 32
0.0
 13
60.567121
 23
88.908799
 33
0.0
  0
MTEXT
  5
CA2
100
AcDbEntity
  8
DIM
100
AcDbMText
 10
65.067121
 20
91.358799
 30
0.0
 40
2.5
 41
0.0
 71
     5
 72
     5
  1
\A1;9
  7
BIGFONT
1001
ACAD
1000
MTEXTBEGIN
1070
    73
1070
     1
1070
    44
1040
1.0
1070
    74
1070
     0
1000
MTEXTEND
  0
POINT
  5
CA3
100
AcDbEntity
  8
DEFPOINTS
 62
     0
100
AcDbPoint
 10
69.567121
 20
108.768323
 30
0.0
  0
POINT
  5
CA4
100
AcDbEntity
  8
DEFPOINTS
 62
     0
100
AcDbPoint
 10
60.567121
 20
106.170468
 30
0.0
  0
POINT
  5
CA5
100
AcDbEntity
  8
DEFPOINTS
 62
     0
100
AcDbPoint
 10
60.567121
 20
88.908799
 30
0.0
  0
ENDBLK
  5
C5C
100
AcDbEntity
  8
0
100
AcDbBlockEnd
  0
BLOCK
  5
C47
100
AcDbEntity
  8
0
100
AcDbBlockBegin
  2
*D7
 70
     1
 10
0.0
 20
0.0
 30
0.0
  3
*D7
  1

  0
LINE
  5
CA6
100
AcDbEntity
  8
DIM
 62
     0
100
AcDbLine
 10
51.567121
 20
108.143323
 30
0.0
 11
51.567121
 21
87.658799
 31
0.0
  0
LINE
  5
CA7
100
AcDbEntity
  8
DIM
 62
     0
100
AcDbLine
 10
60.567121
 20
105.545468
 30
0.0
 11
60.567121
 21
87.658799
 31
0.0
  0
LINE
  5
CA8
100
AcDbEntity
  8
DIM
 62
     0
100
AcDbLine
 10
54.067121
 20
88.908799
 30
0.0
 11
58.067121
 21
88.908799
 31
0.0
  0
SOLID
  5
CA9
100
AcDbEntity
  8
DIM
 62
     0
100
AcDbTrace
 10
54.067121
 20
89.325465
 30
0.0
 11
54.067121
 21
88.492132
 31
0.0
 12
51.567121
 22
88.908799
 32
0.0
 13
51.567121
 23
88.908799
 33
0.0
  0
SOLID
  5
CAA
100
AcDbEntity
  8
DIM
 62
     0
100
AcDbTrace
 10
58.067121
 20
89.325465
 30
0.0
 11
58.067121
 21
88.492132
 31
0.0
 12
60.567121
 22
88.908799
 32
0.0
 13
60.567121
 23
88.908799
 33
0.0
  0
MTEXT
  5
CAB
100
AcDbEntity
  8
DIM
100
AcDbMText
 10
56.067121
 20
91.358799
 30
0.0
 40
2.5
 41
0.0
 71
     5
 72
     5
  1
\A1;9
  7
BIGFONT
1001
ACAD
1000
MTEXTBEGIN
1070
    73
1070
     1
1070
    44
1040
1.0
1070
    74
1070
     0
1000
MTEXTEND
  0
POINT
  5
CAC
100
AcDbEntity
  8
DEFPOINTS
 62
     0
100
AcDbPoint
 10
51.567121
 20
108.768323
 30
0.0
  0
POINT
  5
CAD
100
AcDbEntity
  8
DEFPOINTS
 62
     0
100
AcDbPoint
 10
60.567121
 20
106.170468
 30
0.0
  0
POINT
  5
CAE
100
AcDbEntity
  8
DEFPOINTS
 62
     0
100
AcDbPoint
 10
60.567121
 20
88.908799
 30
0.0
  0
ENDBLK
  5
C51
100
AcDbEntity
  8
0
100
AcDbBlockEnd
  0
BLOCK
  5
C3C
100
AcDbEntity
  8
0
100
AcDbBlockBegin
  2
*D8
 70
     1
 10
0.0
 20
0.0
 30
0.0
  3
*D8
  1

  0
LINE
  5
D6C
100
AcDbEntity
  8
DIM
 62
     0
100
AcDbLine
 10
69.567121
 20
108.143323
 30
0.0
 11
69.567121
 21
78.638915
 31
0.0
  0
LINE
  5
D6D
100
AcDbEntity
  8
DIM
 62
     0
100
AcDbLine
 10
51.567121
 20
108.143323
 30
0.0
 11
51.567121
 21
78.638915
 31
0.0
  0
LINE
  5
D6E
100
AcDbEntity
  8
DIM
 62
     0
100
AcDbLine
 10
67.067121
 20
79.888915
 30
0.0
 11
54.067121
 21
79.888915
 31
0.0
  0
SOLID
  5
D6F
100
AcDbEntity
  8
DIM
 62
     0
100
AcDbTrace
 10
67.067121
 20
80.305581
 30
0.0
 11
67.067121
 21
79.472248
 31
0.0
 12
69.567121
 22
79.888915
 32
0.0
 13
69.567121
 23
79.888915
 33
0.0
  0
SOLID
  5
D70
100
AcDbEntity
  8
DIM
 62
     0
100
AcDbTrace
 10
54.067121
 20
80.305581
 30
0.0
 11
54.067121
 21
79.472248
 31
0.0
 12
51.567121
 22
79.888915
 32
0.0
 13
51.567121
 23
79.888915
 33
0.0
  0
MTEXT
  5
D71
100
AcDbEntity
  8
DIM
100
AcDbMText
 10
60.567121
 20
82.338915
 30
0.0
 40
2.5
 41
0.0
 71
     5
 72
     5
  1
\A1;18%%p0.1
  7
BIGFONT
1001
ACAD
1000
MTEXTBEGIN
1070
    73
1070
     1
1070
    44
1040
1.0
1070
    74
1070
     0
1000
MTEXTEND
  0
POINT
  5
D72
100
AcDbEntity
  8
DEFPOINTS
 62
     0
100
AcDbPoint
 10
69.567121
 20
108.768323
 30
0.0
  0
POINT
  5
D73
100
AcDbEntity
  8
DEFPOINTS
 62
     0
100
AcDbPoint
 10
51.567121
 20
108.768323
 30
0.0
  0
POINT
  5
D74
100
AcDbEntity
  8
DEFPOINTS
 62
     0
100
AcDbPoint
 10
51.567121
 20
79.888915
 30
0.0
  0
ENDBLK
  5
C46
100
AcDbEntity
  8
0
100
AcDbBlockEnd
  0
BLOCK
  5
BE1
100
AcDbEntity
  8
0
100
AcDbBlockBegin
  2
*D9
 70
     1
 10
0.0
 20
0.0
 30
0.0
  3
*D9
  1

  0
LINE
  5
D75
100
AcDbEntity
  8
DIM
 62
     0
100
AcDbLine
 10
81.197628
 20
128.159984
 30
0.0
 11
68.883521
 21
121.360435
 31
0.0
  0
MTEXT
  5
D76
100
AcDbEntity
  8
DIM
100
AcDbMText
 10
74.950556
 20
127.509191
 30
0.0
 40
2.5
 41
0.0
 71
     5
 72
     5
  1
\A1;2-R7
  7
BIGFONT
 11
0.87541
 21
0.48338
 31
0.0
1001
ACAD
1000
MTEXTBEGIN
1070
    73
1070
     1
1070
    44
1040
1.0
1070
    74
1070
     0
1000
MTEXTEND
  0
LINE
  5
D77
100
AcDbEntity
  8
DIM
 62
     0
100
AcDbLine
 10
60.567121
 20
116.768323
 30
0.0
 11
66.694994
 21
120.151985
 31
0.0
  0
SOLID
  5
D78
100
AcDbEntity
  8
DIM
 62
     0
100
AcDbTrace
 10
68.682112
 20
121.72519
 30
0.0
 11
69.084929
 21
120.995681
 31
0.0
 12
66.694994
 22
120.151985
 32
0.0
 13
66.694994
 23
120.151985
 33
0.0
  0
POINT
  5
D79
100
AcDbEntity
  8
DEFPOINTS
 62
     0
100
AcDbPoint
 10
66.694994
 20
120.151985
 30
0.0
  0
POINT
  5
D7A
100
AcDbEntity
  8
DEFPOINTS
 62
     0
100
AcDbPoint
 10
60.567121
 20
116.768323
 30
0.0
  0
ENDBLK
  5
BE8
100
AcDbEntity
  8
0
100
AcDbBlockEnd
  0
BLOCK
  5
D8F
100
AcDbEntity
  8
0
100
AcDbBlockBegin
  2
*D10
 70
     1
 10
0.0
 20
0.0
 30
0.0
  3
*D10
  1

  0
LINE
  5
D86
100
AcDbEntity
  8
DIM
 62
     0
100
AcDbLine
 10
115.314063
 20
168.768323
 30
0.0
 11
100.642686
 21
168.768323
 31
0.0
  0
LINE
  5
D87
100
AcDbEntity
  8
DIM
 62
     0
100
AcDbLine
 10
105.711432
 20
142.768323
 30
0.0
 11
100.642686
 21
142.768323
 31
0.0
  0
LINE
  5
D88
100
AcDbEntity
  8
DIM
 62
     0
100
AcDbLine
 10
101.892686
 20
166.268323
 30
0.0
 11
101.892686
 21
145.268323
 31
0.0
  0
SOLID
  5
D89
100
AcDbEntity
  8
DIM
 62
     0
100
AcDbTrace
 10
101.476019
 20
166.268323
 30
0.0
 11
102.309353
 21
166.268323
 31
0.0
 12
101.892686
 22
168.768323
 32
0.0
 13
101.892686
 23
168.768323
 33
0.0
  0
SOLID
  5
D8A
100
AcDbEntity
  8
DIM
 62
     0
100
AcDbTrace
 10
101.476019
 20
145.268323
 30
0.0
 11
102.309353
 21
145.268323
 31
0.0
 12
101.892686
 22
142.768323
 32
0.0
 13
101.892686
 23
142.768323
 33
0.0
  0
MTEXT
  5
D8B
100
AcDbEntity
  8
DIM
100
AcDbMText
 10
99.442686
 20
155.768323
 30
0.0
 40
2.5
 41
0.0
 71
     5
 72
     5
  1
\A1;26
  7
BIGFONT
 11
0.0
 21
1.0
 31
0.0
1001
ACAD
1000
MTEXTBEGIN
1070
    73
1070
     1
1070
    44
1040
1.0
1070
    74
1070
     0
1000
MTEXTEND
  0
POINT
  5
D8C
100
AcDbEntity
  8
DEFPOINTS
 62
     0
100
AcDbPoint
 10
115.939063
 20
168.768323
 30
0.0
  0
POINT
  5
D8D
100
AcDbEntity
  8
DEFPOINTS
 62
     0
100
AcDbPoint
 10
106.336432
 20
142.768323
 30
0.0
  0
POINT
  5
D8E
100
AcDbEntity
  8
DEFPOINTS
 62
     0
100
AcDbPoint
 10
101.892686
 20
142.768323
 30
0.0
  0
ENDBLK
  5
D90
100
AcDbEntity
  8
0
100
AcDbBlockEnd
  0
BLOCK
  5
DFB
100
AcDbEntity
  8
0
100
AcDbBlockBegin
  2
_OPEN30
 70
     0
 10
0.0
 20
0.0
 30
0.0
  3
_OPEN30
  1

  0
LINE
  5
DF8
100
AcDbEntity
  8
0
 62
     0
100
AcDbLine
 10
-1.0
 20
0.267949
 30
0.0
 11
0.0
 21
0.0
 31
0.0
  0
LINE
  5
DF9
100
AcDbEntity
  8
0
 62
     0
100
AcDbLine
 10
0.0
 20
0.0
 30
0.0
 11
-1.0
 21
-0.267949
 31
0.0
  0
LINE
  5
DFA
100
AcDbEntity
  8
0
 62
     0
100
AcDbLine
 10
0.0
 20
0.0
 30
0.0
 11
-1.0
 21
0.0
 31
0.0
  0
ENDBLK
  5
DFC
100
AcDbEntity
  8
0
100
AcDbBlockEnd
  0
ENDSEC
  0
SECTION
  2
ENTITIES
  0
TEXT
  5
3E9
100
AcDbEntity
  8
図枠部品表
 62
     3
100
AcDbText
 10
403.65269
 20
422.521663
 30
0.0
 40
2.4325
  1

 41
0.8
  7
KANJI
 72
     1
 11
403.65269
 21
423.737913
 31
0.0
100
AcDbText
 73
     2
  0
TEXT
  5
A9F
100
AcDbEntity
  8
図枠
 62
     7
100
AcDbText
 10
162.933452
 20
10.11536
 30
0.0
 40
2.6
  1

  7
KANJI
 72
     1
 11
162.933452
 21
11.41536
 31
0.0
100
AcDbText
 73
     2
  0
LINE
  5
AFC
100
AcDbEntity
  8
CENTER
100
AcDbLine
 10
106.336432
 20
142.768323
 30
0.0
 11
186.336432
 21
142.768323
 31
0.0
  0
LINE
  5
AFD
100
AcDbEntity
  8
CENTER
100
AcDbLine
 10
146.336432
 20
97.840677
 30
0.0
 11
146.336432
 21
182.768323
 31
0.0
  0
ARC
  5
AFF
100
AcDbEntity
  8
0
100
AcDbCircle
 10
146.336432
 20
142.768323
 30
0.0
 40
35.0
100
AcDbArc
 50
271.637245
 51
88.362755
  0
ARC
  5
B00
100
AcDbEntity
  8
0
100
AcDbCircle
 10
146.336432
 20
142.768323
 30
0.0
 40
20.0
100
AcDbArc
 50
272.865984
 51
87.134016
  0
ARC
  5
B01
100
AcDbEntity
  8
0
100
AcDbCircle
 10
146.336432
 20
142.768323
 30
0.0
 40
34.0
100
AcDbArc
 50
271.685413
 51
88.314587
  0
LINE
  5
B04
100
AcDbEntity
  8
0
100
AcDbLine
 10
147.336432
 20
107.782612
 30
0.0
 11
147.336432
 21
122.793339
 31
0.0
  0
LINE
  5
B06
100
AcDbEntity
  8
0
100
AcDbLine
 10
145.336432
 20
177.754034
 30
0.0
 11
145.336432
 21
162.743307
 31
0.0
  0
LINE
  5
B08
100
AcDbEntity
  8
CENTER
100
AcDbLine
 10
115.939063
 20
116.768323
 30
0.0
 11
176.7338
 21
116.768323
 31
0.0
  0
LINE
  5
B21
100
AcDbEntity
  8
CENTER
 48
0.5
100
AcDbLine
 10
60.567121
 20
127.366178
 30
0.0
 11
60.567121
 21
106.170468
 31
0.0
  0
LINE
  5
B22
100
AcDbEntity
  8
CENTER
100
AcDbLine
 10
74.567121
 20
142.768323
 30
0.0
 11
46.567121
 21
142.768323
 31
0.0
  0
LINE
  5
B23
100
AcDbEntity
  8
CENTER
 48
0.5
100
AcDbLine
 10
71.164976
 20
116.768323
 30
0.0
 11
49.969266
 21
116.768323
 31
0.0
  0
LINE
  5
B26
100
AcDbEntity
  8
0
100
AcDbLine
 10
51.567121
 20
108.768323
 30
0.0
 11
51.567121
 21
176.768323
 31
0.0
  0
LINE
  5
B28
100
AcDbEntity
  8
0
100
AcDbLine
 10
69.567121
 20
176.768323
 30
0.0
 11
69.567121
 21
108.768323
 31
0.0
  0
LINE
  5
B29
100
AcDbEntity
  8
0
100
AcDbLine
 10
68.567121
 20
177.768323
 30
0.0
 11
52.567121
 21
177.768323
 31
0.0
  0
LINE
  5
B2A
100
AcDbEntity
  8
0
100
AcDbLine
 10
68.567121
 20
107.768323
 30
0.0
 11
52.567121
 21
107.768323
 31
0.0
  0
LINE
  5
B2B
100
AcDbEntity
  8
0
100
AcDbLine
 10
68.567121
 20
177.768323
 30
0.0
 11
69.567121
 21
176.768323
 31
0.0
  0
LINE
  5
B2C
100
AcDbEntity
  8
0
100
AcDbLine
 10
69.567121
 20
108.768323
 30
0.0
 11
68.567121
 21
107.768323
 31
0.0
  0
LINE
  5
B2D
100
AcDbEntity
  8
0
100
AcDbLine
 10
52.567121
 20
107.768323
 30
0.0
 11
51.567121
 21
108.768323
 31
0.0
  0
LINE
  5
B2E
100
AcDbEntity
  8
0
100
AcDbLine
 10
51.567121
 20
176.768323
 30
0.0
 11
52.567121
 21
177.768323
 31
0.0
  0
LINE
  5
B34
100
AcDbEntity
  8
0
100
AcDbLine
 10
68.567121
 20
177.768323
 30
0.0
 11
68.567121
 21
107.768323
 31
0.0
  0
LINE
  5
B35
100
AcDbEntity
  8
0
100
AcDbLine
 10
52.567121
 20
107.768323
 30
0.0
 11
52.567121
 21
177.768323
 31
0.0
  0
LINE
  5
B43
100
AcDbEntity
  8
0
  6
HIDDEN
100
AcDbLine
 10
68.567121
 20
162.768323
 30
0.0
 11
52.567121
 21
162.768323
 31
0.0
  0
LINE
  5
B44
100
AcDbEntity
  8
0
  6
HIDDEN
100
AcDbLine
 10
68.567121
 20
122.768323
 30
0.0
 11
52.567121
 21
122.768323
 31
0.0
  0
LINE
  5
B45
100
AcDbEntity
  8
0
100
AcDbLine
 10
68.567121
 20
162.768323
 30
0.0
 11
69.567121
 21
163.768323
 31
0.0
  0
LINE
  5
B46
100
AcDbEntity
  8
0
100
AcDbLine
 10
52.567121
 20
162.768323
 30
0.0
 11
51.567121
 21
163.768323
 31
0.0
  0
LINE
  5
B47
100
AcDbEntity
  8
0
100
AcDbLine
 10
52.567121
 20
122.768323
 30
0.0
 11
51.567121
 21
121.768323
 31
0.0
  0
LINE
  5
B48
100
AcDbEntity
  8
0
100
AcDbLine
 10
68.567121
 20
122.768323
 30
0.0
 11
69.567121
 21
121.768323
 31
0.0
  0
ARC
  5
D14
100
AcDbEntity
  8
0
100
AcDbCircle
 10
146.336432
 20
142.768323
 30
0.0
 40
21.0
100
AcDbArc
 50
272.865984
 51
87.270597
  0
LINE
  5
D7B
100
AcDbEntity
  8
0
  6
HIDDEN
100
AcDbLine
 10
133.336432
 20
173.268323
 30
0.0
 11
145.336432
 21
173.268323
 31
0.0
  0
LINE
  5
D7C
100
AcDbEntity
  8
0
  6
HIDDEN
100
AcDbLine
 10
133.336432
 20
164.268323
 30
0.0
 11
145.336432
 21
164.268323
 31
0.0
  0
LINE
  5
D7D
100
AcDbEntity
  8
CENTER
100
AcDbLine
 10
115.939063
 20
168.768323
 30
0.0
 11
176.7338
 21
168.768323
 31
0.0
  0
LINE
  5
D7E
100
AcDbEntity
  8
0
  6
HIDDEN
100
AcDbLine
 10
133.336432
 20
175.264477
 30
0.0
 11
133.336432
 21
161.768323
 31
0.0
  0
LINE
  5
D7F
100
AcDbEntity
  8
0
  6
HIDDEN
100
AcDbLine
 10
116.942555
 20
161.768323
 30
0.0
 11
133.336432
 21
161.768323
 31
0.0
  0
LINE
  5
D80
100
AcDbEntity
  8
0
  6
HIDDEN
 62
     3
100
AcDbLine
 10
162.569619
 20
172.768323
 30
0.0
 11
164.364188
 21
172.768323
 31
0.0
  0
LINE
  5
D83
100
AcDbEntity
  8
0
  6
HIDDEN
 62
     3
100
AcDbLine
 10
162.569619
 20
164.768323
 30
0.0
 11
173.557747
 21
164.768323
 31
0.0
  0
ARC
  5
D91
100
AcDbEntity
  8
0
100
AcDbCircle
 10
146.336432
 20
142.768323
 30
0.0
 40
35.0
100
AcDbArc
 50
91.637245
 51
268.362755
  0
ARC
  5
D92
100
AcDbEntity
  8
0
100
AcDbCircle
 10
146.336432
 20
142.768323
 30
0.0
 40
34.0
100
AcDbArc
 50
91.685413
 51
268.314587
  0
ARC
  5
D93
100
AcDbEntity
  8
0
100
AcDbCircle
 10
146.336432
 20
142.768323
 30
0.0
 40
21.0
100
AcDbArc
 50
92.729403
 51
267.134016
  0
ARC
  5
D94
100
AcDbEntity
  8
0
100
AcDbCircle
 10
146.336432
 20
142.768323
 30
0.0
 40
20.0
100
AcDbArc
 50
92.865984
 51
267.134016
  0
LINE
  5
D95
100
AcDbEntity
  8
0
100
AcDbLine
 10
147.336432
 20
162.743307
 30
0.0
 11
147.336432
 21
177.754034
 31
0.0
  0
LINE
  5
D96
100
AcDbEntity
  8
0
100
AcDbLine
 10
145.336432
 20
122.793339
 30
0.0
 11
145.336432
 21
107.782612
 31
0.0
  0
LINE
  5
D9A
100
AcDbEntity
  8
CENTER
 48
0.5
100
AcDbLine
 10
71.164976
 20
168.768323
 30
0.0
 11
49.969266
 21
168.768323
 31
0.0
  0
LINE
  5
D9B
100
AcDbEntity
  8
CENTER
 48
0.5
100
AcDbLine
 10
60.567121
 20
158.170468
 30
0.0
 11
60.567121
 21
179.366178
 31
0.0
  0
LINE
  5
D9C
100
AcDbEntity
  8
0
100
AcDbLine
 10
67.567121
 20
175.264477
 30
0.0
 11
53.567121
 21
175.264477
 31
0.0
  0
LINE
  5
D9D
100
AcDbEntity
  8
0
100
AcDbLine
 10
67.567121
 20
168.768323
 30
0.0
 11
67.567121
 21
175.264477
 31
0.0
  0
ARC
  5
D9E
100
AcDbEntity
  8
0
100
AcDbCircle
 10
60.567121
 20
168.768323
 30
0.0
 40
7.0
100
AcDbArc
 50
180.0
 51
0.0
  0
LINE
  5
D9F
100
AcDbEntity
  8
0
100
AcDbLine
 10
53.567121
 20
168.768323
 30
0.0
 11
53.567121
 21
175.264477
 31
0.0
  0
LINE
  5
DBC
100
AcDbEntity
  8
0
100
AcDbLine
 10
-30.148161
 20
176.768323
 30
0.0
 11
-30.148161
 21
163.768323
 31
0.0
  0
LINE
  5
DBD
100
AcDbEntity
  8
0
100
AcDbLine
 10
-48.148161
 20
108.768323
 30
0.0
 11
-48.148161
 21
121.768323
 31
0.0
  0
LINE
  5
DBF
100
AcDbEntity
  8
CENTER
 48
0.5
100
AcDbLine
 10
-39.148161
 20
127.366178
 30
0.0
 11
-39.148161
 21
106.170468
 31
0.0
  0
LINE
  5
DC0
100
AcDbEntity
  8
0
100
AcDbLine
 10
-31.148161
 20
122.768323
 30
0.0
 11
-47.148161
 21
122.768323
 31
0.0
  0
CIRCLE
  5
DC2
100
AcDbEntity
  8
0
 62
     3
100
AcDbCircle
 10
-39.148161
 20
116.768323
 30
0.0
 40
3.3235
  0
CIRCLE
  5
DC3
100
AcDbEntity
  8
0
100
AcDbCircle
 10
-39.148161
 20
116.768323
 30
0.0
 40
4.0
  0
CIRCLE
  5
DC4
100
AcDbEntity
  8
0
100
AcDbCircle
 10
-39.148161
 20
116.768323
 30
0.0
 40
4.5
  0
LINE
  5
DC5
100
AcDbEntity
  8
0
100
AcDbLine
 10
-31.148161
 20
107.768323
 30
0.0
 11
-47.148161
 21
107.768323
 31
0.0
  0
LINE
  5
DC6
100
AcDbEntity
  8
CENTER
 48
0.5
100
AcDbLine
 10
-28.550306
 20
116.768323
 30
0.0
 11
-49.746017
 21
116.768323
 31
0.0
  0
LINE
  5
DC8
100
AcDbEntity
  8
0
100
AcDbLine
 10
-47.148161
 20
107.768323
 30
0.0
 11
-48.148161
 21
108.768323
 31
0.0
  0
LINE
  5
DC9
100
AcDbEntity
  8
0
100
AcDbLine
 10
-47.148161
 20
122.768323
 30
0.0
 11
-48.148161
 21
121.768323
 31
0.0
  0
LINE
  5
DCB
100
AcDbEntity
  8
0
100
AcDbLine
 10
-30.148161
 20
108.768323
 30
0.0
 11
-31.148161
 21
107.768323
 31
0.0
  0
LINE
  5
DCC
100
AcDbEntity
  8
0
100
AcDbLine
 10
-31.148161
 20
122.768323
 30
0.0
 11
-30.148161
 21
121.768323
 31
0.0
  0
LINE
  5
DCD
100
AcDbEntity
  8
CENTER
100
AcDbLine
 10
-25.148161
 20
142.768323
 30
0.0
 11
-53.148161
 21
142.768323
 31
0.0
  0
LINE
  5
DD0
100
AcDbEntity
  8
CENTER
 48
0.5
100
AcDbLine
 10
-39.148161
 20
158.170468
 30
0.0
 11
-39.148161
 21
179.366178
 31
0.0
  0
CIRCLE
  5
DD1
100
AcDbEntity
  8
0
100
AcDbCircle
 10
-39.148161
 20
168.768323
 30
0.0
 40
4.5
  0
CIRCLE
  5
DD2
100
AcDbEntity
  8
0
100
AcDbCircle
 10
-39.148161
 20
168.768323
 30
0.0
 40
4.0
  0
CIRCLE
  5
DD3
100
AcDbEntity
  8
0
 62
     3
100
AcDbCircle
 10
-39.148161
 20
168.768323
 30
0.0
 40
3.3235
  0
LINE
  5
DD5
100
AcDbEntity
  8
CENTER
 48
0.5
100
AcDbLine
 10
-28.550306
 20
168.768323
 30
0.0
 11
-49.746017
 21
168.768323
 31
0.0
  0
LINE
  5
DD6
100
AcDbEntity
  8
0
100
AcDbLine
 10
-31.148161
 20
162.768323
 30
0.0
 11
-47.148161
 21
162.768323
 31
0.0
  0
LINE
  5
DD7
100
AcDbEntity
  8
0
100
AcDbLine
 10
-47.148161
 20
162.768323
 30
0.0
 11
-48.148161
 21
163.768323
 31
0.0
  0
LINE
  5
DD8
100
AcDbEntity
  8
0
100
AcDbLine
 10
-31.148161
 20
162.768323
 30
0.0
 11
-30.148161
 21
163.768323
 31
0.0
  0
LINE
  5
DDA
100
AcDbEntity
  8
0
100
AcDbLine
 10
-31.148161
 20
177.768323
 30
0.0
 11
-47.148161
 21
177.768323
 31
0.0
  0
LINE
  5
DDB
100
AcDbEntity
  8
0
100
AcDbLine
 10
-48.148161
 20
176.768323
 30
0.0
 11
-47.148161
 21
177.768323
 31
0.0
  0
LINE
  5
DDC
100
AcDbEntity
  8
0
100
AcDbLine
 10
-31.148161
 20
177.768323
 30
0.0
 11
-30.148161
 21
176.768323
 31
0.0
  0
POINT
  5
E7E
100
AcDbEntity
  8
0
 60
     1
100
AcDbPoint
 10
249.935873
 20
179.945487
 30
0.0
1001
GENIUS_GENOBJ-NBEHI-BHF_13
1002
{
1000
OWNER
1000
GENBEHI
1002
}
1001
GENIUS_GENOENT_13
1002
{
1000
MYREF
1005
E7E
1002
}
1002
{
1000
GRP
1005
0
1002
}
1001
GENIUS_GENOLIS_13
1002
{
1000
ENT
1005
0
1002
}
1001
GENIUS_GENBH_13
1002
{
1000
OIUMAP
1000
OIU
1002
}
1002
{
1000
FLAGS
1070
    32
1002
}
1002
{
1000
BGO
1005
E7F
1002
}
1001
GENIUS_GENODEF_13
1002
{
1000
HIER
1070
     1
1002
}
1002
{
1000
MANEDIT
1070
     1
1002
}
1002
{
1000
NOSEL
1070
     1
1002
}
1002
{
1000
BEHIND
1070
     0
1002
}
1002
{
1000
REACTOR
1002
}
  0
POINT
  5
E7F
100
AcDbEntity
  8
0
 60
     1
100
AcDbPoint
 10
249.935873
 20
179.945487
 30
0.0
1001
GENIUS_GENOBJ-NBEHI-BHB_13
1002
{
1000
OWNER
1000
GENBEHI
1002
}
1001
GENIUS_GENOENT_13
1002
{
1000
MYREF
1005
E7F
1002
}
1002
{
1000
GRP
1005
0
1002
}
1001
GENIUS_GENOLIS_13
1002
{
1000
ENT
1002
}
1001
GENIUS_GENODEF_13
1002
{
1000
HIER
1070
     1
1002
}
1002
{
1000
MANEDIT
1070
     0
1002
}
1002
{
1000
NOSEL
1070
     1
1002
}
1002
{
1000
BEHIND
1070
     0
1002
}
1002
{
1000
REACTOR
1002
}
1002
{
1000
OTHER
1070
     1
1002
}
1001
GENIUS_GENBH_13
1002
{
1000
FGO
1005
E7E
1002
}
  0
POINT
  5
E80
100
AcDbEntity
  8
0
 60
     1
100
AcDbPoint
 10
249.935873
 20
179.945487
 30
0.0
1001
GENIUS_GENOBJ-NBEHI-BHF_13
1002
{
1000
OWNER
1000
GENBEHI
1002
}
1001
GENIUS_GENOENT_13
1002
{
1000
MYREF
1005
E80
1002
}
1002
{
1000
GRP
1005
0
1002
}
1001
GENIUS_GENOLIS_13
1002
{
1000
ENT
1005
0
1002
}
1001
GENIUS_GENODEF_13
1002
{
1000
HIER
1070
     1
1002
}
1002
{
1000
MANEDIT
1070
     0
1002
}
1002
{
1000
NOSEL
1070
     1
1002
}
1002
{
1000
BEHIND
1070
     0
1002
}
1002
{
1000
REACTOR
1002
}
1001
GENIUS_GENBH_13
1002
{
1000
OIUMAP
1000
OIU
1002
}
1002
{
1000
FLAGS
1070
    32
1002
}
1002
{
1000
BGO
1005
E81
1002
}
  0
POINT
  5
E81
100
AcDbEntity
  8
0
 60
     1
100
AcDbPoint
 10
249.935873
 20
179.945487
 30
0.0
1001
GENIUS_GENOBJ-NBEHI-BHB_13
1002
{
1000
OWNER
1000
GENBEHI
1002
}
1001
GENIUS_GENOENT_13
1002
{
1000
MYREF
1005
E81
1002
}
1002
{
1000
GRP
1005
0
1002
}
1001
GENIUS_GENOLIS_13
1002
{
1000
ENT
1002
}
1001
GENIUS_GENODEF_13
1002
{
1000
HIER
1070
     1
1002
}
1002
{
1000
MANEDIT
1070
     0
1002
}
1002
{
1000
NOSEL
1070
     1
1002
}
1002
{
1000
BEHIND
1070
     0
1002
}
1002
{
1000
REACTOR
1002
}
1002
{
1000
OTHER
1070
     1
1002
}
1001
GENIUS_GENBH_13
1002
{
1000
FGO
1005
E80
1002
}
  0
POINT
  5
E82
100
AcDbEntity
  8
0
 60
     1
100
AcDbPoint
 10
249.935873
 20
179.945487
 30
0.0
1001
GENIUS_GENOBJ-NBEHI-BHF_13
1002
{
1000
OWNER
1000
GENBEHI
1002
}
1001
GENIUS_GENOENT_13
1002
{
1000
MYREF
1005
E82
1002
}
1002
{
1000
GRP
1005
0
1002
}
1001
GENIUS_GENOLIS_13
1002
{
1000
ENT
1005
0
1002
}
1001
GENIUS_GENBH_13
1002
{
1000
OIUMAP
1000
OIU
1002
}
1002
{
1000
FLAGS
1070
    32
1002
}
1002
{
1000
BGO
1005
E83
1002
}
1001
GENIUS_GENODEF_13
1002
{
1000
HIER
1070
     1
1002
}
1002
{
1000
MANEDIT
1070
     1
1002
}
1002
{
1000
NOSEL
1070
     1
1002
}
1002
{
1000
BEHIND
1070
     0
1002
}
1002
{
1000
REACTOR
1002
}
  0
POINT
  5
E83
100
AcDbEntity
  8
0
 60
     1
100
AcDbPoint
 10
249.935873
 20
179.945487
 30
0.0
1001
GENIUS_GENOBJ-NBEHI-BHB_13
1002
{
1000
OWNER
1000
GENBEHI
1002
}
1001
GENIUS_GENOENT_13
1002
{
1000
MYREF
1005
E83
1002
}
1002
{
1000
GRP
1005
0
1002
}
1001
GENIUS_GENOLIS_13
1002
{
1000
ENT
1002
}
1001
GENIUS_GENODEF_13
1002
{
1000
HIER
1070
     1
1002
}
1002
{
1000
MANEDIT
1070
     0
1002
}
1002
{
1000
NOSEL
1070
     1
1002
}
1002
{
1000
BEHIND
1070
     0
1002
}
1002
{
1000
REACTOR
1002
}
1002
{
1000
OTHER
1070
     1
1002
}
1001
GENIUS_GENBH_13
1002
{
1000
FGO
1005
E82
1002
}
  0
POINT
  5
E84
100
AcDbEntity
  8
0
 60
     1
100
AcDbPoint
 10
249.935873
 20
179.945487
 30
0.0
1001
GENIUS_GENOBJ-F-SCPASSM_13
1002
{
1000
OWNER
1000
GEF
1002
}
1001
GENIUS_GENOENT_13
1002
{
1000
MYREF
1005
E84
1002
}
1002
{
1000
GRP
1005
0
1002
}
1001
GENIUS_GENOLIS_13
1002
{
1000
ENT
1005
0
1005
0
1002
}
1001
GENIUS_GENODEF_13
1002
{
1000
HIER
1070
   200
1002
}
1002
{
1000
MANEDIT
1070
     1
1002
}
1002
{
1000
NOSEL
1070
     0
1002
}
1002
{
1000
BEHIND
1070
     0
1002
}
1002
{
1000
REACTOR
1002
}
  0
POINT
  5
E85
100
AcDbEntity
  8
0
 60
     1
100
AcDbPoint
 10
249.935873
 20
179.945487
 30
0.0
1001
GENIUS_GENOBJ-NBEHI-BHF_13
1002
{
1000
OWNER
1000
GENBEHI
1002
}
1001
GENIUS_GENOENT_13
1002
{
1000
MYREF
1005
E85
1002
}
1002
{
1000
GRP
1005
0
1002
}
1001
GENIUS_GENOLIS_13
1002
{
1000
ENT
1005
0
1002
}
1001
GENIUS_GENODEF_13
1002
{
1000
HIER
1070
     1
1002
}
1002
{
1000
MANEDIT
1070
     0
1002
}
1002
{
1000
NOSEL
1070
     1
1002
}
1002
{
1000
BEHIND
1070
     0
1002
}
1002
{
1000
REACTOR
1002
}
1001
GENIUS_GENBH_13
1002
{
1000
OIUMAP
1000
OIU
1002
}
1002
{
1000
FLAGS
1070
    32
1002
}
1002
{
1000
BGO
1005
E86
1002
}
  0
POINT
  5
E86
100
AcDbEntity
  8
0
 60
     1
100
AcDbPoint
 10
249.935873
 20
179.945487
 30
0.0
1001
GENIUS_GENOBJ-NBEHI-BHB_13
1002
{
1000
OWNER
1000
GENBEHI
1002
}
1001
GENIUS_GENOENT_13
1002
{
1000
MYREF
1005
E86
1002
}
1002
{
1000
GRP
1005
0
1002
}
1001
GENIUS_GENOLIS_13
1002
{
1000
ENT
1002
}
1001
GENIUS_GENODEF_13
1002
{
1000
HIER
1070
     1
1002
}
1002
{
1000
MANEDIT
1070
     0
1002
}
1002
{
1000
NOSEL
1070
     1
1002
}
1002
{
1000
BEHIND
1070
     0
1002
}
1002
{
1000
REACTOR
1002
}
1002
{
1000
OTHER
1070
     1
1002
}
1001
GENIUS_GENBH_13
1002
{
1000
FGO
1005
E85
1002
}
  0
POINT
  5
E87
100
AcDbEntity
  8
0
 60
     1
100
AcDbPoint
 10
249.935873
 20
179.945487
 30
0.0
1001
GENIUS_GENOBJ-NBEHI-BHF_13
1002
{
1000
OWNER
1000
GENBEHI
1002
}
1001
GENIUS_GENOENT_13
1002
{
1000
MYREF
1005
E87
1002
}
1002
{
1000
GRP
1005
0
1002
}
1001
GENIUS_GENOLIS_13
1002
{
1000
ENT
1005
0
1002
}
1001
GENIUS_GENBH_13
1002
{
1000
OIUMAP
1000
OIU
1002
}
1002
{
1000
FLAGS
1070
    32
1002
}
1002
{
1000
BGO
1005
E88
1002
}
1001
GENIUS_GENODEF_13
1002
{
1000
HIER
1070
     1
1002
}
1002
{
1000
MANEDIT
1070
     1
1002
}
1002
{
1000
NOSEL
1070
     1
1002
}
1002
{
1000
BEHIND
1070
     0
1002
}
1002
{
1000
REACTOR
1002
}
  0
POINT
  5
E88
100
AcDbEntity
  8
0
 60
     1
100
AcDbPoint
 10
249.935873
 20
179.945487
 30
0.0
1001
GENIUS_GENOBJ-NBEHI-BHB_13
1002
{
1000
OWNER
1000
GENBEHI
1002
}
1001
GENIUS_GENOENT_13
1002
{
1000
MYREF
1005
E88
1002
}
1002
{
1000
GRP
1005
0
1002
}
1001
GENIUS_GENOLIS_13
1002
{
1000
ENT
1005
0
1002
}
1001
GENIUS_GENODEF_13
1002
{
1000
HIER
1070
     1
1002
}
1002
{
1000
MANEDIT
1070
     0
1002
}
1002
{
1000
NOSEL
1070
     1
1002
}
1002
{
1000
BEHIND
1070
     0
1002
}
1002
{
1000
REACTOR
1002
}
1002
{
1000
OTHER
1070
     1
1002
}
1001
GENIUS_GENBH_13
1002
{
1000
FGO
1005
E87
1002
}
  0
POINT
  5
E89
100
AcDbEntity
  8
0
 60
     1
100
AcDbPoint
 10
249.935873
 20
179.945487
 30
0.0
1001
GENIUS_GENOBJ-F-SCPASSM_13
1002
{
1000
OWNER
1000
GEF
1002
}
1001
GENIUS_GENOENT_13
1002
{
1000
MYREF
1005
E89
1002
}
1002
{
1000
GRP
1005
0
1002
}
1001
GENIUS_GENOLIS_13
1002
{
1000
ENT
1005
0
1005
0
1002
}
1001
GENIUS_GENODEF_13
1002
{
1000
HIER
1070
   200
1002
}
1002
{
1000
MANEDIT
1070
     1
1002
}
1002
{
1000
NOSEL
1070
     0
1002
}
1002
{
1000
BEHIND
1070
     0
1002
}
1002
{
1000
REACTOR
1002
}
  0
POINT
  5
E8A
100
AcDbEntity
  8
0
 60
     1
100
AcDbPoint
 10
249.935873
 20
179.945487
 30
0.0
1001
GENIUS_GENOBJ-NBEHI-BHF_13
1002
{
1000
OWNER
1000
GENBEHI
1002
}
1001
GENIUS_GENOENT_13
1002
{
1000
MYREF
1005
E8A
1002
}
1002
{
1000
GRP
1005
0
1002
}
1001
GENIUS_GENOLIS_13
1002
{
1000
ENT
1005
0
1002
}
1001
GENIUS_GENODEF_13
1002
{
1000
HIER
1070
     1
1002
}
1002
{
1000
MANEDIT
1070
     0
1002
}
1002
{
1000
NOSEL
1070
     1
1002
}
1002
{
1000
BEHIND
1070
     0
1002
}
1002
{
1000
REACTOR
1002
}
1001
GENIUS_GENBH_13
1002
{
1000
OIUMAP
1000
OIU
1002
}
1002
{
1000
FLAGS
1070
    32
1002
}
1002
{
1000
BGO
1005
E8B
1002
}
  0
POINT
  5
E8B
100
AcDbEntity
  8
0
 60
     1
100
AcDbPoint
 10
249.935873
 20
179.945487
 30
0.0
1001
GENIUS_GENOBJ-NBEHI-BHB_13
1002
{
1000
OWNER
1000
GENBEHI
1002
}
1001
GENIUS_GENOENT_13
1002
{
1000
MYREF
1005
E8B
1002
}
1002
{
1000
GRP
1005
0
1002
}
1001
GENIUS_GENOLIS_13
1002
{
1000
ENT
1002
}
1001
GENIUS_GENODEF_13
1002
{
1000
HIER
1070
     1
1002
}
1002
{
1000
MANEDIT
1070
     0
1002
}
1002
{
1000
NOSEL
1070
     1
1002
}
1002
{
1000
BEHIND
1070
     0
1002
}
1002
{
1000
REACTOR
1002
}
1002
{
1000
OTHER
1070
     1
1002
}
1001
GENIUS_GENBH_13
1002
{
1000
FGO
1005
E8A
1002
}
  0
POINT
  5
E8C
100
AcDbEntity
  8
0
 60
     1
100
AcDbPoint
 10
249.935873
 20
179.945487
 30
0.0
1001
GENIUS_GENOBJ-NBEHI-BHF_13
1002
{
1000
OWNER
1000
GENBEHI
1002
}
1001
GENIUS_GENOENT_13
1002
{
1000
MYREF
1005
E8C
1002
}
1002
{
1000
GRP
1005
0
1002
}
1001
GENIUS_GENOLIS_13
1002
{
1000
ENT
1005
0
1002
}
1001
GENIUS_GENBH_13
1002
{
1000
OIUMAP
1000
OIU
1002
}
1002
{
1000
FLAGS
1070
    32
1002
}
1002
{
1000
BGO
1005
E8D
1002
}
1001
GENIUS_GENODEF_13
1002
{
1000
HIER
1070
     1
1002
}
1002
{
1000
MANEDIT
1070
     1
1002
}
1002
{
1000
NOSEL
1070
     1
1002
}
1002
{
1000
BEHIND
1070
     0
1002
}
1002
{
1000
REACTOR
1002
}
  0
POINT
  5
E8D
100
AcDbEntity
  8
0
 60
     1
100
AcDbPoint
 10
249.935873
 20
179.945487
 30
0.0
1001
GENIUS_GENOBJ-NBEHI-BHB_13
1002
{
1000
OWNER
1000
GENBEHI
1002
}
1001
GENIUS_GENOENT_13
1002
{
1000
MYREF
1005
E8D
1002
}
1002
{
1000
GRP
1005
0
1002
}
1001
GENIUS_GENOLIS_13
1002
{
1000
ENT
1005
0
1002
}
1001
GENIUS_GENODEF_13
1002
{
1000
HIER
1070
     1
1002
}
1002
{
1000
MANEDIT
1070
     0
1002
}
1002
{
1000
NOSEL
1070
     1
1002
}
1002
{
1000
BEHIND
1070
     0
1002
}
1002
{
1000
REACTOR
1002
}
1002
{
1000
OTHER
1070
     1
1002
}
1001
GENIUS_GENBH_13
1002
{
1000
FGO
1005
E8C
1002
}
  0
POINT
  5
E8E
100
AcDbEntity
  8
0
 60
     1
100
AcDbPoint
 10
249.935873
 20
179.945487
 30
0.0
1001
GENIUS_GENOBJ-F-SCPASSM_13
1002
{
1000
OWNER
1000
GEF
1002
}
1001
GENIUS_GENOENT_13
1002
{
1000
MYREF
1005
E8E
1002
}
1002
{
1000
GRP
1005
0
1002
}
1001
GENIUS_GENOLIS_13
1002
{
1000
ENT
1005
0
1005
0
1002
}
1001
GENIUS_GENODEF_13
1002
{
1000
HIER
1070
   200
1002
}
1002
{
1000
MANEDIT
1070
     1
1002
}
1002
{
1000
NOSEL
1070
     0
1002
}
1002
{
1000
BEHIND
1070
     0
1002
}
1002
{
1000
REACTOR
1002
}
  0
POINT
  5
E8F
100
AcDbEntity
  8
0
 60
     1
100
AcDbPoint
 10
249.935873
 20
179.945487
 30
0.0
1001
GENIUS_GENOBJ-NBEHI-BHF_13
1002
{
1000
OWNER
1000
GENBEHI
1002
}
1001
GENIUS_GENOENT_13
1002
{
1000
MYREF
1005
E8F
1002
}
1002
{
1000
GRP
1005
0
1002
}
1001
GENIUS_GENOLIS_13
1002
{
1000
ENT
1005
0
1002
}
1001
GENIUS_GENODEF_13
1002
{
1000
HIER
1070
     1
1002
}
1002
{
1000
MANEDIT
1070
     0
1002
}
1002
{
1000
NOSEL
1070
     1
1002
}
1002
{
1000
BEHIND
1070
     0
1002
}
1002
{
1000
REACTOR
1002
}
1001
GENIUS_GENBH_13
1002
{
1000
OIUMAP
1000
OIU
1002
}
1002
{
1000
FLAGS
1070
    32
1002
}
1002
{
1000
BGO
1005
E90
1002
}
  0
POINT
  5
E90
100
AcDbEntity
  8
0
 60
     1
100
AcDbPoint
 10
249.935873
 20
179.945487
 30
0.0
1001
GENIUS_GENOBJ-NBEHI-BHB_13
1002
{
1000
OWNER
1000
GENBEHI
1002
}
1001
GENIUS_GENOENT_13
1002
{
1000
MYREF
1005
E90
1002
}
1002
{
1000
GRP
1005
0
1002
}
1001
GENIUS_GENOLIS_13
1002
{
1000
ENT
1002
}
1001
GENIUS_GENODEF_13
1002
{
1000
HIER
1070
     1
1002
}
1002
{
1000
MANEDIT
1070
     0
1002
}
1002
{
1000
NOSEL
1070
     1
1002
}
1002
{
1000
BEHIND
1070
     0
1002
}
1002
{
1000
REACTOR
1002
}
1002
{
1000
OTHER
1070
     1
1002
}
1001
GENIUS_GENBH_13
1002
{
1000
FGO
1005
E8F
1002
}
  0
POINT
  5
E91
100
AcDbEntity
  8
0
 60
     1
100
AcDbPoint
 10
249.935873
 20
179.945487
 30
0.0
1001
GENIUS_GENOBJ-NBEHI-BHF_13
1002
{
1000
OWNER
1000
GENBEHI
1002
}
1001
GENIUS_GENOENT_13
1002
{
1000
MYREF
1005
E91
1002
}
1002
{
1000
GRP
1005
0
1002
}
1001
GENIUS_GENOLIS_13
1002
{
1000
ENT
1005
0
1002
}
1001
GENIUS_GENBH_13
1002
{
1000
OIUMAP
1000
OIU
1002
}
1002
{
1000
FLAGS
1070
    32
1002
}
1002
{
1000
BGO
1005
E92
1002
}
1001
GENIUS_GENODEF_13
1002
{
1000
HIER
1070
     1
1002
}
1002
{
1000
MANEDIT
1070
     1
1002
}
1002
{
1000
NOSEL
1070
     1
1002
}
1002
{
1000
BEHIND
1070
     0
1002
}
1002
{
1000
REACTOR
1002
}
  0
POINT
  5
E92
100
AcDbEntity
  8
0
 60
     1
100
AcDbPoint
 10
249.935873
 20
179.945487
 30
0.0
1001
GENIUS_GENOBJ-NBEHI-BHB_13
1002
{
1000
OWNER
1000
GENBEHI
1002
}
1001
GENIUS_GENOENT_13
1002
{
1000
MYREF
1005
E92
1002
}
1002
{
1000
GRP
1005
0
1002
}
1001
GENIUS_GENOLIS_13
1002
{
1000
ENT
1005
0
1002
}
1001
GENIUS_GENODEF_13
1002
{
1000
HIER
1070
     1
1002
}
1002
{
1000
MANEDIT
1070
     0
1002
}
1002
{
1000
NOSEL
1070
     1
1002
}
1002
{
1000
BEHIND
1070
     0
1002
}
1002
{
1000
REACTOR
1002
}
1002
{
1000
OTHER
1070
     1
1002
}
1001
GENIUS_GENBH_13
1002
{
1000
FGO
1005
E91
1002
}
  0
POINT
  5
E93
100
AcDbEntity
  8
0
 60
     1
100
AcDbPoint
 10
249.935873
 20
179.945487
 30
0.0
1001
GENIUS_GENOBJ-F-SCPASSM_13
1002
{
1000
OWNER
1000
GEF
1002
}
1001
GENIUS_GENOENT_13
1002
{
1000
MYREF
1005
E93
1002
}
1002
{
1000
GRP
1005
0
1002
}
1001
GENIUS_GENOLIS_13
1002
{
1000
ENT
1005
0
1005
0
1002
}
1001
GENIUS_GENODEF_13
1002
{
1000
HIER
1070
   200
1002
}
1002
{
1000
MANEDIT
1070
     1
1002
}
1002
{
1000
NOSEL
1070
     0
1002
}
1002
{
1000
BEHIND
1070
     0
1002
}
1002
{
1000
REACTOR
1002
}
  0
POINT
  5
E94
100
AcDbEntity
  8
0
 60
     1
100
AcDbPoint
 10
249.935873
 20
179.945487
 30
0.0
1001
GENIUS_GENOBJ-NBEHI-BHB_13
1002
{
1000
OWNER
1000
GENBEHI
1002
}
1001
GENIUS_GENOENT_13
1002
{
1000
MYREF
1005
E94
1002
}
1002
{
1000
GRP
1005
0
1002
}
1001
GENIUS_GENOLIS_13
1002
{
1000
ENT
1002
}
1001
GENIUS_GENODEF_13
1002
{
1000
HIER
1070
     1
1002
}
1002
{
1000
MANEDIT
1070
     0
1002
}
1002
{
1000
NOSEL
1070
     1
1002
}
1002
{
1000
BEHIND
1070
     0
1002
}
1002
{
1000
REACTOR
1002
}
1002
{
1000
OTHER
1070
     1
1002
}
1001
GENIUS_GENBH_13
1002
{
1000
FGO
1005
0
1002
}
  0
POINT
  5
E95
100
AcDbEntity
  8
0
 60
     1
100
AcDbPoint
 10
249.935873
 20
179.945487
 30
0.0
1001
GENIUS_GENOBJ-NBEHI-BHF_13
1002
{
1000
OWNER
1000
GENBEHI
1002
}
1001
GENIUS_GENOENT_13
1002
{
1000
MYREF
1005
E95
1002
}
1002
{
1000
GRP
1005
0
1002
}
1001
GENIUS_GENOLIS_13
1002
{
1000
ENT
1005
0
1002
}
1001
GENIUS_GENBH_13
1002
{
1000
OIUMAP
1000
OIU
1002
}
1002
{
1000
FLAGS
1070
    32
1002
}
1002
{
1000
BGO
1005
0
1002
}
1001
GENIUS_GENODEF_13
1002
{
1000
HIER
1070
     1
1002
}
1002
{
1000
MANEDIT
1070
     1
1002
}
1002
{
1000
NOSEL
1070
     1
1002
}
1002
{
1000
BEHIND
1070
     0
1002
}
1002
{
1000
REACTOR
1002
}
  0
POINT
  5
E96
100
AcDbEntity
  8
0
 60
     1
100
AcDbPoint
 10
249.935873
 20
179.945487
 30
0.0
1001
GENIUS_GENOBJ-NBEHI-BHF_13
1002
{
1000
OWNER
1000
GENBEHI
1002
}
1001
GENIUS_GENOENT_13
1002
{
1000
MYREF
1005
E96
1002
}
1002
{
1000
GRP
1005
0
1002
}
1001
GENIUS_GENOLIS_13
1002
{
1000
ENT
1005
0
1002
}
1001
GENIUS_GENODEF_13
1002
{
1000
HIER
1070
     1
1002
}
1002
{
1000
MANEDIT
1070
     0
1002
}
1002
{
1000
NOSEL
1070
     1
1002
}
1002
{
1000
BEHIND
1070
     0
1002
}
1002
{
1000
REACTOR
1002
}
1001
GENIUS_GENBH_13
1002
{
1000
OIUMAP
1000
OIU
1002
}
1002
{
1000
FLAGS
1070
    32
1002
}
1002
{
1000
BGO
1005
E97
1002
}
  0
POINT
  5
E97
100
AcDbEntity
  8
0
 60
     1
100
AcDbPoint
 10
249.935873
 20
179.945487
 30
0.0
1001
GENIUS_GENOBJ-NBEHI-BHB_13
1002
{
1000
OWNER
1000
GENBEHI
1002
}
1001
GENIUS_GENOENT_13
1002
{
1000
MYREF
1005
E97
1002
}
1002
{
1000
GRP
1005
0
1002
}
1001
GENIUS_GENOLIS_13
1002
{
1000
ENT
1002
}
1001
GENIUS_GENODEF_13
1002
{
1000
HIER
1070
     1
1002
}
1002
{
1000
MANEDIT
1070
     0
1002
}
1002
{
1000
NOSEL
1070
     1
1002
}
1002
{
1000
BEHIND
1070
     0
1002
}
1002
{
1000
REACTOR
1002
}
1002
{
1000
OTHER
1070
     1
1002
}
1001
GENIUS_GENBH_13
1002
{
1000
FGO
1005
E96
1002
}
  0
POINT
  5
E98
100
AcDbEntity
  8
0
 60
     1
100
AcDbPoint
 10
249.935873
 20
179.945487
 30
0.0
1001
GENIUS_GENOBJ-NBEHI-BHF_13
1002
{
1000
OWNER
1000
GENBEHI
1002
}
1001
GENIUS_GENOENT_13
1002
{
1000
MYREF
1005
E98
1002
}
1002
{
1000
GRP
1005
0
1002
}
1001
GENIUS_GENOLIS_13
1002
{
1000
ENT
1005
0
1002
}
1001
GENIUS_GENBH_13
1002
{
1000
OIUMAP
1000
OIU
1002
}
1002
{
1000
FLAGS
1070
    32
1002
}
1002
{
1000
BGO
1005
E99
1002
}
1001
GENIUS_GENODEF_13
1002
{
1000
HIER
1070
     1
1002
}
1002
{
1000
MANEDIT
1070
     1
1002
}
1002
{
1000
NOSEL
1070
     1
1002
}
1002
{
1000
BEHIND
1070
     0
1002
}
1002
{
1000
REACTOR
1002
}
  0
POINT
  5
E99
100
AcDbEntity
  8
0
 60
     1
100
AcDbPoint
 10
249.935873
 20
179.945487
 30
0.0
1001
GENIUS_GENOBJ-NBEHI-BHB_13
1002
{
1000
OWNER
1000
GENBEHI
1002
}
1001
GENIUS_GENOENT_13
1002
{
1000
MYREF
1005
E99
1002
}
1002
{
1000
GRP
1005
0
1002
}
1001
GENIUS_GENOLIS_13
1002
{
1000
ENT
1005
0
1002
}
1001
GENIUS_GENODEF_13
1002
{
1000
HIER
1070
     1
1002
}
1002
{
1000
MANEDIT
1070
     0
1002
}
1002
{
1000
NOSEL
1070
     1
1002
}
1002
{
1000
BEHIND
1070
     0
1002
}
1002
{
1000
REACTOR
1002
}
1002
{
1000
OTHER
1070
     1
1002
}
1001
GENIUS_GENBH_13
1002
{
1000
FGO
1005
E98
1002
}
  0
POINT
  5
E9A
100
AcDbEntity
  8
0
 60
     1
100
AcDbPoint
 10
249.935873
 20
179.945487
 30
0.0
1001
GENIUS_GENOBJ-F-SCPASSM_13
1002
{
1000
OWNER
1000
GEF
1002
}
1001
GENIUS_GENOENT_13
1002
{
1000
MYREF
1005
E9A
1002
}
1002
{
1000
GRP
1005
0
1002
}
1001
GENIUS_GENOLIS_13
1002
{
1000
ENT
1005
0
1005
0
1002
}
1001
GENIUS_GENODEF_13
1002
{
1000
HIER
1070
   200
1002
}
1002
{
1000
MANEDIT
1070
     1
1002
}
1002
{
1000
NOSEL
1070
     0
1002
}
1002
{
1000
BEHIND
1070
     0
1002
}
1002
{
1000
REACTOR
1002
}
  0
POINT
  5
E9B
100
AcDbEntity
  8
0
 60
     1
100
AcDbPoint
 10
249.935873
 20
179.945487
 30
0.0
1001
GENIUS_GENOBJ-NBEHI-BHF_13
1002
{
1000
OWNER
1000
GENBEHI
1002
}
1001
GENIUS_GENOENT_13
1002
{
1000
MYREF
1005
E9B
1002
}
1002
{
1000
GRP
1005
0
1002
}
1001
GENIUS_GENOLIS_13
1002
{
1000
ENT
1005
0
1002
}
1001
GENIUS_GENODEF_13
1002
{
1000
HIER
1070
     1
1002
}
1002
{
1000
MANEDIT
1070
     0
1002
}
1002
{
1000
NOSEL
1070
     1
1002
}
1002
{
1000
BEHIND
1070
     0
1002
}
1002
{
1000
REACTOR
1002
}
1001
GENIUS_GENBH_13
1002
{
1000
OIUMAP
1000
OIU
1002
}
1002
{
1000
FLAGS
1070
    32
1002
}
1002
{
1000
BGO
1005
E9C
1002
}
  0
POINT
  5
E9C
100
AcDbEntity
  8
0
 60
     1
100
AcDbPoint
 10
249.935873
 20
179.945487
 30
0.0
1001
GENIUS_GENOBJ-NBEHI-BHB_13
1002
{
1000
OWNER
1000
GENBEHI
1002
}
1001
GENIUS_GENOENT_13
1002
{
1000
MYREF
1005
E9C
1002
}
1002
{
1000
GRP
1005
0
1002
}
1001
GENIUS_GENOLIS_13
1002
{
1000
ENT
1002
}
1001
GENIUS_GENODEF_13
1002
{
1000
HIER
1070
     1
1002
}
1002
{
1000
MANEDIT
1070
     0
1002
}
1002
{
1000
NOSEL
1070
     1
1002
}
1002
{
1000
BEHIND
1070
     0
1002
}
1002
{
1000
REACTOR
1002
}
1002
{
1000
OTHER
1070
     1
1002
}
1001
GENIUS_GENBH_13
1002
{
1000
FGO
1005
E9B
1002
}
  0
POINT
  5
E9D
100
AcDbEntity
  8
0
 60
     1
100
AcDbPoint
 10
249.935873
 20
179.945487
 30
0.0
1001
GENIUS_GENOBJ-NBEHI-BHF_13
1002
{
1000
OWNER
1000
GENBEHI
1002
}
1001
GENIUS_GENOENT_13
1002
{
1000
MYREF
1005
E9D
1002
}
1002
{
1000
GRP
1005
0
1002
}
1001
GENIUS_GENOLIS_13
1002
{
1000
ENT
1005
0
1002
}
1001
GENIUS_GENBH_13
1002
{
1000
OIUMAP
1000
OIU
1002
}
1002
{
1000
FLAGS
1070
    32
1002
}
1002
{
1000
BGO
1005
E9E
1002
}
1001
GENIUS_GENODEF_13
1002
{
1000
HIER
1070
     1
1002
}
1002
{
1000
MANEDIT
1070
     1
1002
}
1002
{
1000
NOSEL
1070
     1
1002
}
1002
{
1000
BEHIND
1070
     0
1002
}
1002
{
1000
REACTOR
1002
}
  0
POINT
  5
E9E
100
AcDbEntity
  8
0
 60
     1
100
AcDbPoint
 10
249.935873
 20
179.945487
 30
0.0
1001
GENIUS_GENOBJ-NBEHI-BHB_13
1002
{
1000
OWNER
1000
GENBEHI
1002
}
1001
GENIUS_GENOENT_13
1002
{
1000
MYREF
1005
E9E
1002
}
1002
{
1000
GRP
1005
0
1002
}
1001
GENIUS_GENOLIS_13
1002
{
1000
ENT
1005
0
1002
}
1001
GENIUS_GENODEF_13
1002
{
1000
HIER
1070
     1
1002
}
1002
{
1000
MANEDIT
1070
     0
1002
}
1002
{
1000
NOSEL
1070
     1
1002
}
1002
{
1000
BEHIND
1070
     0
1002
}
1002
{
1000
REACTOR
1002
}
1002
{
1000
OTHER
1070
     1
1002
}
1001
GENIUS_GENBH_13
1002
{
1000
FGO
1005
E9D
1002
}
  0
POINT
  5
E9F
100
AcDbEntity
  8
0
 60
     1
100
AcDbPoint
 10
249.935873
 20
179.945487
 30
0.0
1001
GENIUS_GENOBJ-F-SCPASSM_13
1002
{
1000
OWNER
1000
GEF
1002
}
1001
GENIUS_GENOENT_13
1002
{
1000
MYREF
1005
E9F
1002
}
1002
{
1000
GRP
1005
0
1002
}
1001
GENIUS_GENOLIS_13
1002
{
1000
ENT
1005
0
1005
0
1002
}
1001
GENIUS_GENODEF_13
1002
{
1000
HIER
1070
   200
1002
}
1002
{
1000
MANEDIT
1070
     1
1002
}
1002
{
1000
NOSEL
1070
     0
1002
}
1002
{
1000
BEHIND
1070
     0
1002
}
1002
{
1000
REACTOR
1002
}
  0
POINT
  5
EA0
100
AcDbEntity
  8
0
 60
     1
100
AcDbPoint
 10
249.935873
 20
179.945487
 30
0.0
1001
GENIUS_GENOBJ-NBEHI-BHF_13
1002
{
1000
OWNER
1000
GENBEHI
1002
}
1001
GENIUS_GENOENT_13
1002
{
1000
MYREF
1005
EA0
1002
}
1002
{
1000
GRP
1005
0
1002
}
1001
GENIUS_GENOLIS_13
1002
{
1000
ENT
1005
0
1002
}
1001
GENIUS_GENODEF_13
1002
{
1000
HIER
1070
     1
1002
}
1002
{
1000
MANEDIT
1070
     0
1002
}
1002
{
1000
NOSEL
1070
     1
1002
}
1002
{
1000
BEHIND
1070
     0
1002
}
1002
{
1000
REACTOR
1002
}
1001
GENIUS_GENBH_13
1002
{
1000
OIUMAP
1000
OIU
1002
}
1002
{
1000
FLAGS
1070
    32
1002
}
1002
{
1000
BGO
1005
EA1
1002
}
  0
POINT
  5
EA1
100
AcDbEntity
  8
0
 60
     1
100
AcDbPoint
 10
249.935873
 20
179.945487
 30
0.0
1001
GENIUS_GENOBJ-NBEHI-BHB_13
1002
{
1000
OWNER
1000
GENBEHI
1002
}
1001
GENIUS_GENOENT_13
1002
{
1000
MYREF
1005
EA1
1002
}
1002
{
1000
GRP
1005
0
1002
}
1001
GENIUS_GENOLIS_13
1002
{
1000
ENT
1002
}
1001
GENIUS_GENODEF_13
1002
{
1000
HIER
1070
     1
1002
}
1002
{
1000
MANEDIT
1070
     0
1002
}
1002
{
1000
NOSEL
1070
     1
1002
}
1002
{
1000
BEHIND
1070
     0
1002
}
1002
{
1000
REACTOR
1002
}
1002
{
1000
OTHER
1070
     1
1002
}
1001
GENIUS_GENBH_13
1002
{
1000
FGO
1005
EA0
1002
}
  0
POINT
  5
EA2
100
AcDbEntity
  8
0
 60
     1
100
AcDbPoint
 10
249.935873
 20
179.945487
 30
0.0
1001
GENIUS_GENOBJ-NBEHI-BHF_13
1002
{
1000
OWNER
1000
GENBEHI
1002
}
1001
GENIUS_GENOENT_13
1002
{
1000
MYREF
1005
EA2
1002
}
1002
{
1000
GRP
1005
0
1002
}
1001
GENIUS_GENOLIS_13
1002
{
1000
ENT
1005
0
1002
}
1001
GENIUS_GENBH_13
1002
{
1000
OIUMAP
1000
OIU
1002
}
1002
{
1000
FLAGS
1070
    32
1002
}
1002
{
1000
BGO
1005
EA3
1002
}
1001
GENIUS_GENODEF_13
1002
{
1000
HIER
1070
     1
1002
}
1002
{
1000
MANEDIT
1070
     1
1002
}
1002
{
1000
NOSEL
1070
     1
1002
}
1002
{
1000
BEHIND
1070
     0
1002
}
1002
{
1000
REACTOR
1002
}
  0
POINT
  5
EA3
100
AcDbEntity
  8
0
 60
     1
100
AcDbPoint
 10
249.935873
 20
179.945487
 30
0.0
1001
GENIUS_GENOBJ-NBEHI-BHB_13
1002
{
1000
OWNER
1000
GENBEHI
1002
}
1001
GENIUS_GENOENT_13
1002
{
1000
MYREF
1005
EA3
1002
}
1002
{
1000
GRP
1005
0
1002
}
1001
GENIUS_GENOLIS_13
1002
{
1000
ENT
1005
0
1002
}
1001
GENIUS_GENODEF_13
1002
{
1000
HIER
1070
     1
1002
}
1002
{
1000
MANEDIT
1070
     0
1002
}
1002
{
1000
NOSEL
1070
     1
1002
}
1002
{
1000
BEHIND
1070
     0
1002
}
1002
{
1000
REACTOR
1002
}
1002
{
1000
OTHER
1070
     1
1002
}
1001
GENIUS_GENBH_13
1002
{
1000
FGO
1005
EA2
1002
}
  0
POINT
  5
EA4
100
AcDbEntity
  8
0
 60
     1
100
AcDbPoint
 10
249.935873
 20
179.945487
 30
0.0
1001
GENIUS_GENOBJ-F-SCPASSM_13
1002
{
1000
OWNER
1000
GEF
1002
}
1001
GENIUS_GENOENT_13
1002
{
1000
MYREF
1005
EA4
1002
}
1002
{
1000
GRP
1005
0
1002
}
1001
GENIUS_GENOLIS_13
1002
{
1000
ENT
1005
0
1005
0
1002
}
1001
GENIUS_GENODEF_13
1002
{
1000
HIER
1070
   200
1002
}
1002
{
1000
MANEDIT
1070
     1
1002
}
1002
{
1000
NOSEL
1070
     0
1002
}
1002
{
1000
BEHIND
1070
     0
1002
}
1002
{
1000
REACTOR
1002
}
  0
LINE
  5
EA5
100
AcDbEntity
  8
0
  6
HIDDEN
100
AcDbLine
 10
133.336432
 20
175.268323
 30
0.0
 11
133.336432
 21
175.268323
 31
0.0
1001
GENIUS_GENOREF_13
1005
EA2
1005
EA4
  0
LINE
  5
EA6
100
AcDbEntity
  8
0
  6
HIDDEN
100
AcDbLine
 10
126.136432
 20
162.268323
 30
0.0
 11
133.336432
 21
162.268323
 31
0.0
1001
GENIUS_GENOREF_13
1005
EA2
1005
EA4
  0
LINE
  5
EA7
100
AcDbEntity
  8
0
  6
HIDDEN
100
AcDbLine
 10
125.336432
 20
163.068323
 30
0.0
 11
125.336432
 21
170.830144
 31
0.0
1001
GENIUS_GENOREF_13
1005
EA2
1005
EA4
  0
ARC
  5
EA8
100
AcDbEntity
  8
0
100
AcDbCircle
 10
126.136432
 20
163.068323
 30
0.0
 40
0.8
100
AcDbArc
 50
180.0
 51
270.0
1001
GENIUS_GENOREF_13
1005
EA2
1005
EA4
  0
ARC
  5
EA9
100
AcDbEntity
  8
0
100
AcDbCircle
 10
126.136432
 20
174.468323
 30
0.0
 40
0.8
100
AcDbArc
 50
90.0
 51
180.0
1001
GENIUS_GENOREF_13
1005
EA2
1005
EA4
  0
LINE
  5
EAA
100
AcDbEntity
  8
0
  6
HIDDEN
100
AcDbLine
 10
172.919739
 20
165.535135
 30
0.0
 11
147.336432
 21
165.535135
 31
0.0
1001
GENIUS_GENOREF_13
1005
EA2
1005
EA4
  0
LINE
  5
EAB
100
AcDbEntity
  8
0
  6
HIDDEN
100
AcDbLine
 10
165.58275
 20
172.00151
 30
0.0
 11
147.336432
 21
172.00151
 31
0.0
1001
GENIUS_GENOREF_13
1005
EA2
1005
EA4
  0
LINE
  5
EAC
100
AcDbEntity
  8
0
100
AcDbLine
 10
162.569619
 20
164.768323
 30
0.0
 11
163.336432
 21
165.535135
 31
0.0
1001
GENIUS_GENOREF_13
1005
EA2
1005
EA4
  0
LINE
  5
EAD
100
AcDbEntity
  8
0
100
AcDbLine
 10
162.569619
 20
172.768323
 30
0.0
 11
163.336432
 21
172.00151
 31
0.0
1001
GENIUS_GENOREF_13
1005
EA2
1005
EA4
  0
LINE
  5
EAE
100
AcDbEntity
  8
0
  6
HIDDEN
100
AcDbLine
 10
133.336432
 20
164.768323
 30
0.0
 11
145.336432
 21
164.768323
 31
0.0
1001
GENIUS_GENOREF_13
1005
EA2
1005
EA4
  0
LINE
  5
EAF
100
AcDbEntity
  8
0
  6
HIDDEN
100
AcDbLine
 10
133.336432
 20
172.768323
 30
0.0
 11
145.336432
 21
172.768323
 31
0.0
1001
GENIUS_GENOREF_13
1005
EA2
1005
EA4
  0
LINE
  5
EB0
100
AcDbEntity
  8
0
  6
HIDDEN
100
AcDbLine
 10
133.336432
 20
162.410135
 30
0.0
 11
133.336432
 21
175.12651
 31
0.0
1001
GENIUS_GENOREF_13
1005
EA2
1005
EA4
  0
LINE
  5
EB1
100
AcDbEntity
  8
0
  6
HIDDEN
100
AcDbLine
 10
136.461432
 20
172.768323
 30
0.0
 11
136.461432
 21
164.768323
 31
0.0
1001
GENIUS_GENOREF_13
1005
EA2
1005
EA4
  0
LINE
  5
EB2
100
AcDbEntity
  8
0
100
AcDbLine
 10
136.461432
 20
165.535135
 30
0.0
 11
135.694619
 21
164.768323
 31
0.0
1001
GENIUS_GENOREF_13
1005
EA2
1005
EA4
  0
LINE
  5
EB3
100
AcDbEntity
  8
0
100
AcDbLine
 10
136.461432
 20
172.00151
 30
0.0
 11
135.694619
 21
172.768323
 31
0.0
1001
GENIUS_GENOREF_13
1005
EA2
1005
EA4
  0
LINE
  5
EB4
100
AcDbEntity
  8
0
  6
HIDDEN
100
AcDbLine
 10
162.569619
 20
172.768323
 30
0.0
 11
162.569619
 21
164.768323
 31
0.0
1001
GENIUS_GENOREF_13
1005
EA2
1005
EA4
  0
LINE
  5
EB5
100
AcDbEntity
  8
0
  6
HIDDEN
100
AcDbLine
 10
163.336432
 20
172.00151
 30
0.0
 11
163.336432
 21
165.535135
 31
0.0
1001
GENIUS_GENOREF_13
1005
EA2
1005
EA4
  0
POINT
  5
EB6
100
AcDbEntity
  8
0
 60
     1
100
AcDbPoint
 10
249.935873
 20
179.945487
 30
0.0
1001
GENIUS_GENOBJ-NBEHI-BHF_13
1002
{
1000
OWNER
1000
GENBEHI
1002
}
1001
GENIUS_GENOENT_13
1002
{
1000
MYREF
1005
EB6
1002
}
1002
{
1000
GRP
1005
0
1002
}
1001
GENIUS_GENOLIS_13
1002
{
1000
ENT
1005
0
1002
}
1001
GENIUS_GENODEF_13
1002
{
1000
HIER
1070
     1
1002
}
1002
{
1000
MANEDIT
1070
     0
1002
}
1002
{
1000
NOSEL
1070
     1
1002
}
1002
{
1000
BEHIND
1070
     0
1002
}
1002
{
1000
REACTOR
1002
}
1001
GENIUS_GENBH_13
1002
{
1000
OIUMAP
1000
OIU
1002
}
1002
{
1000
FLAGS
1070
    32
1002
}
1002
{
1000
BGO
1005
EB7
1002
}
  0
POINT
  5
EB7
100
AcDbEntity
  8
0
 60
     1
100
AcDbPoint
 10
249.935873
 20
179.945487
 30
0.0
1001
GENIUS_GENOBJ-NBEHI-BHB_13
1002
{
1000
OWNER
1000
GENBEHI
1002
}
1001
GENIUS_GENOENT_13
1002
{
1000
MYREF
1005
EB7
1002
}
1002
{
1000
GRP
1005
0
1002
}
1001
GENIUS_GENOLIS_13
1002
{
1000
ENT
1002
}
1001
GENIUS_GENODEF_13
1002
{
1000
HIER
1070
     1
1002
}
1002
{
1000
MANEDIT
1070
     0
1002
}
1002
{
1000
NOSEL
1070
     1
1002
}
1002
{
1000
BEHIND
1070
     0
1002
}
1002
{
1000
REACTOR
1002
}
1002
{
1000
OTHER
1070
     1
1002
}
1001
GENIUS_GENBH_13
1002
{
1000
FGO
1005
EB6
1002
}
  0
POINT
  5
EB8
100
AcDbEntity
  8
0
 60
     1
100
AcDbPoint
 10
249.935873
 20
179.945487
 30
0.0
1001
GENIUS_GENOBJ-NBEHI-BHF_13
1002
{
1000
OWNER
1000
GENBEHI
1002
}
1001
GENIUS_GENOENT_13
1002
{
1000
MYREF
1005
EB8
1002
}
1002
{
1000
GRP
1005
0
1002
}
1001
GENIUS_GENOLIS_13
1002
{
1000
ENT
1005
0
1002
}
1001
GENIUS_GENBH_13
1002
{
1000
OIUMAP
1000
OIU
1002
}
1002
{
1000
FLAGS
1070
    32
1002
}
1002
{
1000
BGO
1005
EB9
1002
}
1001
GENIUS_GENODEF_13
1002
{
1000
HIER
1070
     1
1002
}
1002
{
1000
MANEDIT
1070
     1
1002
}
1002
{
1000
NOSEL
1070
     1
1002
}
1002
{
1000
BEHIND
1070
     0
1002
}
1002
{
1000
REACTOR
1002
}
  0
POINT
  5
EB9
100
AcDbEntity
  8
0
 60
     1
100
AcDbPoint
 10
249.935873
 20
179.945487
 30
0.0
1001
GENIUS_GENOBJ-NBEHI-BHB_13
1002
{
1000
OWNER
1000
GENBEHI
1002
}
1001
GENIUS_GENOENT_13
1002
{
1000
MYREF
1005
EB9
1002
}
1002
{
1000
GRP
1005
0
1002
}
1001
GENIUS_GENOLIS_13
1002
{
1000
ENT
1005
0
1002
}
1001
GENIUS_GENODEF_13
1002
{
1000
HIER
1070
     1
1002
}
1002
{
1000
MANEDIT
1070
     0
1002
}
1002
{
1000
NOSEL
1070
     1
1002
}
1002
{
1000
BEHIND
1070
     0
1002
}
1002
{
1000
REACTOR
1002
}
1002
{
1000
OTHER
1070
     1
1002
}
1001
GENIUS_GENBH_13
1002
{
1000
FGO
1005
EB8
1002
}
  0
POINT
  5
EBA
100
AcDbEntity
  8
0
 60
     1
100
AcDbPoint
 10
249.935873
 20
179.945487
 30
0.0
1001
GENIUS_GENOBJ-F-SCPASSM_13
1002
{
1000
OWNER
1000
GEF
1002
}
1001
GENIUS_GENOENT_13
1002
{
1000
MYREF
1005
EBA
1002
}
1002
{
1000
GRP
1005
0
1002
}
1001
GENIUS_GENOLIS_13
1002
{
1000
ENT
1005
0
1005
0
1002
}
1001
GENIUS_GENODEF_13
1002
{
1000
HIER
1070
   200
1002
}
1002
{
1000
MANEDIT
1070
     1
1002
}
1002
{
1000
NOSEL
1070
     0
1002
}
1002
{
1000
BEHIND
1070
     0
1002
}
1002
{
1000
REACTOR
1002
}
  0
CIRCLE
  5
EBB
100
AcDbEntity
  8
0
100
AcDbCircle
 10
60.567121
 20
168.768323
 30
0.0
 40
6.5
1001
GENIUS_GENOREF_13
1005
EB8
1005
EBA
  0
LINE
  5
EBC
100
AcDbEntity
  8
0
100
AcDbLine
 10
63.567121
 20
170.500374
 30
0.0
 11
60.567121
 21
172.232425
 31
0.0
1001
GENIUS_GENOREF_13
1005
EB8
1005
EBA
  0
LINE
  5
EBD
100
AcDbEntity
  8
0
100
AcDbLine
 10
60.567121
 20
165.304221
 30
0.0
 11
63.567121
 21
167.036272
 31
0.0
1001
GENIUS_GENOREF_13
1005
EB8
1005
EBA
  0
LINE
  5
EBE
100
AcDbEntity
  8
0
100
AcDbLine
 10
63.567121
 20
167.036272
 30
0.0
 11
63.567121
 21
170.500374
 31
0.0
1001
GENIUS_GENOREF_13
1005
EB8
1005
EBA
  0
LINE
  5
EC0
100
AcDbEntity
  8
0
100
AcDbLine
 10
57.567121
 20
167.036272
 30
0.0
 11
60.567121
 21
165.304221
 31
0.0
1001
GENIUS_GENOREF_13
1005
EB8
1005
EBA
  0
LINE
  5
EC1
100
AcDbEntity
  8
0
100
AcDbLine
 10
60.567121
 20
172.232425
 30
0.0
 11
57.567121
 21
170.500374
 31
0.0
1001
GENIUS_GENOREF_13
1005
EB8
1005
EBA
  0
LINE
  5
EC2
100
AcDbEntity
  8
0
  6
HIDDEN
100
AcDbLine
 10
147.336432
 20
172.768323
 30
0.0
 11
162.569619
 21
172.768323
 31
0.0
1001
GENIUS_GENOREF_13
1005
EA2
1005
EA4
  0
LINE
  5
EC3
100
AcDbEntity
  8
0
  6
HIDDEN
100
AcDbLine
 10
145.336432
 20
172.00151
 30
0.0
 11
136.461432
 21
172.00151
 31
0.0
1001
GENIUS_GENOREF_13
1005
EA2
1005
EA4
  0
LINE
  5
EC4
100
AcDbEntity
  8
0
  6
HIDDEN
100
AcDbLine
 10
145.336432
 20
165.535135
 30
0.0
 11
136.461432
 21
165.535135
 31
0.0
1001
GENIUS_GENOREF_13
1005
EA2
1005
EA4
  0
LINE
  5
EC5
100
AcDbEntity
  8
0
  6
HIDDEN
100
AcDbLine
 10
147.336432
 20
164.768323
 30
0.0
 11
162.569619
 21
164.768323
 31
0.0
1001
GENIUS_GENOREF_13
1005
EA2
1005
EA4
  0
LINE
  5
EC6
100
AcDbEntity
  8
0
100
AcDbLine
 10
145.336432
 20
172.768323
 30
0.0
 11
147.336432
 21
172.768323
 31
0.0
  0
LINE
  5
EC7
100
AcDbEntity
  8
0
100
AcDbLine
 10
145.336432
 20
172.00151
 30
0.0
 11
147.336432
 21
172.00151
 31
0.0
  0
LINE
  5
EC8
100
AcDbEntity
  8
0
100
AcDbLine
 10
145.336432
 20
165.535135
 30
0.0
 11
147.336432
 21
165.535135
 31
0.0
  0
LINE
  5
EC9
100
AcDbEntity
  8
0
100
AcDbLine
 10
145.336432
 20
164.768323
 30
0.0
 11
147.336432
 21
164.768323
 31
0.0
  0
LINE
  5
ECB
100
AcDbEntity
  8
0
100
AcDbLine
 10
126.136432
 20
175.268323
 30
0.0
 11
126.136432
 21
175.268323
 31
0.0
  0
LINE
  5
ECC
100
AcDbEntity
  8
0
100
AcDbLine
 10
126.136432
 20
175.268323
 30
0.0
 11
133.336432
 21
175.268323
 31
0.0
  0
LINE
  5
ECE
100
AcDbEntity
  8
0
100
AcDbLine
 10
125.336432
 20
174.468323
 30
0.0
 11
125.336432
 21
174.468323
 31
0.0
  0
LINE
  5
ECF
100
AcDbEntity
  8
0
100
AcDbLine
 10
125.336432
 20
174.468323
 30
0.0
 11
125.336432
 21
170.830144
 31
0.0
  0
LINE
  5
ED0
100
AcDbEntity
  8
0
100
AcDbLine
 10
145.336432
 20
120.768323
 30
0.0
 11
147.336432
 21
120.768323
 31
0.0
  0
LINE
  5
ED1
100
AcDbEntity
  8
0
100
AcDbLine
 10
145.336432
 20
120.00151
 30
0.0
 11
147.336432
 21
120.00151
 31
0.0
  0
LINE
  5
ED2
100
AcDbEntity
  8
0
100
AcDbLine
 10
145.336432
 20
113.535135
 30
0.0
 11
147.336432
 21
113.535135
 31
0.0
  0
LINE
  5
ED3
100
AcDbEntity
  8
0
100
AcDbLine
 10
145.336432
 20
112.768323
 30
0.0
 11
147.336432
 21
112.768323
 31
0.0
  0
LINE
  5
ED4
100
AcDbEntity
  8
0
100
AcDbLine
 10
125.336432
 20
111.068323
 30
0.0
 11
125.336432
 21
114.706502
 31
0.0
  0
LINE
  5
ED5
100
AcDbEntity
  8
0
  6
HIDDEN
100
AcDbLine
 10
136.461432
 20
112.768323
 30
0.0
 11
136.461432
 21
120.768323
 31
0.0
1001
GENIUS_GENOREF_13
1005
EA2
1005
EA4
  0
LINE
  5
ED6
100
AcDbEntity
  8
0
  6
HIDDEN
100
AcDbLine
 10
133.336432
 20
123.12651
 30
0.0
 11
133.336432
 21
110.410135
 31
0.0
1001
GENIUS_GENOREF_13
1005
EA2
1005
EA4
  0
LINE
  5
ED7
100
AcDbEntity
  8
0
  6
HIDDEN
100
AcDbLine
 10
133.336432
 20
110.272169
 30
0.0
 11
133.336432
 21
123.768323
 31
0.0
  0
LINE
  5
ED8
100
AcDbEntity
  8
0
  6
HIDDEN
100
AcDbLine
 10
126.136432
 20
123.268323
 30
0.0
 11
133.336432
 21
123.268323
 31
0.0
1001
GENIUS_GENOREF_13
1005
EA2
1005
EA4
  0
LINE
  5
ED9
100
AcDbEntity
  8
0
  6
HIDDEN
100
AcDbLine
 10
116.942555
 20
123.768323
 30
0.0
 11
133.336432
 21
123.768323
 31
0.0
  0
LINE
  5
EDA
100
AcDbEntity
  8
0
  6
HIDDEN
100
AcDbLine
 10
125.336432
 20
122.468323
 30
0.0
 11
125.336432
 21
114.706502
 31
0.0
1001
GENIUS_GENOREF_13
1005
EA2
1005
EA4
  0
ARC
  5
EDB
100
AcDbEntity
  8
0
100
AcDbCircle
 10
126.136432
 20
122.468323
 30
0.0
 40
0.8
100
AcDbArc
 50
90.0
 51
180.0
1001
GENIUS_GENOREF_13
1005
EA2
1005
EA4
  0
LINE
  5
EDC
100
AcDbEntity
  8
0
  6
HIDDEN
100
AcDbLine
 10
133.336432
 20
120.768323
 30
0.0
 11
145.336432
 21
120.768323
 31
0.0
1001
GENIUS_GENOREF_13
1005
EA2
1005
EA4
  0
LINE
  5
EDD
100
AcDbEntity
  8
0
  6
HIDDEN
100
AcDbLine
 10
145.336432
 20
120.00151
 30
0.0
 11
136.461432
 21
120.00151
 31
0.0
1001
GENIUS_GENOREF_13
1005
EA2
1005
EA4
  0
LINE
  5
EDE
100
AcDbEntity
  8
0
  6
HIDDEN
100
AcDbLine
 10
133.336432
 20
121.268323
 30
0.0
 11
145.336432
 21
121.268323
 31
0.0
  0
LINE
  5
EDF
100
AcDbEntity
  8
0
100
AcDbLine
 10
136.461432
 20
120.00151
 30
0.0
 11
135.694619
 21
120.768323
 31
0.0
1001
GENIUS_GENOREF_13
1005
EA2
1005
EA4
  0
LINE
  5
EE0
100
AcDbEntity
  8
0
100
AcDbLine
 10
126.136432
 20
110.268323
 30
0.0
 11
133.336432
 21
110.268323
 31
0.0
  0
LINE
  5
EE1
100
AcDbEntity
  8
0
100
AcDbLine
 10
125.336432
 20
111.068323
 30
0.0
 11
125.336432
 21
111.068323
 31
0.0
  0
LINE
  5
EE2
100
AcDbEntity
  8
0
100
AcDbLine
 10
126.136432
 20
110.268323
 30
0.0
 11
126.136432
 21
110.268323
 31
0.0
  0
ARC
  5
EE3
100
AcDbEntity
  8
0
100
AcDbCircle
 10
126.136432
 20
111.068323
 30
0.0
 40
0.8
100
AcDbArc
 50
180.0
 51
270.0
1001
GENIUS_GENOREF_13
1005
EA2
1005
EA4
  0
LINE
  5
EE4
100
AcDbEntity
  8
0
  6
HIDDEN
100
AcDbLine
 10
145.336432
 20
113.535135
 30
0.0
 11
136.461432
 21
113.535135
 31
0.0
1001
GENIUS_GENOREF_13
1005
EA2
1005
EA4
  0
LINE
  5
EE5
100
AcDbEntity
  8
0
  6
HIDDEN
100
AcDbLine
 10
133.336432
 20
112.768323
 30
0.0
 11
145.336432
 21
112.768323
 31
0.0
1001
GENIUS_GENOREF_13
1005
EA2
1005
EA4
  0
LINE
  5
EE6
100
AcDbEntity
  8
0
  6
HIDDEN
100
AcDbLine
 10
133.336432
 20
112.268323
 30
0.0
 11
145.336432
 21
112.268323
 31
0.0
  0
LINE
  5
EE7
100
AcDbEntity
  8
0
  6
HIDDEN
100
AcDbLine
 10
133.336432
 20
110.268323
 30
0.0
 11
133.336432
 21
110.268323
 31
0.0
1001
GENIUS_GENOREF_13
1005
EA2
1005
EA4
  0
LINE
  5
EE8
100
AcDbEntity
  8
0
100
AcDbLine
 10
136.461432
 20
113.535135
 30
0.0
 11
135.694619
 21
112.768323
 31
0.0
1001
GENIUS_GENOREF_13
1005
EA2
1005
EA4
  0
LINE
  5
EE9
100
AcDbEntity
  8
0
  6
HIDDEN
100
AcDbLine
 10
163.336432
 20
113.535135
 30
0.0
 11
163.336432
 21
120.00151
 31
0.0
1001
GENIUS_GENOREF_13
1005
EA2
1005
EA4
  0
LINE
  5
EEA
100
AcDbEntity
  8
0
  6
HIDDEN
100
AcDbLine
 10
162.569619
 20
112.768323
 30
0.0
 11
162.569619
 21
120.768323
 31
0.0
1001
GENIUS_GENOREF_13
1005
EA2
1005
EA4
  0
LINE
  5
EEB
100
AcDbEntity
  8
0
  6
HIDDEN
100
AcDbLine
 10
172.919739
 20
120.00151
 30
0.0
 11
147.336432
 21
120.00151
 31
0.0
1001
GENIUS_GENOREF_13
1005
EA2
1005
EA4
  0
LINE
  5
EEC
100
AcDbEntity
  8
0
  6
HIDDEN
100
AcDbLine
 10
147.336432
 20
120.768323
 30
0.0
 11
162.569619
 21
120.768323
 31
0.0
1001
GENIUS_GENOREF_13
1005
EA2
1005
EA4
  0
LINE
  5
EED
100
AcDbEntity
  8
0
100
AcDbLine
 10
162.569619
 20
120.768323
 30
0.0
 11
163.336432
 21
120.00151
 31
0.0
1001
GENIUS_GENOREF_13
1005
EA2
1005
EA4
  0
LINE
  5
EEE
100
AcDbEntity
  8
0
  6
HIDDEN
100
AcDbLine
 10
165.58275
 20
113.535135
 30
0.0
 11
147.336432
 21
113.535135
 31
0.0
1001
GENIUS_GENOREF_13
1005
EA2
1005
EA4
  0
LINE
  5
EEF
100
AcDbEntity
  8
0
  6
HIDDEN
100
AcDbLine
 10
147.336432
 20
112.768323
 30
0.0
 11
162.569619
 21
112.768323
 31
0.0
1001
GENIUS_GENOREF_13
1005
EA2
1005
EA4
  0
LINE
  5
EF0
100
AcDbEntity
  8
0
  6
HIDDEN
 62
     3
100
AcDbLine
 10
162.569619
 20
112.768323
 30
0.0
 11
164.364188
 21
112.768323
 31
0.0
  0
LINE
  5
EF1
100
AcDbEntity
  8
0
100
AcDbLine
 10
162.569619
 20
112.768323
 30
0.0
 11
163.336432
 21
113.535135
 31
0.0
1001
GENIUS_GENOREF_13
1005
EA2
1005
EA4
  0
LINE
  5
EF2
100
AcDbEntity
  8
0
  6
HIDDEN
 62
     3
100
AcDbLine
 10
162.569619
 20
120.768323
 30
0.0
 11
173.557747
 21
120.768323
 31
0.0
  0
LINE
  5
EFE
100
AcDbEntity
  8
0
100
AcDbLine
 10
57.567121
 20
170.500374
 30
0.0
 11
57.567121
 21
167.036272
 31
0.0
  0
LINE
  5
EFF
100
AcDbEntity
  8
0
100
AcDbLine
 10
60.567121
 20
113.304221
 30
0.0
 11
57.567121
 21
115.036272
 31
0.0
1001
GENIUS_GENOREF_13
1005
EB8
1005
EBA
  0
LINE
  5
F00
100
AcDbEntity
  8
0
100
AcDbLine
 10
63.567121
 20
115.036272
 30
0.0
 11
60.567121
 21
113.304221
 31
0.0
1001
GENIUS_GENOREF_13
1005
EB8
1005
EBA
  0
CIRCLE
  5
F01
100
AcDbEntity
  8
0
100
AcDbCircle
 10
60.567121
 20
116.768323
 30
0.0
 40
6.5
1001
GENIUS_GENOREF_13
1005
EB8
1005
EBA
  0
LINE
  5
F02
100
AcDbEntity
  8
0
100
AcDbLine
 10
67.567121
 20
116.768323
 30
0.0
 11
67.567121
 21
110.272169
 31
0.0
  0
LINE
  5
F03
100
AcDbEntity
  8
0
100
AcDbLine
 10
60.567121
 20
120.232425
 30
0.0
 11
63.567121
 21
118.500374
 31
0.0
1001
GENIUS_GENOREF_13
1005
EB8
1005
EBA
  0
LINE
  5
F04
100
AcDbEntity
  8
0
100
AcDbLine
 10
57.567121
 20
118.500374
 30
0.0
 11
60.567121
 21
120.232425
 31
0.0
1001
GENIUS_GENOREF_13
1005
EB8
1005
EBA
  0
LINE
  5
F05
100
AcDbEntity
  8
0
100
AcDbLine
 10
57.567121
 20
115.036272
 30
0.0
 11
57.567121
 21
118.500374
 31
0.0
  0
LINE
  5
F06
100
AcDbEntity
  8
0
100
AcDbLine
 10
68.567121
 20
122.768323
 30
0.0
 11
69.567121
 21
121.768323
 31
0.0
  0
LINE
  5
F07
100
AcDbEntity
  8
0
100
AcDbLine
 10
63.567121
 20
118.500374
 30
0.0
 11
63.567121
 21
115.036272
 31
0.0
1001
GENIUS_GENOREF_13
1005
EB8
1005
EBA
  0
LINE
  5
F08
100
AcDbEntity
  8
0
100
AcDbLine
 10
68.567121
 20
107.768323
 30
0.0
 11
69.567121
 21
108.768323
 31
0.0
  0
LINE
  5
F09
100
AcDbEntity
  8
0
100
AcDbLine
 10
53.567121
 20
116.768323
 30
0.0
 11
53.567121
 21
110.272169
 31
0.0
  0
LINE
  5
F0A
100
AcDbEntity
  8
0
100
AcDbLine
 10
67.567121
 20
110.272169
 30
0.0
 11
53.567121
 21
110.272169
 31
0.0
  0
ARC
  5
F0B
100
AcDbEntity
  8
0
100
AcDbCircle
 10
60.567121
 20
116.768323
 30
0.0
 40
7.0
100
AcDbArc
 50
0.0
 51
180.0
  0
LINE
  5
F0C
100
AcDbEntity
  8
0
100
AcDbLine
 10
-48.148161
 20
163.768323
 30
0.0
 11
-48.148161
 21
176.768323
 31
0.0
  0
LINE
  5
F11
100
AcDbEntity
  8
0
100
AcDbLine
 10
-30.148161
 20
121.768323
 30
0.0
 11
-30.148161
 21
108.768323
 31
0.0
  0
ARC
  5
F15
100
AcDbEntity
  8
0
  6
HIDDEN
100
AcDbCircle
 10
-39.148161
 20
116.768323
 30
0.0
 40
6.5
100
AcDbArc
 50
112.619865
 51
67.380135
1001
GENIUS_GENOREF_13
1005
EB8
1005
EBA
  0
ARC
  5
F16
100
AcDbEntity
  8
0
  6
HIDDEN
100
AcDbCircle
 10
-39.148161
 20
168.768323
 30
0.0
 40
6.5
100
AcDbArc
 50
292.619865
 51
247.380135
1001
GENIUS_GENOREF_13
1005
EB8
1005
EBA
  0
ENDSEC
  0
SECTION
  2
OBJECTS
  0
DICTIONARY
  5
C
100
AcDbDictionary
  3
ACAD_GROUP
350
D
  3
ACAD_LAYOUT
350
C6D
  3
ACAD_MLINESTYLE
350
1B
  3
ACAD_PLOTSETTINGS
350
C6E
  3
ADE_QUERY_LIBRARY
350
F40
  3
CONTENTDICTIONARY
350
23
1001
ADE
1000
ADE02C004
1000
[Query]
1000
CaseSensitiveMatch=0
1000
SaveCurrQueryInSession=1
1000
MkSelSetWithQryObj=0
1000
ShowBlockAsInsPt=0
1000
CreateAssociativeHatchObjects=0
1000
ReferenceBoundaryForAreaLocation=1
1000
ShowImageAsBoundary=1
1000
DefaultJoinOperator=2
1000
ColorForAdd=red
1000
ColorForRemove=red
1000
BlockLocnForQuery=1
1000
TextLocnForQuery=1
1000
[Save Back]
1000
RedefineBlockDefinitions=1
1000
RedefineLayerDefinitions=1
1000
RedefineTextStyleDefinitions=1
1000
RemoveUnusedGroups=1
1000
EraseSavedBackObjects=1
1000
RemoveLockAfterSave=1
1000
CreateHistoryFileOfChanges=0
1000
CreateBackupFileOfSourceDwg=1
1000
DontAddObjectsToSaveSet=0
1000
MarkObjectsForEditingWithoutPrompting=0
1000
[Coordinate Transformation]
1000
RestoreLastActiveDwgsOnStartup=1
1000
ActivateDwgsOnAttach=1
1000
AdjustSizesAndScalesForChangesInUnits=1
1000
AdjustRotationsForMapDistortions=1
1000
AdjustSizesAndScalesForMapDistortions=1
1000
AdjustElevations=1
1000
AdjustZeroRotationObjects=1
1000
ReconnectDbOnWSOpen=1
1000
NoOfSQLConditionsInHistory=10
1001
ACAD
1000
TREAT_AS_HARD
1070
     0
  0
DICTIONARY
  5
F44
100
AcDbDictionary
  3
ACAD_LAYOUTSELFREF
350
F45
  0
DICTIONARY
  5
F42
100
AcDbDictionary
  3
ACAD_LAYOUTSELFREF
350
F43
  0
DICTIONARY
  5
D
102
{ACAD_REACTORS
330
C
102
}
100
AcDbDictionary
1001
ACAD
1000
TREAT_AS_HARD
1070
     0
  0
DICTIONARY
  5
C6D
102
{ACAD_REACTORS
330
C
102
}
100
AcDbDictionary
1001
ACAD
1000
TREAT_AS_HARD
1070
     0
  0
DICTIONARY
  5
1B
102
{ACAD_REACTORS
330
C
102
}
100
AcDbDictionary
  3
STANDARD
350
1C
1001
ACAD
1000
TREAT_AS_HARD
1070
     0
  0
DICTIONARY
  5
C6E
102
{ACAD_REACTORS
330
C
102
}
100
AcDbDictionary
1001
ACAD
1000
TREAT_AS_HARD
1070
     0
  0
DICTIONARY
  5
F40
102
{ACAD_REACTORS
330
C
102
}
100
AcDbDictionary
  3
_CURRQRY
350
F41
1001
ACAD
1000
TREAT_AS_HARD
1070
     0
  0
DICTIONARY
  5
23
102
{ACAD_REACTORS
330
C
102
}
100
AcDbDictionary
1001
ACAD
1000
TREAT_AS_HARD
1070
     0
  0
XRECORD
  5
F45
102
{ACAD_REACTORS
330
F44
102
}
100
AcDbXrecord
340
18
  0
XRECORD
  5
F43
102
{ACAD_REACTORS
330
F42
102
}
100
AcDbXrecord
340
15
  0
MLINESTYLE
  5
1C
102
{ACAD_REACTORS
330
1B
102
}
100
AcDbMlineStyle
  2
STANDARD
 70
     0
  3

 62
   256
 51
90.0
 52
90.0
 71
     2
 49
0.5
 62
   256
  6
BYLAYER
 49
-0.5
 62
   256
  6
BYLAYER
  0
XRECORD
  5
F41
102
{ACAD_REACTORS
330
F40
102
}
100
AcDbXrecord
1000
ADE02C001
1070
     1
1070
     0
1002
{
1002
}
1002
{
1002
}
1002
{
1002
}
1000

  0
ENDSEC
  0
EOF
