  0
SECTION
  2
HEADER
  9
$ACADVER
  1
AC1014
  9
$ACADMAINTVER
 70
     0
  9
$DWGCODEPAGE
  3
ANSI_932
  9
$INSBASE
 10
0.0
 20
0.0
 30
0.0
  9
$EXTMIN
 10
-34.497371
 20
82.777118
 30
0.0
  9
$EXTMAX
 10
181.951407
 20
190.15658
 30
0.0
  9
$LIMMIN
 10
0.0
 20
0.0
  9
$LIMMAX
 10
420.0
 20
297.0
  9
$ORTHOMODE
 70
     0
  9
$REGENMODE
 70
     1
  9
$FILLMODE
 70
     1
  9
$QTEXTMODE
 70
     0
  9
$MIRRTEXT
 70
     1
  9
$DRAGMODE
 70
     2
  9
$LTSCALE
 40
0.3
  9
$OSMODE
 70
    37
  9
$ATTMODE
 70
     1
  9
$TEXTSIZE
 40
10.0
  9
$TRACEWID
 40
1.0
  9
$TEXTSTYLE
  7
BIGFONT
  9
$CLAYER
  8
CENTER
  9
$CELTYPE
  6
BYLAYER
  9
$CECOLOR
 62
   256
  9
$CELTSCALE
 40
1.0
  9
$DELOBJ
 70
     1
  9
$DISPSILH
 70
     0
  9
$DIMSCALE
 40
1.0
  9
$DIMASZ
 40
2.5
  9
$DIMEXO
 40
0.625
  9
$DIMDLI
 40
3.75
  9
$DIMRND
 40
0.0
  9
$DIMDLE
 40
0.0
  9
$DIMEXE
 40
1.25
  9
$DIMTP
 40
0.0
  9
$DIMTM
 40
0.0
  9
$DIMTXT
 40
2.5
  9
$DIMCEN
 40
0.5
  9
$DIMTSZ
 40
0.0
  9
$DIMTOL
 70
     0
  9
$DIMLIM
 70
     0
  9
$DIMTIH
 70
     0
  9
$DIMTOH
 70
     0
  9
$DIMSE1
 70
     0
  9
$DIMSE2
 70
     0
  9
$DIMTAD
 70
     3
  9
$DIMZIN
 70
     8
  9
$DIMBLK
  1

  9
$DIMASO
 70
     1
  9
$DIMSHO
 70
     1
  9
$DIMPOST
  1

  9
$DIMAPOST
  1

  9
$DIMALT
 70
     0
  9
$DIMALTD
 70
     4
  9
$DIMALTF
 40
0.0394
  9
$DIMLFAC
 40
1.0
  9
$DIMTOFL
 70
     1
  9
$DIMTVP
 40
0.0
  9
$DIMTIX
 70
     0
  9
$DIMSOXD
 70
     0
  9
$DIMSAH
 70
     0
  9
$DIMBLK1
  1

  9
$DIMBLK2
  1

  9
$DIMSTYLE
  2
STANDARD_WS
  9
$DIMCLRD
 70
     0
  9
$DIMCLRE
 70
     0
  9
$DIMCLRT
 70
   256
  9
$DIMTFAC
 40
1.0
  9
$DIMGAP
 40
1.2
  9
$DIMJUST
 70
     0
  9
$DIMSD1
 70
     0
  9
$DIMSD2
 70
     0
  9
$DIMTOLJ
 70
     1
  9
$DIMTZIN
 70
     0
  9
$DIMALTZ
 70
     0
  9
$DIMALTTZ
 70
     0
  9
$DIMFIT
 70
     3
  9
$DIMUPT
 70
     0
  9
$DIMUNIT
 70
     2
  9
$DIMDEC
 70
     4
  9
$DIMTDEC
 70
     4
  9
$DIMALTU
 70
     8
  9
$DIMALTTD
 70
     4
  9
$DIMTXSTY
  7
BIGFONT
  9
$DIMAUNIT
 70
     0
  9
$LUNITS
 70
     2
  9
$LUPREC
 70
     4
  9
$SKETCHINC
 40
1.0
  9
$FILLETRAD
 40
0.0
  9
$AUNITS
 70
     0
  9
$AUPREC
 70
     0
  9
$MENU
  1
acad
  9
$ELEVATION
 40
0.0
  9
$PELEVATION
 40
0.0
  9
$THICKNESS
 40
0.0
  9
$LIMCHECK
 70
     0
  9
$BLIPMODE
 70
     0
  9
$CHAMFERA
 40
1.0
  9
$CHAMFERB
 40
1.0
  9
$CHAMFERC
 40
20.0
  9
$CHAMFERD
 40
0.0
  9
$SKPOLY
 70
     0
  9
$TDCREATE
 40
2451225.415346065
  9
$TDUPDATE
 40
2453594.469198310
  9
$TDINDWG
 40
0.2022024884
  9
$TDUSRTIMER
 40
0.2022024884
  9
$USRTIMER
 70
     1
  9
$ANGBASE
 50
0.0
  9
$ANGDIR
 70
     0
  9
$PDMODE
 70
     0
  9
$PDSIZE
 40
0.0
  9
$PLINEWID
 40
0.0
  9
$COORDS
 70
     1
  9
$SPLFRAME
 70
     0
  9
$SPLINETYPE
 70
     6
  9
$SPLINESEGS
 70
     8
  9
$ATTDIA
 70
     0
  9
$ATTREQ
 70
     1
  9
$HANDLING
 70
     1
  9
$HANDSEED
  5
F67
  9
$SURFTAB1
 70
     6
  9
$SURFTAB2
 70
     6
  9
$SURFTYPE
 70
     6
  9
$SURFU
 70
     6
  9
$SURFV
 70
     6
  9
$UCSNAME
  2

  9
$UCSORG
 10
0.0
 20
0.0
 30
0.0
  9
$UCSXDIR
 10
1.0
 20
0.0
 30
0.0
  9
$UCSYDIR
 10
0.0
 20
1.0
 30
0.0
  9
$PUCSNAME
  2

  9
$PUCSORG
 10
0.0
 20
0.0
 30
0.0
  9
$PUCSXDIR
 10
1.0
 20
0.0
 30
0.0
  9
$PUCSYDIR
 10
0.0
 20
1.0
 30
0.0
  9
$USERI1
 70
     0
  9
$USERI2
 70
     0
  9
$USERI3
 70
     0
  9
$USERI4
 70
     0
  9
$USERI5
 70
     0
  9
$USERR1
 40
0.0
  9
$USERR2
 40
0.0
  9
$USERR3
 40
0.0
  9
$USERR4
 40
0.0
  9
$USERR5
 40
0.0
  9
$WORLDVIEW
 70
     1
  9
$SHADEDGE
 70
     3
  9
$SHADEDIF
 70
    70
  9
$TILEMODE
 70
     1
  9
$MAXACTVP
 70
    48
  9
$PINSBASE
 10
0.0
 20
0.0
 30
0.0
  9
$PLIMCHECK
 70
     0
  9
$PEXTMIN
 10
1.000000E+20
 20
1.000000E+20
 30
1.000000E+20
  9
$PEXTMAX
 10
-1.000000E+20
 20
-1.000000E+20
 30
-1.000000E+20
  9
$PLIMMIN
 10
0.0
 20
0.0
  9
$PLIMMAX
 10
420.0
 20
297.0
  9
$UNITMODE
 70
     0
  9
$VISRETAIN
 70
     1
  9
$PLINEGEN
 70
     0
  9
$PSLTSCALE
 70
     0
  9
$TREEDEPTH
 70
  3020
  9
$PICKSTYLE
 70
     1
  9
$CMLSTYLE
  2
STANDARD
  9
$CMLJUST
 70
     0
  9
$CMLSCALE
 40
20.0
  9
$PROXYGRAPHICS
 70
     1
  9
$MEASUREMENT
 70
     0
  0
ENDSEC
  0
SECTION
  2
CLASSES
  0
CLASS
  1
DICTIONARYVAR
  2
AcDbDictionaryVar
  3
"AutoCAD"
 90
        0
280
     0
281
     0
  0
CLASS
  1
HATCH
  2
AcDbHatch
  3
"ACAD_SEDONA"
 90
        0
280
     0
281
     1
  0
CLASS
  1
LWPOLYLINE
  2
AcDbPolyline
  3
"AutoCAD"
 90
        0
280
     0
281
     1
  0
CLASS
  1
ACDBDICTIONARYWDFLT
  2
AcDbDictionaryWithDefault
  3
AutoCAD 2000
 90
        0
280
     0
281
     0
  0
CLASS
  1
ACDBPLACEHOLDER
  2
AcDbPlaceHolder
  3
AutoCAD 2000
 90
        0
280
     0
281
     0
  0
CLASS
  1
LAYOUT
  2
AcDbLayout
  3
AutoCAD 2000
 90
        0
280
     0
281
     0
  0
CLASS
  1
LONG_TRANSACTION
  2
AcDbLongTransaction
  3
AutoCAD 2000
 90
        0
280
     0
281
     0
  0
CLASS
  1
LWPOLYLINE
  2
AcDbPolyline
  3
"AutoCAD"
 90
        0
280
     0
281
     1
  0
CLASS
  1
HATCH
  2
AcDbHatch
  3
"ACAD_SEDONA"
 90
        0
280
     0
281
     1
  0
CLASS
  1
XRECORD
  2
AcDbXrecord
  3
"<Built In>"
 90
        0
280
     0
281
     0
  0
ENDSEC
  0
SECTION
  2
TABLES
  0
TABLE
  2
VPORT
  5
8
100
AcDbSymbolTable
 70
     2
  0
VPORT
  5
F66
100
AcDbSymbolTableRecord
100
AcDbViewportTableRecord
  2
*ACTIVE
 70
     0
 10
0.0
 20
0.0
 11
1.0
 21
1.0
 12
192.751315
 22
148.5
 13
0.0
 23
0.0
 14
10.0
 24
10.0
 15
10.0
 25
10.0
 16
0.0
 26
0.0
 36
1.0
 17
0.0
 27
0.0
 37
0.0
 40
318.374298
 41
1.434944
 42
50.0
 43
0.0
 44
0.0
 50
0.0
 51
0.0
 71
     0
 72
   100
 73
     1
 74
     0
 75
     0
 76
     0
 77
     0
 78
     0
  0
ENDTAB
  0
TABLE
  2
LTYPE
  5
5
100
AcDbSymbolTable
 70
     3
  0
LTYPE
  5
12
100
AcDbSymbolTableRecord
100
AcDbLinetypeTableRecord
  2
BYBLOCK
 70
     0
  3

 72
    65
 73
     0
 40
0.0
  0
LTYPE
  5
13
100
AcDbSymbolTableRecord
100
AcDbLinetypeTableRecord
  2
BYLAYER
 70
     0
  3

 72
    65
 73
     0
 40
0.0
  0
LTYPE
  5
14
100
AcDbSymbolTableRecord
100
AcDbLinetypeTableRecord
  2
CONTINUOUS
 70
     0
  3
Solid line
 72
    65
 73
     0
 40
0.0
  0
LTYPE
  5
11A
100
AcDbSymbolTableRecord
100
AcDbLinetypeTableRecord
  2
CENTER
 70
     0
  3
Center ____ _ ____ _ ____ _ ____ _ ____ _ ____
 72
    65
 73
     4
 40
50.8
 49
31.75
 74
     0
 49
-6.35
 74
     0
 49
6.35
 74
     0
 49
-6.35
 74
     0
  0
LTYPE
  5
11B
100
AcDbSymbolTableRecord
100
AcDbLinetypeTableRecord
  2
HIDDEN
 70
     0
  3
Hidden __ __ __ __ __ __ __ __ __ __ __ __ __ _
 72
    65
 73
     2
 40
9.525
 49
6.35
 74
     0
 49
-3.175
 74
     0
  0
ENDTAB
  0
TABLE
  2
LAYER
  5
2
100
AcDbSymbolTable
 70
     6
  0
LAYER
  5
E
100
AcDbSymbolTableRecord
100
AcDbLayerTableRecord
  2
0
 70
     0
 62
     7
  6
CONTINUOUS
  0
LAYER
  5
37
100
AcDbSymbolTableRecord
100
AcDbLayerTableRecord
  2
図枠
 70
     0
 62
     7
  6
CONTINUOUS
  0
LAYER
  5
38
100
AcDbSymbolTableRecord
100
AcDbLayerTableRecord
  2
図枠部品表
 70
     0
 62
     7
  6
CONTINUOUS
  0
LAYER
  5
215
100
AcDbSymbolTableRecord
100
AcDbLayerTableRecord
  2
CENTER
 70
     0
 62
     2
  6
CENTER
  0
LAYER
  5
216
100
AcDbSymbolTableRecord
100
AcDbLayerTableRecord
  2
DIM
 70
     0
 62
     4
  6
CONTINUOUS
  0
LAYER
  5
21F
100
AcDbSymbolTableRecord
100
AcDbLayerTableRecord
  2
DEFPOINTS
 70
     0
 62
     7
  6
CONTINUOUS
  0
ENDTAB
  0
TABLE
  2
STYLE
  5
3
100
AcDbSymbolTable
 70
     3
  0
STYLE
  5
F
100
AcDbSymbolTableRecord
100
AcDbTextStyleTableRecord
  2
STANDARD
 70
     0
 40
0.0
 41
1.0
 50
0.0
 71
     0
 42
2.5
  3
txt
  4

  0
STYLE
  5
39
100
AcDbSymbolTableRecord
100
AcDbTextStyleTableRecord
  2
BIGFONT
 70
     0
 40
0.0
 41
1.0
 50
0.0
 71
     0
 42
10.0
  3
txt.shx
  4
bigfont.shx
  0
STYLE
  5
3B
100
AcDbSymbolTableRecord
100
AcDbTextStyleTableRecord
  2
KANJI
 70
     0
 40
0.0
 41
1.0
 50
0.0
 71
     0
 42
3.0
  3
TXT
  4
BIGFONT
  0
ENDTAB
  0
TABLE
  2
VIEW
  5
6
100
AcDbSymbolTable
 70
     0
  0
ENDTAB
  0
TABLE
  2
UCS
  5
7
100
AcDbSymbolTable
 70
     0
  0
ENDTAB
  0
TABLE
  2
APPID
  5
9
100
AcDbSymbolTable
 70
    34
  0
APPID
  5
10
100
AcDbSymbolTableRecord
100
AcDbRegAppTableRecord
  2
ACAD
 70
     0
  0
APPID
  5
24
100
AcDbSymbolTableRecord
100
AcDbRegAppTableRecord
  2
CONTENTTABDATA
 70
     0
  0
APPID
  5
25
100
AcDbSymbolTableRecord
100
AcDbRegAppTableRecord
  2
CONTENTCURRENTTAB
 70
     0
  0
APPID
  5
422
100
AcDbSymbolTableRecord
100
AcDbRegAppTableRecord
  2
CONTENTBLOCKDESCRIPTION
 70
     0
  0
APPID
  5
E54
100
AcDbSymbolTableRecord
100
AcDbRegAppTableRecord
  2
MCAD_NO_VIS
 70
     0
  0
APPID
  5
E55
100
AcDbSymbolTableRecord
100
AcDbRegAppTableRecord
  2
ACAD_TEMP_GRAPHIC
 70
     0
  0
APPID
  5
E56
100
AcDbSymbolTableRecord
100
AcDbRegAppTableRecord
  2
GEVID966397200
 70
     0
  0
APPID
  5
E57
100
AcDbSymbolTableRecord
100
AcDbRegAppTableRecord
  2
GEVDC
 70
     0
  0
APPID
  5
E58
100
AcDbSymbolTableRecord
100
AcDbRegAppTableRecord
  2
GEVCON
 70
     0
  0
APPID
  5
E59
100
AcDbSymbolTableRecord
100
AcDbRegAppTableRecord
  2
GEVID966397201
 70
     0
  0
APPID
  5
E5A
100
AcDbSymbolTableRecord
100
AcDbRegAppTableRecord
  2
GEVID966397202
 70
     0
  0
APPID
  5
E5B
100
AcDbSymbolTableRecord
100
AcDbRegAppTableRecord
  2
GEVID966397203
 70
     0
  0
APPID
  5
E5C
100
AcDbSymbolTableRecord
100
AcDbRegAppTableRecord
  2
GEVID966397204
 70
     0
  0
APPID
  5
E5D
100
AcDbSymbolTableRecord
100
AcDbRegAppTableRecord
  2
GEVID966397205
 70
     0
  0
APPID
  5
E5E
100
AcDbSymbolTableRecord
100
AcDbRegAppTableRecord
  2
GEVID966397206
 70
     0
  0
APPID
  5
E5F
100
AcDbSymbolTableRecord
100
AcDbRegAppTableRecord
  2
GENIUS_GENBH_13
 70
     0
  0
APPID
  5
E60
100
AcDbSymbolTableRecord
100
AcDbRegAppTableRecord
  2
GENIUS_GENODEF_13
 70
     0
  0
APPID
  5
E61
100
AcDbSymbolTableRecord
100
AcDbRegAppTableRecord
  2
GENIUS_GENOBJ-NBEHI-BHF_13
 70
     0
  0
APPID
  5
E62
100
AcDbSymbolTableRecord
100
AcDbRegAppTableRecord
  2
GENIUS_GENOENT_13
 70
     0
  0
APPID
  5
E63
100
AcDbSymbolTableRecord
100
AcDbRegAppTableRecord
  2
GENIUS_GENOREF_13
 70
     0
  0
APPID
  5
E64
100
AcDbSymbolTableRecord
100
AcDbRegAppTableRecord
  2
GENIUS_GENOLIS_13
 70
     0
  0
APPID
  5
E65
100
AcDbSymbolTableRecord
100
AcDbRegAppTableRecord
  2
GENIUS_GENOBJ-NBEHI-BHB_13
 70
     0
  0
APPID
  5
E66
100
AcDbSymbolTableRecord
100
AcDbRegAppTableRecord
  2
GEVID966397207
 70
     0
  0
APPID
  5
E67
100
AcDbSymbolTableRecord
100
AcDbRegAppTableRecord
  2
GENIUS_GENOBJ-F-SCPASSM_13
 70
     0
  0
APPID
  5
E68
100
AcDbSymbolTableRecord
100
AcDbRegAppTableRecord
  2
GENIUS_GENDTOL_13
 70
     0
  0
APPID
  5
E69
100
AcDbSymbolTableRecord
100
AcDbRegAppTableRecord
  2
GEVID966521051
 70
     0
  0
APPID
  5
E6A
100
AcDbSymbolTableRecord
100
AcDbRegAppTableRecord
  2
GEVID966521052
 70
     0
  0
APPID
  5
E6B
100
AcDbSymbolTableRecord
100
AcDbRegAppTableRecord
  2
GEVID966521054
 70
     0
  0
APPID
  5
E6C
100
AcDbSymbolTableRecord
100
AcDbRegAppTableRecord
  2
GEVID966521055
 70
     0
  0
APPID
  5
E6D
100
AcDbSymbolTableRecord
100
AcDbRegAppTableRecord
  2
GEVID966521056
 70
     0
  0
APPID
  5
E6E
100
AcDbSymbolTableRecord
100
AcDbRegAppTableRecord
  2
GEVID966521057
 70
     0
  0
APPID
  5
E6F
100
AcDbSymbolTableRecord
100
AcDbRegAppTableRecord
  2
GEVID966521058
 70
     0
  0
APPID
  5
E70
100
AcDbSymbolTableRecord
100
AcDbRegAppTableRecord
  2
GEVID966521059
 70
     0
  0
APPID
  5
F54
100
AcDbSymbolTableRecord
100
AcDbRegAppTableRecord
  2
ADE
 70
     0
  0
ENDTAB
  0
TABLE
  2
DIMSTYLE
  5
A
100
AcDbSymbolTable
 70
     1
  0
DIMSTYLE
105
35
100
AcDbSymbolTableRecord
100
AcDbDimStyleTableRecord
  2
STANDARD_WS
 70
     0
  3

  4

  5

  6

  7

 40
1.0
 41
2.5
 42
0.625
 43
3.75
 44
1.25
 45
0.0
 46
0.0
 47
0.0
 48
0.0
140
2.5
141
2.5
142
0.0
143
0.0394
144
1.0
145
0.0
146
1.0
147
0.625
 71
     0
 72
     0
 73
     0
 74
     0
 75
     0
 76
     0
 77
     1
 78
     8
170
     0
171
     4
172
     1
173
     0
174
     0
175
     0
176
     0
177
     0
178
     0
270
     2
271
     4
272
     4
273
     8
274
     4
340
F
275
     0
280
     0
281
     0
282
     0
283
     1
284
     0
285
     0
286
     0
287
     3
288
     0
  0
ENDTAB
  0
TABLE
  2
BLOCK_RECORD
  5
1
100
AcDbSymbolTable
 70
    12
  0
BLOCK_RECORD
  5
18
102
{ACAD_XDICTIONARY
360
F59
102
}
100
AcDbSymbolTableRecord
100
AcDbBlockTableRecord
  2
*MODEL_SPACE
  0
BLOCK_RECORD
  5
15
102
{ACAD_XDICTIONARY
360
F57
102
}
100
AcDbSymbolTableRecord
100
AcDbBlockTableRecord
  2
*PAPER_SPACE
  0
BLOCK_RECORD
  5
B49
100
AcDbSymbolTableRecord
100
AcDbBlockTableRecord
  2
*D0
  0
BLOCK_RECORD
  5
B56
100
AcDbSymbolTableRecord
100
AcDbBlockTableRecord
  2
*D1
  0
BLOCK_RECORD
  5
B79
100
AcDbSymbolTableRecord
100
AcDbBlockTableRecord
  2
*D2
  0
BLOCK_RECORD
  5
B86
100
AcDbSymbolTableRecord
100
AcDbBlockTableRecord
  2
*D3
  0
BLOCK_RECORD
  5
B93
100
AcDbSymbolTableRecord
100
AcDbBlockTableRecord
  2
*D4
  0
BLOCK_RECORD
  5
BA0
100
AcDbSymbolTableRecord
100
AcDbBlockTableRecord
  2
*D5
  0
BLOCK_RECORD
  5
BD4
100
AcDbSymbolTableRecord
100
AcDbBlockTableRecord
  2
*D6
  0
BLOCK_RECORD
  5
BDE
100
AcDbSymbolTableRecord
100
AcDbBlockTableRecord
  2
*D7
  0
BLOCK_RECORD
  5
BEB
100
AcDbSymbolTableRecord
100
AcDbBlockTableRecord
  2
*D8
  0
BLOCK_RECORD
  5
BF8
100
AcDbSymbolTableRecord
100
AcDbBlockTableRecord
  2
*D9
  0
BLOCK_RECORD
  5
DA9
100
AcDbSymbolTableRecord
100
AcDbBlockTableRecord
  2
*D10
  0
BLOCK_RECORD
  5
E37
100
AcDbSymbolTableRecord
100
AcDbBlockTableRecord
  2
_OPEN30
  0
ENDTAB
  0
ENDSEC
  0
SECTION
  2
BLOCKS
  0
BLOCK
  5
19
100
AcDbEntity
  8
0
100
AcDbBlockBegin
  2
*MODEL_SPACE
 70
     2
 10
0.0
 20
0.0
 30
0.0
  3
*MODEL_SPACE
  1

  0
ENDBLK
  5
1A
100
AcDbEntity
  8
0
100
AcDbBlockEnd
  0
BLOCK
  5
16
100
AcDbEntity
 67
     1
  8
0
100
AcDbBlockBegin
  2
*PAPER_SPACE
 70
     0
 10
0.0
 20
0.0
 30
0.0
  3
*PAPER_SPACE
  1

  0
ENDBLK
  5
17
100
AcDbEntity
 67
     1
  8
0
100
AcDbBlockEnd
  0
BLOCK
  5
C1B
100
AcDbEntity
  8
0
100
AcDbBlockBegin
  2
*D0
 70
     1
 10
0.0
 20
0.0
 30
0.0
  3
*D0
  1

  0
LINE
  5
DC5
100
AcDbEntity
  8
DIM
 62
     0
100
AcDbLine
 10
56.178747
 20
169.463113
 30
0.0
 11
39.678791
 21
169.463113
 31
0.0
  0
LINE
  5
DC6
100
AcDbEntity
  8
DIM
 62
     0
100
AcDbLine
 10
56.178747
 20
134.463113
 30
0.0
 11
39.678791
 21
134.463113
 31
0.0
  0
LINE
  5
DC7
100
AcDbEntity
  8
DIM
 62
     0
100
AcDbLine
 10
40.928791
 20
166.963113
 30
0.0
 11
40.928791
 21
136.963113
 31
0.0
  0
SOLID
  5
DC8
100
AcDbEntity
  8
DIM
 62
     0
100
AcDbTrace
 10
40.512125
 20
166.963113
 30
0.0
 11
41.345458
 21
166.963113
 31
0.0
 12
40.928791
 22
169.463113
 32
0.0
 13
40.928791
 23
169.463113
 33
0.0
  0
SOLID
  5
DC9
100
AcDbEntity
  8
DIM
 62
     0
100
AcDbTrace
 10
40.512125
 20
136.963113
 30
0.0
 11
41.345458
 21
136.963113
 31
0.0
 12
40.928791
 22
134.463113
 32
0.0
 13
40.928791
 23
134.463113
 33
0.0
  0
MTEXT
  5
DCA
100
AcDbEntity
  8
DIM
100
AcDbMText
 10
38.478791
 20
151.963113
 30
0.0
 40
2.5
 41
0.0
 71
     5
 72
     5
  1
\A1;%%c35H8
  7
BIGFONT
 11
0.0
 21
1.0
 31
0.0
1001
ACAD
1000
MTEXTBEGIN
1070
    73
1070
     1
1070
    44
1040
1.0
1070
    74
1070
     0
1000
MTEXTEND
  0
POINT
  5
DCB
100
AcDbEntity
  8
DEFPOINTS
 62
     0
100
AcDbPoint
 10
56.803747
 20
169.463113
 30
0.0
  0
POINT
  5
DCC
100
AcDbEntity
  8
DEFPOINTS
 62
     0
100
AcDbPoint
 10
56.803747
 20
134.463113
 30
0.0
  0
POINT
  5
DCD
100
AcDbEntity
  8
DEFPOINTS
 62
     0
100
AcDbPoint
 10
40.928791
 20
134.463113
 30
0.0
  0
ENDBLK
  5
C25
100
AcDbEntity
  8
0
100
AcDbBlockEnd
  0
BLOCK
  5
C10
100
AcDbEntity
  8
0
100
AcDbBlockBegin
  2
*D1
 70
     1
 10
0.0
 20
0.0
 30
0.0
  3
*D1
  1

  0
LINE
  5
DCE
100
AcDbEntity
  8
DIM
 62
     0
100
AcDbLine
 10
56.178747
 20
181.963113
 30
0.0
 11
30.822417
 21
181.963113
 31
0.0
  0
LINE
  5
DCF
100
AcDbEntity
  8
DIM
 62
     0
100
AcDbLine
 10
56.178747
 20
121.963113
 30
0.0
 11
30.822417
 21
121.963113
 31
0.0
  0
LINE
  5
DD0
100
AcDbEntity
  8
DIM
 62
     0
100
AcDbLine
 10
32.072417
 20
179.463113
 30
0.0
 11
32.072417
 21
124.463113
 31
0.0
  0
SOLID
  5
DD1
100
AcDbEntity
  8
DIM
 62
     0
100
AcDbTrace
 10
31.65575
 20
179.463113
 30
0.0
 11
32.489083
 21
179.463113
 31
0.0
 12
32.072417
 22
181.963113
 32
0.0
 13
32.072417
 23
181.963113
 33
0.0
  0
SOLID
  5
DD2
100
AcDbEntity
  8
DIM
 62
     0
100
AcDbTrace
 10
31.65575
 20
124.463113
 30
0.0
 11
32.489083
 21
124.463113
 31
0.0
 12
32.072417
 22
121.963113
 32
0.0
 13
32.072417
 23
121.963113
 33
0.0
  0
MTEXT
  5
DD3
100
AcDbEntity
  8
DIM
100
AcDbMText
 10
29.622417
 20
151.963113
 30
0.0
 40
2.5
 41
0.0
 71
     5
 72
     5
  1
\A1;%%c60%%p0.1
  7
BIGFONT
 11
0.0
 21
1.0
 31
0.0
1001
ACAD
1000
MTEXTBEGIN
1070
    73
1070
     1
1070
    44
1040
1.0
1070
    74
1070
     0
1000
MTEXTEND
  0
POINT
  5
DD4
100
AcDbEntity
  8
DEFPOINTS
 62
     0
100
AcDbPoint
 10
56.803747
 20
181.963113
 30
0.0
  0
POINT
  5
DD5
100
AcDbEntity
  8
DEFPOINTS
 62
     0
100
AcDbPoint
 10
56.803747
 20
121.963113
 30
0.0
  0
POINT
  5
DD6
100
AcDbEntity
  8
DEFPOINTS
 62
     0
100
AcDbPoint
 10
32.072417
 20
121.963113
 30
0.0
  0
ENDBLK
  5
C1A
100
AcDbEntity
  8
0
100
AcDbBlockEnd
  0
BLOCK
  5
C4C
100
AcDbEntity
  8
0
100
AcDbBlockBegin
  2
*D2
 70
     1
 10
0.0
 20
0.0
 30
0.0
  3
*D2
  1

  0
LINE
  5
D3E
100
AcDbEntity
  8
DIM
 62
     0
100
AcDbLine
 10
57.303747
 20
123.842659
 30
0.0
 11
57.303747
 21
111.005341
 31
0.0
  0
LINE
  5
D3F
100
AcDbEntity
  8
DIM
 62
     0
100
AcDbLine
 10
69.303747
 20
123.842659
 30
0.0
 11
69.303747
 21
111.005341
 31
0.0
  0
LINE
  5
D40
100
AcDbEntity
  8
DIM
 62
     0
100
AcDbLine
 10
54.803747
 20
112.255341
 30
0.0
 11
52.303747
 21
112.255341
 31
0.0
  0
LINE
  5
D41
100
AcDbEntity
  8
DIM
 62
     0
100
AcDbLine
 10
71.803747
 20
112.255341
 30
0.0
 11
74.303747
 21
112.255341
 31
0.0
  0
LINE
  5
D42
100
AcDbEntity
  8
DIM
 62
     0
100
AcDbLine
 10
57.303747
 20
112.255341
 30
0.0
 11
69.303747
 21
112.255341
 31
0.0
  0
SOLID
  5
D43
100
AcDbEntity
  8
DIM
 62
     0
100
AcDbTrace
 10
54.803747
 20
112.672008
 30
0.0
 11
54.803747
 21
111.838674
 31
0.0
 12
57.303747
 22
112.255341
 32
0.0
 13
57.303747
 23
112.255341
 33
0.0
  0
SOLID
  5
D44
100
AcDbEntity
  8
DIM
 62
     0
100
AcDbTrace
 10
71.803747
 20
112.672008
 30
0.0
 11
71.803747
 21
111.838674
 31
0.0
 12
69.303747
 22
112.255341
 32
0.0
 13
69.303747
 23
112.255341
 33
0.0
  0
MTEXT
  5
D45
100
AcDbEntity
  8
DIM
100
AcDbMText
 10
66.399623
 20
114.705341
 30
0.0
 40
2.5
 41
0.0
 71
     5
 72
     5
  1
\A1;12
  7
BIGFONT
1001
ACAD
1000
MTEXTBEGIN
1070
    73
1070
     1
1070
    44
1040
1.0
1070
    74
1070
     0
1000
MTEXTEND
  0
POINT
  5
D46
100
AcDbEntity
  8
DEFPOINTS
 62
     0
100
AcDbPoint
 10
57.303747
 20
124.467659
 30
0.0
  0
POINT
  5
D47
100
AcDbEntity
  8
DEFPOINTS
 62
     0
100
AcDbPoint
 10
69.303747
 20
124.467659
 30
0.0
  0
POINT
  5
D48
100
AcDbEntity
  8
DEFPOINTS
 62
     0
100
AcDbPoint
 10
69.303747
 20
112.255341
 30
0.0
  0
ENDBLK
  5
C57
100
AcDbEntity
  8
0
100
AcDbBlockEnd
  0
BLOCK
  5
C41
100
AcDbEntity
  8
0
100
AcDbBlockBegin
  2
*D3
 70
     1
 10
0.0
 20
0.0
 30
0.0
  3
*D3
  1

  0
LINE
  5
D35
100
AcDbEntity
  8
DIM
 62
     0
100
AcDbLine
 10
70.803747
 20
122.338113
 30
0.0
 11
70.803747
 21
102.302612
 31
0.0
  0
LINE
  5
D36
100
AcDbEntity
  8
DIM
 62
     0
100
AcDbLine
 10
63.303747
 20
119.294398
 30
0.0
 11
63.303747
 21
102.302612
 31
0.0
  0
LINE
  5
D37
100
AcDbEntity
  8
DIM
 62
     0
100
AcDbLine
 10
68.303747
 20
103.552612
 30
0.0
 11
65.803747
 21
103.552612
 31
0.0
  0
SOLID
  5
D38
100
AcDbEntity
  8
DIM
 62
     0
100
AcDbTrace
 10
68.303747
 20
103.969278
 30
0.0
 11
68.303747
 21
103.135945
 31
0.0
 12
70.803747
 22
103.552612
 32
0.0
 13
70.803747
 23
103.552612
 33
0.0
  0
SOLID
  5
D39
100
AcDbEntity
  8
DIM
 62
     0
100
AcDbTrace
 10
65.803747
 20
103.969278
 30
0.0
 11
65.803747
 21
103.135945
 31
0.0
 12
63.303747
 22
103.552612
 32
0.0
 13
63.303747
 23
103.552612
 33
0.0
  0
MTEXT
  5
D3A
100
AcDbEntity
  8
DIM
100
AcDbMText
 10
67.053747
 20
106.002612
 30
0.0
 40
2.5
 41
0.0
 71
     5
 72
     5
  1
\A1;7.5
  7
BIGFONT
1001
ACAD
1000
MTEXTBEGIN
1070
    73
1070
     1
1070
    44
1040
1.0
1070
    74
1070
     0
1000
MTEXTEND
  0
POINT
  5
D3B
100
AcDbEntity
  8
DEFPOINTS
 62
     0
100
AcDbPoint
 10
70.803747
 20
122.963113
 30
0.0
  0
POINT
  5
D3C
100
AcDbEntity
  8
DEFPOINTS
 62
     0
100
AcDbPoint
 10
63.303747
 20
119.919398
 30
0.0
  0
POINT
  5
D3D
100
AcDbEntity
  8
DEFPOINTS
 62
     0
100
AcDbPoint
 10
63.303747
 20
103.552612
 30
0.0
  0
ENDBLK
  5
C4B
100
AcDbEntity
  8
0
100
AcDbBlockEnd
  0
BLOCK
  5
C36
100
AcDbEntity
  8
0
100
AcDbBlockBegin
  2
*D4
 70
     1
 10
0.0
 20
0.0
 30
0.0
  3
*D4
  1

  0
LINE
  5
D2C
100
AcDbEntity
  8
DIM
 62
     0
100
AcDbLine
 10
55.803747
 20
122.338113
 30
0.0
 11
55.803747
 21
102.302612
 31
0.0
  0
LINE
  5
D2D
100
AcDbEntity
  8
DIM
 62
     0
100
AcDbLine
 10
63.303747
 20
119.294398
 30
0.0
 11
63.303747
 21
102.302612
 31
0.0
  0
LINE
  5
D2E
100
AcDbEntity
  8
DIM
 62
     0
100
AcDbLine
 10
58.303747
 20
103.552612
 30
0.0
 11
60.803747
 21
103.552612
 31
0.0
  0
SOLID
  5
D2F
100
AcDbEntity
  8
DIM
 62
     0
100
AcDbTrace
 10
58.303747
 20
103.969278
 30
0.0
 11
58.303747
 21
103.135945
 31
0.0
 12
55.803747
 22
103.552612
 32
0.0
 13
55.803747
 23
103.552612
 33
0.0
  0
SOLID
  5
D30
100
AcDbEntity
  8
DIM
 62
     0
100
AcDbTrace
 10
60.803747
 20
103.969278
 30
0.0
 11
60.803747
 21
103.135945
 31
0.0
 12
63.303747
 22
103.552612
 32
0.0
 13
63.303747
 23
103.552612
 33
0.0
  0
MTEXT
  5
D31
100
AcDbEntity
  8
DIM
100
AcDbMText
 10
59.553747
 20
106.002612
 30
0.0
 40
2.5
 41
0.0
 71
     5
 72
     5
  1
\A1;7.5
  7
BIGFONT
1001
ACAD
1000
MTEXTBEGIN
1070
    73
1070
     1
1070
    44
1040
1.0
1070
    74
1070
     0
1000
MTEXTEND
  0
POINT
  5
D32
100
AcDbEntity
  8
DEFPOINTS
 62
     0
100
AcDbPoint
 10
55.803747
 20
122.963113
 30
0.0
  0
POINT
  5
D33
100
AcDbEntity
  8
DEFPOINTS
 62
     0
100
AcDbPoint
 10
63.303747
 20
119.919398
 30
0.0
  0
POINT
  5
D34
100
AcDbEntity
  8
DEFPOINTS
 62
     0
100
AcDbPoint
 10
63.303747
 20
103.552612
 30
0.0
  0
ENDBLK
  5
C40
100
AcDbEntity
  8
0
100
AcDbBlockEnd
  0
BLOCK
  5
C2B
100
AcDbEntity
  8
0
100
AcDbBlockBegin
  2
*D5
 70
     1
 10
0.0
 20
0.0
 30
0.0
  3
*D5
  1

  0
LINE
  5
DD7
100
AcDbEntity
  8
DIM
 62
     0
100
AcDbLine
 10
70.803747
 20
121.713113
 30
0.0
 11
70.803747
 21
93.304848
 31
0.0
  0
LINE
  5
DD8
100
AcDbEntity
  8
DIM
 62
     0
100
AcDbLine
 10
55.803747
 20
121.713113
 30
0.0
 11
55.803747
 21
93.304848
 31
0.0
  0
LINE
  5
DD9
100
AcDbEntity
  8
DIM
 62
     0
100
AcDbLine
 10
68.303747
 20
94.554848
 30
0.0
 11
58.303747
 21
94.554848
 31
0.0
  0
SOLID
  5
DDA
100
AcDbEntity
  8
DIM
 62
     0
100
AcDbTrace
 10
68.303747
 20
94.971515
 30
0.0
 11
68.303747
 21
94.138182
 31
0.0
 12
70.803747
 22
94.554848
 32
0.0
 13
70.803747
 23
94.554848
 33
0.0
  0
SOLID
  5
DDB
100
AcDbEntity
  8
DIM
 62
     0
100
AcDbTrace
 10
58.303747
 20
94.971515
 30
0.0
 11
58.303747
 21
94.138182
 31
0.0
 12
55.803747
 22
94.554848
 32
0.0
 13
55.803747
 23
94.554848
 33
0.0
  0
MTEXT
  5
DDC
100
AcDbEntity
  8
DIM
100
AcDbMText
 10
63.303747
 20
97.004848
 30
0.0
 40
2.5
 41
0.0
 71
     5
 72
     5
  1
\A1;15%%p0.1
  7
BIGFONT
1001
ACAD
1000
MTEXTBEGIN
1070
    73
1070
     1
1070
    44
1040
1.0
1070
    74
1070
     0
1000
MTEXTEND
  0
POINT
  5
DDD
100
AcDbEntity
  8
DEFPOINTS
 62
     0
100
AcDbPoint
 10
70.803747
 20
122.338113
 30
0.0
  0
POINT
  5
DDE
100
AcDbEntity
  8
DEFPOINTS
 62
     0
100
AcDbPoint
 10
55.803747
 20
122.338113
 30
0.0
  0
POINT
  5
DDF
100
AcDbEntity
  8
DEFPOINTS
 62
     0
100
AcDbPoint
 10
55.803747
 20
94.554848
 30
0.0
  0
ENDBLK
  5
C35
100
AcDbEntity
  8
0
100
AcDbBlockEnd
  0
BLOCK
  5
BD5
100
AcDbEntity
  8
0
100
AcDbBlockBegin
  2
*D6
 70
     1
 10
0.0
 20
0.0
 30
0.0
  3
*D6
  1

  0
LINE
  5
DB5
100
AcDbEntity
  8
DIM
 62
     0
100
AcDbLine
 10
83.367265
 20
140.391749
 30
0.0
 11
70.689552
 21
133.170236
 31
0.0
  0
MTEXT
  5
DB6
100
AcDbEntity
  8
DIM
100
AcDbMText
 10
77.12938
 20
139.658105
 30
0.0
 40
2.5
 41
0.0
 71
     5
 72
     5
  1
\A1;2-R6
  7
BIGFONT
 11
0.868918
 21
0.494956
 31
0.0
1001
ACAD
1000
MTEXTBEGIN
1070
    73
1070
     1
1070
    44
1040
1.0
1070
    74
1070
     0
1000
MTEXTEND
  0
LINE
  5
DB7
100
AcDbEntity
  8
DIM
 62
     0
100
AcDbLine
 10
63.303747
 20
128.963113
 30
0.0
 11
68.517256
 21
131.932847
 31
0.0
  0
SOLID
  5
DB8
100
AcDbEntity
  8
DIM
 62
     0
100
AcDbTrace
 10
70.483321
 20
133.532285
 30
0.0
 11
70.895783
 21
132.808186
 31
0.0
 12
68.517256
 22
131.932847
 32
0.0
 13
68.517256
 23
131.932847
 33
0.0
  0
POINT
  5
DB9
100
AcDbEntity
  8
DEFPOINTS
 62
     0
100
AcDbPoint
 10
68.517256
 20
131.932847
 30
0.0
  0
POINT
  5
DBA
100
AcDbEntity
  8
DEFPOINTS
 62
     0
100
AcDbPoint
 10
63.303747
 20
128.963113
 30
0.0
  0
ENDBLK
  5
BDC
100
AcDbEntity
  8
0
100
AcDbBlockEnd
  0
BLOCK
  5
BDF
100
AcDbEntity
  8
0
100
AcDbBlockBegin
  2
*D7
 70
     1
 10
0.0
 20
0.0
 30
0.0
  3
*D7
  1

  0
LINE
  5
D66
100
AcDbEntity
  8
DIM
 62
     0
100
AcDbLine
 10
104.885283
 20
151.963113
 30
0.0
 11
99.082647
 21
151.963113
 31
0.0
  0
LINE
  5
D67
100
AcDbEntity
  8
DIM
 62
     0
100
AcDbLine
 10
114.259273
 20
128.963113
 30
0.0
 11
99.082647
 21
128.963113
 31
0.0
  0
LINE
  5
D68
100
AcDbEntity
  8
DIM
 62
     0
100
AcDbLine
 10
100.332647
 20
149.463113
 30
0.0
 11
100.332647
 21
131.463113
 31
0.0
  0
SOLID
  5
D69
100
AcDbEntity
  8
DIM
 62
     0
100
AcDbTrace
 10
99.91598
 20
149.463113
 30
0.0
 11
100.749314
 21
149.463113
 31
0.0
 12
100.332647
 22
151.963113
 32
0.0
 13
100.332647
 23
151.963113
 33
0.0
  0
SOLID
  5
D6A
100
AcDbEntity
  8
DIM
 62
     0
100
AcDbTrace
 10
99.91598
 20
131.463113
 30
0.0
 11
100.749314
 21
131.463113
 31
0.0
 12
100.332647
 22
128.963113
 32
0.0
 13
100.332647
 23
128.963113
 33
0.0
  0
MTEXT
  5
D6B
100
AcDbEntity
  8
DIM
100
AcDbMText
 10
97.882647
 20
140.463113
 30
0.0
 40
2.5
 41
0.0
 71
     5
 72
     5
  1
\A1;23
  7
BIGFONT
 11
0.0
 21
1.0
 31
0.0
1001
ACAD
1000
MTEXTBEGIN
1070
    73
1070
     1
1070
    44
1040
1.0
1070
    74
1070
     0
1000
MTEXTEND
  0
POINT
  5
D6C
100
AcDbEntity
  8
DEFPOINTS
 62
     0
100
AcDbPoint
 10
105.510283
 20
151.963113
 30
0.0
  0
POINT
  5
D6D
100
AcDbEntity
  8
DEFPOINTS
 62
     0
100
AcDbPoint
 10
114.884273
 20
128.963113
 30
0.0
  0
POINT
  5
D6E
100
AcDbEntity
  8
DEFPOINTS
 62
     0
100
AcDbPoint
 10
100.332647
 20
128.963113
 30
0.0
  0
ENDBLK
  5
BE9
100
AcDbEntity
  8
0
100
AcDbBlockEnd
  0
BLOCK
  5
BEC
100
AcDbEntity
  8
0
100
AcDbBlockBegin
  2
*D8
 70
     1
 10
0.0
 20
0.0
 30
0.0
  3
*D8
  1

  0
LINE
  5
D6F
100
AcDbEntity
  8
DIM
 62
     0
100
AcDbLine
 10
138.413654
 20
118.434743
 30
0.0
 11
138.413654
 21
102.372237
 31
0.0
  0
LINE
  5
D70
100
AcDbEntity
  8
DIM
 62
     0
100
AcDbLine
 10
126.413654
 20
123.842659
 30
0.0
 11
126.413654
 21
102.372237
 31
0.0
  0
LINE
  5
D71
100
AcDbEntity
  8
DIM
 62
     0
100
AcDbLine
 10
135.913654
 20
103.622237
 30
0.0
 11
128.913654
 21
103.622237
 31
0.0
  0
SOLID
  5
D72
100
AcDbEntity
  8
DIM
 62
     0
100
AcDbTrace
 10
135.913654
 20
104.038904
 30
0.0
 11
135.913654
 21
103.205571
 31
0.0
 12
138.413654
 22
103.622237
 32
0.0
 13
138.413654
 23
103.622237
 33
0.0
  0
SOLID
  5
D73
100
AcDbEntity
  8
DIM
 62
     0
100
AcDbTrace
 10
128.913654
 20
104.038904
 30
0.0
 11
128.913654
 21
103.205571
 31
0.0
 12
126.413654
 22
103.622237
 32
0.0
 13
126.413654
 23
103.622237
 33
0.0
  0
MTEXT
  5
D74
100
AcDbEntity
  8
DIM
100
AcDbMText
 10
132.413654
 20
106.072237
 30
0.0
 40
2.5
 41
0.0
 71
     5
 72
     5
  1
\A1;12
  7
BIGFONT
1001
ACAD
1000
MTEXTBEGIN
1070
    73
1070
     1
1070
    44
1040
1.0
1070
    74
1070
     0
1000
MTEXTEND
  0
POINT
  5
D75
100
AcDbEntity
  8
DEFPOINTS
 62
     0
100
AcDbPoint
 10
138.413654
 20
119.059743
 30
0.0
  0
POINT
  5
D76
100
AcDbEntity
  8
DEFPOINTS
 62
     0
100
AcDbPoint
 10
126.413654
 20
124.467659
 30
0.0
  0
POINT
  5
D77
100
AcDbEntity
  8
DEFPOINTS
 62
     0
100
AcDbPoint
 10
126.413654
 20
103.622237
 30
0.0
  0
ENDBLK
  5
BF6
100
AcDbEntity
  8
0
100
AcDbBlockEnd
  0
BLOCK
  5
BF9
100
AcDbEntity
  8
0
100
AcDbBlockBegin
  2
*D9
 70
     1
 10
0.0
 20
0.0
 30
0.0
  3
*D9
  1

  0
LINE
  5
D78
100
AcDbEntity
  8
DIM
 62
     0
100
AcDbLine
 10
137.413654
 20
121.354784
 30
0.0
 11
137.413654
 21
109.376781
 31
0.0
  0
LINE
  5
D79
100
AcDbEntity
  8
DIM
 62
     0
100
AcDbLine
 10
139.413654
 20
121.354784
 30
0.0
 11
139.413654
 21
109.376781
 31
0.0
  0
LINE
  5
D7A
100
AcDbEntity
  8
DIM
 62
     0
100
AcDbLine
 10
134.913654
 20
110.626781
 30
0.0
 11
132.413654
 21
110.626781
 31
0.0
  0
LINE
  5
D7B
100
AcDbEntity
  8
DIM
 62
     0
100
AcDbLine
 10
141.913654
 20
110.626781
 30
0.0
 11
148.48032
 21
110.626781
 31
0.0
  0
LINE
  5
D7C
100
AcDbEntity
  8
DIM
 62
     0
100
AcDbLine
 10
137.413654
 20
110.626781
 30
0.0
 11
139.413654
 21
110.626781
 31
0.0
  0
SOLID
  5
D7D
100
AcDbEntity
  8
DIM
 62
     0
100
AcDbTrace
 10
134.913654
 20
111.043447
 30
0.0
 11
134.913654
 21
110.210114
 31
0.0
 12
137.413654
 22
110.626781
 32
0.0
 13
137.413654
 23
110.626781
 33
0.0
  0
SOLID
  5
D7E
100
AcDbEntity
  8
DIM
 62
     0
100
AcDbTrace
 10
141.913654
 20
111.043447
 30
0.0
 11
141.913654
 21
110.210114
 31
0.0
 12
139.413654
 22
110.626781
 32
0.0
 13
139.413654
 23
110.626781
 33
0.0
  0
MTEXT
  5
D7F
100
AcDbEntity
  8
DIM
100
AcDbMText
 10
146.446987
 20
113.076781
 30
0.0
 40
2.5
 41
0.0
 71
     5
 72
     5
  1
\A1;2
  7
BIGFONT
1001
ACAD
1000
MTEXTBEGIN
1070
    73
1070
     1
1070
    44
1040
1.0
1070
    74
1070
     0
1000
MTEXTEND
  0
POINT
  5
D80
100
AcDbEntity
  8
DEFPOINTS
 62
     0
100
AcDbPoint
 10
137.413654
 20
121.979784
 30
0.0
  0
POINT
  5
D81
100
AcDbEntity
  8
DEFPOINTS
 62
     0
100
AcDbPoint
 10
139.413654
 20
121.979784
 30
0.0
  0
POINT
  5
D82
100
AcDbEntity
  8
DEFPOINTS
 62
     0
100
AcDbPoint
 10
139.413654
 20
110.626781
 30
0.0
  0
ENDBLK
  5
C05
100
AcDbEntity
  8
0
100
AcDbBlockEnd
  0
BLOCK
  5
DB3
100
AcDbEntity
  8
0
100
AcDbBlockBegin
  2
*D10
 70
     1
 10
0.0
 20
0.0
 30
0.0
  3
*D10
  1

  0
LINE
  5
DAA
100
AcDbEntity
  8
DIM
 62
     0
100
AcDbLine
 10
114.259273
 20
174.963113
 30
0.0
 11
99.082647
 21
174.963113
 31
0.0
  0
LINE
  5
DAB
100
AcDbEntity
  8
DIM
 62
     0
100
AcDbLine
 10
104.885283
 20
151.963113
 30
0.0
 11
99.082647
 21
151.963113
 31
0.0
  0
LINE
  5
DAC
100
AcDbEntity
  8
DIM
 62
     0
100
AcDbLine
 10
100.332647
 20
172.463113
 30
0.0
 11
100.332647
 21
154.463113
 31
0.0
  0
SOLID
  5
DAD
100
AcDbEntity
  8
DIM
 62
     0
100
AcDbTrace
 10
99.91598
 20
172.463113
 30
0.0
 11
100.749314
 21
172.463113
 31
0.0
 12
100.332647
 22
174.963113
 32
0.0
 13
100.332647
 23
174.963113
 33
0.0
  0
SOLID
  5
DAE
100
AcDbEntity
  8
DIM
 62
     0
100
AcDbTrace
 10
99.91598
 20
154.463113
 30
0.0
 11
100.749314
 21
154.463113
 31
0.0
 12
100.332647
 22
151.963113
 32
0.0
 13
100.332647
 23
151.963113
 33
0.0
  0
MTEXT
  5
DAF
100
AcDbEntity
  8
DIM
100
AcDbMText
 10
97.882647
 20
163.463113
 30
0.0
 40
2.5
 41
0.0
 71
     5
 72
     5
  1
\A1;23
  7
BIGFONT
 11
0.0
 21
1.0
 31
0.0
1001
ACAD
1000
MTEXTBEGIN
1070
    73
1070
     1
1070
    44
1040
1.0
1070
    74
1070
     0
1000
MTEXTEND
  0
POINT
  5
DB0
100
AcDbEntity
  8
DEFPOINTS
 62
     0
100
AcDbPoint
 10
114.884273
 20
174.963113
 30
0.0
  0
POINT
  5
DB1
100
AcDbEntity
  8
DEFPOINTS
 62
     0
100
AcDbPoint
 10
105.510283
 20
151.963113
 30
0.0
  0
POINT
  5
DB2
100
AcDbEntity
  8
DEFPOINTS
 62
     0
100
AcDbPoint
 10
100.332647
 20
151.963113
 30
0.0
  0
ENDBLK
  5
DB4
100
AcDbEntity
  8
0
100
AcDbBlockEnd
  0
BLOCK
  5
E3B
100
AcDbEntity
  8
0
100
AcDbBlockBegin
  2
_OPEN30
 70
     0
 10
0.0
 20
0.0
 30
0.0
  3
_OPEN30
  1

  0
LINE
  5
E38
100
AcDbEntity
  8
0
 62
     0
100
AcDbLine
 10
-1.0
 20
0.267949
 30
0.0
 11
0.0
 21
0.0
 31
0.0
  0
LINE
  5
E39
100
AcDbEntity
  8
0
 62
     0
100
AcDbLine
 10
0.0
 20
0.0
 30
0.0
 11
-1.0
 21
-0.267949
 31
0.0
  0
LINE
  5
E3A
100
AcDbEntity
  8
0
 62
     0
100
AcDbLine
 10
0.0
 20
0.0
 30
0.0
 11
-1.0
 21
0.0
 31
0.0
  0
ENDBLK
  5
E3C
100
AcDbEntity
  8
0
100
AcDbBlockEnd
  0
ENDSEC
  0
SECTION
  2
ENTITIES
  0
TEXT
  5
3E9
100
AcDbEntity
  8
図枠部品表
 62
     3
100
AcDbText
 10
403.65269
 20
422.521663
 30
0.0
 40
2.4325
  1

 41
0.8
  7
KANJI
 72
     1
 11
403.65269
 21
423.737913
 31
0.0
100
AcDbText
 73
     2
  0
TEXT
  5
A9F
100
AcDbEntity
  8
図枠
 62
     7
100
AcDbText
 10
162.933452
 20
10.11536
 30
0.0
 40
2.6
  1

  7
KANJI
 72
     1
 11
162.933452
 21
11.41536
 31
0.0
100
AcDbText
 73
     2
  0
LINE
  5
AFC
100
AcDbEntity
  8
CENTER
100
AcDbLine
 10
105.510283
 20
151.963113
 30
0.0
 11
171.317024
 21
151.963113
 31
0.0
  0
LINE
  5
AFD
100
AcDbEntity
  8
CENTER
100
AcDbLine
 10
138.413654
 20
114.81064
 30
0.0
 11
138.413654
 21
184.866484
 31
0.0
  0
ARC
  5
AFF
100
AcDbEntity
  8
0
100
AcDbCircle
 10
138.413654
 20
151.963113
 30
0.0
 40
30.0
100
AcDbArc
 50
271.910213
 51
88.089787
  0
ARC
  5
B00
100
AcDbEntity
  8
0
100
AcDbCircle
 10
138.413654
 20
151.963113
 30
0.0
 40
17.5
100
AcDbArc
 50
273.275829
 51
86.724171
  0
ARC
  5
B01
100
AcDbEntity
  8
0
100
AcDbCircle
 10
138.413654
 20
151.963113
 30
0.0
 40
29.0
100
AcDbArc
 50
271.976108
 51
88.023892
  0
ARC
  5
B02
100
AcDbEntity
  8
0
100
AcDbCircle
 10
138.413654
 20
151.963113
 30
0.0
 40
18.5
100
AcDbArc
 50
273.098579
 51
86.901421
  0
LINE
  5
B04
100
AcDbEntity
  8
0
100
AcDbLine
 10
139.413654
 20
121.979784
 30
0.0
 11
139.413654
 21
134.491708
 31
0.0
  0
LINE
  5
B06
100
AcDbEntity
  8
0
100
AcDbLine
 10
137.413654
 20
181.946442
 30
0.0
 11
137.413654
 21
169.434518
 31
0.0
  0
LINE
  5
B09
100
AcDbEntity
  8
CENTER
100
AcDbLine
 10
114.884273
 20
128.963113
 30
0.0
 11
161.943035
 21
128.963113
 31
0.0
  0
LINE
  5
B23
100
AcDbEntity
  8
CENTER
 48
0.5
100
AcDbLine
 10
63.303747
 20
138.006828
 30
0.0
 11
63.303747
 21
119.919398
 31
0.0
  0
LINE
  5
B24
100
AcDbEntity
  8
CENTER
 48
0.5
100
AcDbLine
 10
73.303747
 20
151.963113
 30
0.0
 11
53.303747
 21
151.963113
 31
0.0
  0
LINE
  5
B25
100
AcDbEntity
  8
CENTER
 48
0.5
100
AcDbLine
 10
72.347462
 20
128.963113
 30
0.0
 11
54.260031
 21
128.963113
 31
0.0
  0
LINE
  5
B26
100
AcDbEntity
  8
0
100
AcDbLine
 10
69.803747
 20
181.963113
 30
0.0
 11
56.803747
 21
181.963113
 31
0.0
  0
LINE
  5
B28
100
AcDbEntity
  8
0
100
AcDbLine
 10
55.803747
 20
180.963113
 30
0.0
 11
55.803747
 21
122.963113
 31
0.0
  0
LINE
  5
B2A
100
AcDbEntity
  8
0
100
AcDbLine
 10
70.803747
 20
122.963113
 30
0.0
 11
70.803747
 21
180.963113
 31
0.0
  0
LINE
  5
B2C
100
AcDbEntity
  8
0
100
AcDbLine
 10
56.803747
 20
121.963113
 30
0.0
 11
69.803747
 21
121.963113
 31
0.0
  0
LINE
  5
B2D
100
AcDbEntity
  8
0
100
AcDbLine
 10
70.803747
 20
180.963113
 30
0.0
 11
69.803747
 21
181.963113
 31
0.0
  0
LINE
  5
B2E
100
AcDbEntity
  8
0
100
AcDbLine
 10
70.803747
 20
122.963113
 30
0.0
 11
69.803747
 21
121.963113
 31
0.0
  0
LINE
  5
B2F
100
AcDbEntity
  8
0
100
AcDbLine
 10
56.803747
 20
121.963113
 30
0.0
 11
55.803747
 21
122.963113
 31
0.0
  0
LINE
  5
B30
100
AcDbEntity
  8
0
100
AcDbLine
 10
55.803747
 20
180.963113
 30
0.0
 11
56.803747
 21
181.963113
 31
0.0
  0
LINE
  5
B41
100
AcDbEntity
  8
0
  6
HIDDEN
100
AcDbLine
 10
69.803747
 20
169.463113
 30
0.0
 11
56.803747
 21
169.463113
 31
0.0
  0
LINE
  5
B42
100
AcDbEntity
  8
0
  6
HIDDEN
100
AcDbLine
 10
69.803747
 20
134.463113
 30
0.0
 11
56.803747
 21
134.463113
 31
0.0
  0
LINE
  5
B43
100
AcDbEntity
  8
0
100
AcDbLine
 10
69.803747
 20
181.963113
 30
0.0
 11
69.803747
 21
121.963113
 31
0.0
  0
LINE
  5
B44
100
AcDbEntity
  8
0
100
AcDbLine
 10
56.803747
 20
181.963113
 30
0.0
 11
56.803747
 21
121.963113
 31
0.0
  0
LINE
  5
B45
100
AcDbEntity
  8
0
100
AcDbLine
 10
69.803747
 20
169.463113
 30
0.0
 11
70.803747
 21
170.463113
 31
0.0
  0
LINE
  5
B46
100
AcDbEntity
  8
0
100
AcDbLine
 10
56.803747
 20
169.463113
 30
0.0
 11
55.803747
 21
170.463113
 31
0.0
  0
LINE
  5
B47
100
AcDbEntity
  8
0
100
AcDbLine
 10
56.803747
 20
134.463113
 30
0.0
 11
55.803747
 21
133.463113
 31
0.0
  0
LINE
  5
B48
100
AcDbEntity
  8
0
100
AcDbLine
 10
69.803747
 20
134.463113
 30
0.0
 11
70.803747
 21
133.463113
 31
0.0
  0
LINE
  5
D97
100
AcDbEntity
  8
0
  6
HIDDEN
 62
     3
100
AcDbLine
 10
150.800204
 20
177.963113
 30
0.0
 11
153.380283
 21
177.963113
 31
0.0
  0
LINE
  5
D9A
100
AcDbEntity
  8
0
  6
HIDDEN
 62
     3
100
AcDbLine
 10
150.800204
 20
171.963113
 30
0.0
 11
160.774334
 21
171.963113
 31
0.0
  0
LINE
  5
D9B
100
AcDbEntity
  8
CENTER
100
AcDbLine
 10
114.884273
 20
174.963113
 30
0.0
 11
161.943035
 21
174.963113
 31
0.0
  0
LINE
  5
D9C
100
AcDbEntity
  8
0
  6
HIDDEN
100
AcDbLine
 10
113.69524
 20
168.963113
 30
0.0
 11
126.413654
 21
168.963113
 31
0.0
  0
LINE
  5
D9D
100
AcDbEntity
  8
0
  6
HIDDEN
100
AcDbLine
 10
126.413654
 20
171.463113
 30
0.0
 11
137.413654
 21
171.463113
 31
0.0
  0
LINE
  5
D9E
100
AcDbEntity
  8
0
  6
HIDDEN
100
AcDbLine
 10
126.413654
 20
178.463113
 30
0.0
 11
137.413654
 21
178.463113
 31
0.0
  0
LINE
  5
D9F
100
AcDbEntity
  8
0
  6
HIDDEN
100
AcDbLine
 10
126.413654
 20
179.963113
 30
0.0
 11
126.413654
 21
168.963113
 31
0.0
  0
ARC
  5
DA0
100
AcDbEntity
  8
0
100
AcDbCircle
 10
138.413654
 20
151.963113
 30
0.0
 40
18.5
100
AcDbArc
 50
93.098579
 51
266.901421
  0
ARC
  5
DA1
100
AcDbEntity
  8
0
100
AcDbCircle
 10
138.413654
 20
151.963113
 30
0.0
 40
17.5
100
AcDbArc
 50
93.275829
 51
266.724171
  0
ARC
  5
DA3
100
AcDbEntity
  8
0
100
AcDbCircle
 10
138.413654
 20
151.963113
 30
0.0
 40
30.0
100
AcDbArc
 50
91.910213
 51
268.089787
  0
ARC
  5
DA4
100
AcDbEntity
  8
0
100
AcDbCircle
 10
138.413654
 20
151.963113
 30
0.0
 40
29.0
100
AcDbArc
 50
91.976108
 51
268.023892
  0
LINE
  5
DA5
100
AcDbEntity
  8
0
100
AcDbLine
 10
137.413654
 20
134.491708
 30
0.0
 11
137.413654
 21
121.979784
 31
0.0
  0
LINE
  5
DA6
100
AcDbEntity
  8
0
100
AcDbLine
 10
139.413654
 20
169.434518
 30
0.0
 11
139.413654
 21
181.946442
 31
0.0
  0
LINE
  5
DBB
100
AcDbEntity
  8
0
100
AcDbLine
 10
69.303747
 20
179.458567
 30
0.0
 11
65.492557
 21
179.458567
 31
0.0
  0
LINE
  5
DBC
100
AcDbEntity
  8
CENTER
 48
0.5
100
AcDbLine
 10
72.347462
 20
174.963113
 30
0.0
 11
54.260031
 21
174.963113
 31
0.0
  0
ARC
  5
DC0
100
AcDbEntity
  8
0
100
AcDbCircle
 10
63.303747
 20
174.963113
 30
0.0
 40
6.0
100
AcDbArc
 50
180.0
 51
0.0
  0
LINE
  5
DC1
100
AcDbEntity
  8
0
100
AcDbLine
 10
57.303747
 20
174.963113
 30
0.0
 11
57.303747
 21
179.458567
 31
0.0
  0
LINE
  5
DC2
100
AcDbEntity
  8
0
100
AcDbLine
 10
69.303747
 20
174.963113
 30
0.0
 11
69.303747
 21
179.458567
 31
0.0
  0
LINE
  5
DC3
100
AcDbEntity
  8
CENTER
 48
0.5
100
AcDbLine
 10
63.303747
 20
165.919398
 30
0.0
 11
63.303747
 21
184.006828
 31
0.0
  0
LINE
  5
DFC
100
AcDbEntity
  8
0
100
AcDbLine
 10
-16.997371
 20
122.963113
 30
0.0
 11
-16.997371
 21
133.463113
 31
0.0
  0
LINE
  5
DFD
100
AcDbEntity
  8
0
100
AcDbLine
 10
-31.997371
 20
180.963113
 30
0.0
 11
-31.997371
 21
170.463113
 31
0.0
  0
LINE
  5
DFE
100
AcDbEntity
  8
CENTER
 48
0.5
100
AcDbLine
 10
-24.497371
 20
138.006828
 30
0.0
 11
-24.497371
 21
119.919398
 31
0.0
  0
LINE
  5
DFF
100
AcDbEntity
  8
0
100
AcDbLine
 10
-30.997371
 20
121.963113
 30
0.0
 11
-17.997371
 21
121.963113
 31
0.0
  0
LINE
  5
E00
100
AcDbEntity
  8
0
100
AcDbLine
 10
-30.997371
 20
121.963113
 30
0.0
 11
-31.997371
 21
122.963113
 31
0.0
  0
LINE
  5
E01
100
AcDbEntity
  8
0
100
AcDbLine
 10
-16.997371
 20
122.963113
 30
0.0
 11
-17.997371
 21
121.963113
 31
0.0
  0
LINE
  5
E02
100
AcDbEntity
  8
0
100
AcDbLine
 10
-17.997371
 20
134.463113
 30
0.0
 11
-30.997371
 21
134.463113
 31
0.0
  0
LINE
  5
E05
100
AcDbEntity
  8
CENTER
 48
0.5
100
AcDbLine
 10
-15.453655
 20
128.963113
 30
0.0
 11
-33.541086
 21
128.963113
 31
0.0
  0
LINE
  5
E07
100
AcDbEntity
  8
0
100
AcDbLine
 10
-30.997371
 20
134.463113
 30
0.0
 11
-31.997371
 21
133.463113
 31
0.0
  0
CIRCLE
  5
E08
100
AcDbEntity
  8
0
 62
     3
100
AcDbCircle
 10
-24.497371
 20
128.963113
 30
0.0
 40
3.0
  0
CIRCLE
  5
E09
100
AcDbEntity
  8
0
100
AcDbCircle
 10
-24.497371
 20
128.963113
 30
0.0
 40
3.5
  0
CIRCLE
  5
E0A
100
AcDbEntity
  8
0
100
AcDbCircle
 10
-24.497371
 20
128.963113
 30
0.0
 40
2.4585
  0
LINE
  5
E0C
100
AcDbEntity
  8
0
100
AcDbLine
 10
-17.997371
 20
134.463113
 30
0.0
 11
-16.997371
 21
133.463113
 31
0.0
  0
LINE
  5
E0D
100
AcDbEntity
  8
CENTER
 48
0.5
100
AcDbLine
 10
-24.497371
 20
165.919398
 30
0.0
 11
-24.497371
 21
184.006828
 31
0.0
  0
LINE
  5
E0F
100
AcDbEntity
  8
0
100
AcDbLine
 10
-30.997371
 20
169.463113
 30
0.0
 11
-31.997371
 21
170.463113
 31
0.0
  0
LINE
  5
E10
100
AcDbEntity
  8
0
100
AcDbLine
 10
-17.997371
 20
169.463113
 30
0.0
 11
-16.997371
 21
170.463113
 31
0.0
  0
LINE
  5
E11
100
AcDbEntity
  8
0
100
AcDbLine
 10
-17.997371
 20
169.463113
 30
0.0
 11
-30.997371
 21
169.463113
 31
0.0
  0
LINE
  5
E12
100
AcDbEntity
  8
CENTER
 48
0.5
100
AcDbLine
 10
-14.497371
 20
151.963113
 30
0.0
 11
-34.497371
 21
151.963113
 31
0.0
  0
LINE
  5
E13
100
AcDbEntity
  8
CENTER
 48
0.5
100
AcDbLine
 10
-15.453655
 20
174.963113
 30
0.0
 11
-33.541086
 21
174.963113
 31
0.0
  0
LINE
  5
E15
100
AcDbEntity
  8
0
100
AcDbLine
 10
-17.997371
 20
181.963113
 30
0.0
 11
-30.997371
 21
181.963113
 31
0.0
  0
LINE
  5
E17
100
AcDbEntity
  8
0
100
AcDbLine
 10
-31.997371
 20
180.963113
 30
0.0
 11
-30.997371
 21
181.963113
 31
0.0
  0
CIRCLE
  5
E18
100
AcDbEntity
  8
0
100
AcDbCircle
 10
-24.497371
 20
174.963113
 30
0.0
 40
2.4585
  0
CIRCLE
  5
E19
100
AcDbEntity
  8
0
100
AcDbCircle
 10
-24.497371
 20
174.963113
 30
0.0
 40
3.5
  0
CIRCLE
  5
E1A
100
AcDbEntity
  8
0
 62
     3
100
AcDbCircle
 10
-24.497371
 20
174.963113
 30
0.0
 40
3.0
  0
LINE
  5
E1C
100
AcDbEntity
  8
0
100
AcDbLine
 10
-16.997371
 20
180.963113
 30
0.0
 11
-17.997371
 21
181.963113
 31
0.0
  0
POINT
  5
EB2
100
AcDbEntity
  8
0
 60
     1
100
AcDbPoint
 10
246.855672
 20
204.578034
 30
0.0
1001
GENIUS_GENOBJ-NBEHI-BHF_13
1002
{
1000
OWNER
1000
GENBEHI
1002
}
1001
GENIUS_GENOENT_13
1002
{
1000
MYREF
1005
EB2
1002
}
1002
{
1000
GRP
1005
0
1002
}
1001
GENIUS_GENOLIS_13
1002
{
1000
ENT
1005
0
1002
}
1001
GENIUS_GENBH_13
1002
{
1000
OIUMAP
1000
OIU
1002
}
1002
{
1000
FLAGS
1070
    32
1002
}
1002
{
1000
BGO
1005
EB3
1002
}
1001
GENIUS_GENODEF_13
1002
{
1000
HIER
1070
     1
1002
}
1002
{
1000
MANEDIT
1070
     1
1002
}
1002
{
1000
NOSEL
1070
     1
1002
}
1002
{
1000
BEHIND
1070
     0
1002
}
1002
{
1000
REACTOR
1002
}
  0
POINT
  5
EB3
100
AcDbEntity
  8
0
 60
     1
100
AcDbPoint
 10
246.855672
 20
204.578034
 30
0.0
1001
GENIUS_GENOBJ-NBEHI-BHB_13
1002
{
1000
OWNER
1000
GENBEHI
1002
}
1001
GENIUS_GENOENT_13
1002
{
1000
MYREF
1005
EB3
1002
}
1002
{
1000
GRP
1005
0
1002
}
1001
GENIUS_GENOLIS_13
1002
{
1000
ENT
1002
}
1001
GENIUS_GENODEF_13
1002
{
1000
HIER
1070
     1
1002
}
1002
{
1000
MANEDIT
1070
     0
1002
}
1002
{
1000
NOSEL
1070
     1
1002
}
1002
{
1000
BEHIND
1070
     0
1002
}
1002
{
1000
REACTOR
1002
}
1002
{
1000
OTHER
1070
     1
1002
}
1001
GENIUS_GENBH_13
1002
{
1000
FGO
1005
EB2
1002
}
  0
POINT
  5
EB4
100
AcDbEntity
  8
0
 60
     1
100
AcDbPoint
 10
246.855672
 20
204.578034
 30
0.0
1001
GENIUS_GENOBJ-NBEHI-BHF_13
1002
{
1000
OWNER
1000
GENBEHI
1002
}
1001
GENIUS_GENOENT_13
1002
{
1000
MYREF
1005
EB4
1002
}
1002
{
1000
GRP
1005
0
1002
}
1001
GENIUS_GENOLIS_13
1002
{
1000
ENT
1005
0
1002
}
1001
GENIUS_GENODEF_13
1002
{
1000
HIER
1070
     1
1002
}
1002
{
1000
MANEDIT
1070
     0
1002
}
1002
{
1000
NOSEL
1070
     1
1002
}
1002
{
1000
BEHIND
1070
     0
1002
}
1002
{
1000
REACTOR
1002
}
1001
GENIUS_GENBH_13
1002
{
1000
OIUMAP
1000
OIU
1002
}
1002
{
1000
FLAGS
1070
    32
1002
}
1002
{
1000
BGO
1005
EB5
1002
}
  0
POINT
  5
EB5
100
AcDbEntity
  8
0
 60
     1
100
AcDbPoint
 10
246.855672
 20
204.578034
 30
0.0
1001
GENIUS_GENOBJ-NBEHI-BHB_13
1002
{
1000
OWNER
1000
GENBEHI
1002
}
1001
GENIUS_GENOENT_13
1002
{
1000
MYREF
1005
EB5
1002
}
1002
{
1000
GRP
1005
0
1002
}
1001
GENIUS_GENOLIS_13
1002
{
1000
ENT
1002
}
1001
GENIUS_GENODEF_13
1002
{
1000
HIER
1070
     1
1002
}
1002
{
1000
MANEDIT
1070
     0
1002
}
1002
{
1000
NOSEL
1070
     1
1002
}
1002
{
1000
BEHIND
1070
     0
1002
}
1002
{
1000
REACTOR
1002
}
1002
{
1000
OTHER
1070
     1
1002
}
1001
GENIUS_GENBH_13
1002
{
1000
FGO
1005
EB4
1002
}
  0
POINT
  5
EB6
100
AcDbEntity
  8
0
 60
     1
100
AcDbPoint
 10
246.855672
 20
204.578034
 30
0.0
1001
GENIUS_GENOBJ-NBEHI-BHF_13
1002
{
1000
OWNER
1000
GENBEHI
1002
}
1001
GENIUS_GENOENT_13
1002
{
1000
MYREF
1005
EB6
1002
}
1002
{
1000
GRP
1005
0
1002
}
1001
GENIUS_GENOLIS_13
1002
{
1000
ENT
1005
0
1002
}
1001
GENIUS_GENBH_13
1002
{
1000
OIUMAP
1000
OIU
1002
}
1002
{
1000
FLAGS
1070
    32
1002
}
1002
{
1000
BGO
1005
EB7
1002
}
1001
GENIUS_GENODEF_13
1002
{
1000
HIER
1070
     1
1002
}
1002
{
1000
MANEDIT
1070
     1
1002
}
1002
{
1000
NOSEL
1070
     1
1002
}
1002
{
1000
BEHIND
1070
     0
1002
}
1002
{
1000
REACTOR
1002
}
  0
POINT
  5
EB7
100
AcDbEntity
  8
0
 60
     1
100
AcDbPoint
 10
246.855672
 20
204.578034
 30
0.0
1001
GENIUS_GENOBJ-NBEHI-BHB_13
1002
{
1000
OWNER
1000
GENBEHI
1002
}
1001
GENIUS_GENOENT_13
1002
{
1000
MYREF
1005
EB7
1002
}
1002
{
1000
GRP
1005
0
1002
}
1001
GENIUS_GENOLIS_13
1002
{
1000
ENT
1002
}
1001
GENIUS_GENODEF_13
1002
{
1000
HIER
1070
     1
1002
}
1002
{
1000
MANEDIT
1070
     0
1002
}
1002
{
1000
NOSEL
1070
     1
1002
}
1002
{
1000
BEHIND
1070
     0
1002
}
1002
{
1000
REACTOR
1002
}
1002
{
1000
OTHER
1070
     1
1002
}
1001
GENIUS_GENBH_13
1002
{
1000
FGO
1005
EB6
1002
}
  0
POINT
  5
EB8
100
AcDbEntity
  8
0
 60
     1
100
AcDbPoint
 10
246.855672
 20
204.578034
 30
0.0
1001
GENIUS_GENOBJ-F-SCPASSM_13
1002
{
1000
OWNER
1000
GEF
1002
}
1001
GENIUS_GENOENT_13
1002
{
1000
MYREF
1005
EB8
1002
}
1002
{
1000
GRP
1005
0
1002
}
1001
GENIUS_GENOLIS_13
1002
{
1000
ENT
1005
0
1005
0
1002
}
1001
GENIUS_GENODEF_13
1002
{
1000
HIER
1070
   200
1002
}
1002
{
1000
MANEDIT
1070
     1
1002
}
1002
{
1000
NOSEL
1070
     0
1002
}
1002
{
1000
BEHIND
1070
     0
1002
}
1002
{
1000
REACTOR
1002
}
  0
POINT
  5
EB9
100
AcDbEntity
  8
0
 60
     1
100
AcDbPoint
 10
246.855672
 20
204.578034
 30
0.0
1001
GENIUS_GENOBJ-NBEHI-BHF_13
1002
{
1000
OWNER
1000
GENBEHI
1002
}
1001
GENIUS_GENOENT_13
1002
{
1000
MYREF
1005
EB9
1002
}
1002
{
1000
GRP
1005
0
1002
}
1001
GENIUS_GENOLIS_13
1002
{
1000
ENT
1005
0
1002
}
1001
GENIUS_GENODEF_13
1002
{
1000
HIER
1070
     1
1002
}
1002
{
1000
MANEDIT
1070
     0
1002
}
1002
{
1000
NOSEL
1070
     1
1002
}
1002
{
1000
BEHIND
1070
     0
1002
}
1002
{
1000
REACTOR
1002
}
1001
GENIUS_GENBH_13
1002
{
1000
OIUMAP
1000
OIU
1002
}
1002
{
1000
FLAGS
1070
    32
1002
}
1002
{
1000
BGO
1005
EBA
1002
}
  0
POINT
  5
EBA
100
AcDbEntity
  8
0
 60
     1
100
AcDbPoint
 10
246.855672
 20
204.578034
 30
0.0
1001
GENIUS_GENOBJ-NBEHI-BHB_13
1002
{
1000
OWNER
1000
GENBEHI
1002
}
1001
GENIUS_GENOENT_13
1002
{
1000
MYREF
1005
EBA
1002
}
1002
{
1000
GRP
1005
0
1002
}
1001
GENIUS_GENOLIS_13
1002
{
1000
ENT
1002
}
1001
GENIUS_GENODEF_13
1002
{
1000
HIER
1070
     1
1002
}
1002
{
1000
MANEDIT
1070
     0
1002
}
1002
{
1000
NOSEL
1070
     1
1002
}
1002
{
1000
BEHIND
1070
     0
1002
}
1002
{
1000
REACTOR
1002
}
1002
{
1000
OTHER
1070
     1
1002
}
1001
GENIUS_GENBH_13
1002
{
1000
FGO
1005
EB9
1002
}
  0
POINT
  5
EBB
100
AcDbEntity
  8
0
 60
     1
100
AcDbPoint
 10
246.855672
 20
204.578034
 30
0.0
1001
GENIUS_GENOBJ-NBEHI-BHF_13
1002
{
1000
OWNER
1000
GENBEHI
1002
}
1001
GENIUS_GENOENT_13
1002
{
1000
MYREF
1005
EBB
1002
}
1002
{
1000
GRP
1005
0
1002
}
1001
GENIUS_GENOLIS_13
1002
{
1000
ENT
1005
0
1002
}
1001
GENIUS_GENBH_13
1002
{
1000
OIUMAP
1000
OIU
1002
}
1002
{
1000
FLAGS
1070
    32
1002
}
1002
{
1000
BGO
1005
EBC
1002
}
1001
GENIUS_GENODEF_13
1002
{
1000
HIER
1070
     1
1002
}
1002
{
1000
MANEDIT
1070
     1
1002
}
1002
{
1000
NOSEL
1070
     1
1002
}
1002
{
1000
BEHIND
1070
     0
1002
}
1002
{
1000
REACTOR
1002
}
  0
POINT
  5
EBC
100
AcDbEntity
  8
0
 60
     1
100
AcDbPoint
 10
246.855672
 20
204.578034
 30
0.0
1001
GENIUS_GENOBJ-NBEHI-BHB_13
1002
{
1000
OWNER
1000
GENBEHI
1002
}
1001
GENIUS_GENOENT_13
1002
{
1000
MYREF
1005
EBC
1002
}
1002
{
1000
GRP
1005
0
1002
}
1001
GENIUS_GENOLIS_13
1002
{
1000
ENT
1005
0
1002
}
1001
GENIUS_GENODEF_13
1002
{
1000
HIER
1070
     1
1002
}
1002
{
1000
MANEDIT
1070
     0
1002
}
1002
{
1000
NOSEL
1070
     1
1002
}
1002
{
1000
BEHIND
1070
     0
1002
}
1002
{
1000
REACTOR
1002
}
1002
{
1000
OTHER
1070
     1
1002
}
1001
GENIUS_GENBH_13
1002
{
1000
FGO
1005
EBB
1002
}
  0
POINT
  5
EBD
100
AcDbEntity
  8
0
 60
     1
100
AcDbPoint
 10
246.855672
 20
204.578034
 30
0.0
1001
GENIUS_GENOBJ-F-SCPASSM_13
1002
{
1000
OWNER
1000
GEF
1002
}
1001
GENIUS_GENOENT_13
1002
{
1000
MYREF
1005
EBD
1002
}
1002
{
1000
GRP
1005
0
1002
}
1001
GENIUS_GENOLIS_13
1002
{
1000
ENT
1005
0
1005
0
1002
}
1001
GENIUS_GENODEF_13
1002
{
1000
HIER
1070
   200
1002
}
1002
{
1000
MANEDIT
1070
     1
1002
}
1002
{
1000
NOSEL
1070
     0
1002
}
1002
{
1000
BEHIND
1070
     0
1002
}
1002
{
1000
REACTOR
1002
}
  0
POINT
  5
EBE
100
AcDbEntity
  8
0
 60
     1
100
AcDbPoint
 10
246.855672
 20
204.578034
 30
0.0
1001
GENIUS_GENOBJ-NBEHI-BHF_13
1002
{
1000
OWNER
1000
GENBEHI
1002
}
1001
GENIUS_GENOENT_13
1002
{
1000
MYREF
1005
EBE
1002
}
1002
{
1000
GRP
1005
0
1002
}
1001
GENIUS_GENOLIS_13
1002
{
1000
ENT
1005
0
1002
}
1001
GENIUS_GENODEF_13
1002
{
1000
HIER
1070
     1
1002
}
1002
{
1000
MANEDIT
1070
     0
1002
}
1002
{
1000
NOSEL
1070
     1
1002
}
1002
{
1000
BEHIND
1070
     0
1002
}
1002
{
1000
REACTOR
1002
}
1001
GENIUS_GENBH_13
1002
{
1000
OIUMAP
1000
OIU
1002
}
1002
{
1000
FLAGS
1070
    32
1002
}
1002
{
1000
BGO
1005
EBF
1002
}
  0
POINT
  5
EBF
100
AcDbEntity
  8
0
 60
     1
100
AcDbPoint
 10
246.855672
 20
204.578034
 30
0.0
1001
GENIUS_GENOBJ-NBEHI-BHB_13
1002
{
1000
OWNER
1000
GENBEHI
1002
}
1001
GENIUS_GENOENT_13
1002
{
1000
MYREF
1005
EBF
1002
}
1002
{
1000
GRP
1005
0
1002
}
1001
GENIUS_GENOLIS_13
1002
{
1000
ENT
1002
}
1001
GENIUS_GENODEF_13
1002
{
1000
HIER
1070
     1
1002
}
1002
{
1000
MANEDIT
1070
     0
1002
}
1002
{
1000
NOSEL
1070
     1
1002
}
1002
{
1000
BEHIND
1070
     0
1002
}
1002
{
1000
REACTOR
1002
}
1002
{
1000
OTHER
1070
     1
1002
}
1001
GENIUS_GENBH_13
1002
{
1000
FGO
1005
EBE
1002
}
  0
POINT
  5
EC0
100
AcDbEntity
  8
0
 60
     1
100
AcDbPoint
 10
246.855672
 20
204.578034
 30
0.0
1001
GENIUS_GENOBJ-NBEHI-BHF_13
1002
{
1000
OWNER
1000
GENBEHI
1002
}
1001
GENIUS_GENOENT_13
1002
{
1000
MYREF
1005
EC0
1002
}
1002
{
1000
GRP
1005
0
1002
}
1001
GENIUS_GENOLIS_13
1002
{
1000
ENT
1005
0
1002
}
1001
GENIUS_GENBH_13
1002
{
1000
OIUMAP
1000
OIU
1002
}
1002
{
1000
FLAGS
1070
    32
1002
}
1002
{
1000
BGO
1005
EC1
1002
}
1001
GENIUS_GENODEF_13
1002
{
1000
HIER
1070
     1
1002
}
1002
{
1000
MANEDIT
1070
     1
1002
}
1002
{
1000
NOSEL
1070
     1
1002
}
1002
{
1000
BEHIND
1070
     0
1002
}
1002
{
1000
REACTOR
1002
}
  0
POINT
  5
EC1
100
AcDbEntity
  8
0
 60
     1
100
AcDbPoint
 10
246.855672
 20
204.578034
 30
0.0
1001
GENIUS_GENOBJ-NBEHI-BHB_13
1002
{
1000
OWNER
1000
GENBEHI
1002
}
1001
GENIUS_GENOENT_13
1002
{
1000
MYREF
1005
EC1
1002
}
1002
{
1000
GRP
1005
0
1002
}
1001
GENIUS_GENOLIS_13
1002
{
1000
ENT
1005
0
1002
}
1001
GENIUS_GENODEF_13
1002
{
1000
HIER
1070
     1
1002
}
1002
{
1000
MANEDIT
1070
     0
1002
}
1002
{
1000
NOSEL
1070
     1
1002
}
1002
{
1000
BEHIND
1070
     0
1002
}
1002
{
1000
REACTOR
1002
}
1002
{
1000
OTHER
1070
     1
1002
}
1001
GENIUS_GENBH_13
1002
{
1000
FGO
1005
EC0
1002
}
  0
POINT
  5
EC2
100
AcDbEntity
  8
0
 60
     1
100
AcDbPoint
 10
246.855672
 20
204.578034
 30
0.0
1001
GENIUS_GENOBJ-F-SCPASSM_13
1002
{
1000
OWNER
1000
GEF
1002
}
1001
GENIUS_GENOENT_13
1002
{
1000
MYREF
1005
EC2
1002
}
1002
{
1000
GRP
1005
0
1002
}
1001
GENIUS_GENOLIS_13
1002
{
1000
ENT
1005
0
1005
0
1002
}
1001
GENIUS_GENODEF_13
1002
{
1000
HIER
1070
   200
1002
}
1002
{
1000
MANEDIT
1070
     1
1002
}
1002
{
1000
NOSEL
1070
     0
1002
}
1002
{
1000
BEHIND
1070
     0
1002
}
1002
{
1000
REACTOR
1002
}
  0
POINT
  5
EC3
100
AcDbEntity
  8
0
 60
     1
100
AcDbPoint
 10
246.855672
 20
204.578034
 30
0.0
1001
GENIUS_GENOBJ-NBEHI-BHF_13
1002
{
1000
OWNER
1000
GENBEHI
1002
}
1001
GENIUS_GENOENT_13
1002
{
1000
MYREF
1005
EC3
1002
}
1002
{
1000
GRP
1005
0
1002
}
1001
GENIUS_GENOLIS_13
1002
{
1000
ENT
1005
0
1002
}
1001
GENIUS_GENODEF_13
1002
{
1000
HIER
1070
     1
1002
}
1002
{
1000
MANEDIT
1070
     0
1002
}
1002
{
1000
NOSEL
1070
     1
1002
}
1002
{
1000
BEHIND
1070
     0
1002
}
1002
{
1000
REACTOR
1002
}
1001
GENIUS_GENBH_13
1002
{
1000
OIUMAP
1000
OIU
1002
}
1002
{
1000
FLAGS
1070
    32
1002
}
1002
{
1000
BGO
1005
EC4
1002
}
  0
POINT
  5
EC4
100
AcDbEntity
  8
0
 60
     1
100
AcDbPoint
 10
246.855672
 20
204.578034
 30
0.0
1001
GENIUS_GENOBJ-NBEHI-BHB_13
1002
{
1000
OWNER
1000
GENBEHI
1002
}
1001
GENIUS_GENOENT_13
1002
{
1000
MYREF
1005
EC4
1002
}
1002
{
1000
GRP
1005
0
1002
}
1001
GENIUS_GENOLIS_13
1002
{
1000
ENT
1002
}
1001
GENIUS_GENODEF_13
1002
{
1000
HIER
1070
     1
1002
}
1002
{
1000
MANEDIT
1070
     0
1002
}
1002
{
1000
NOSEL
1070
     1
1002
}
1002
{
1000
BEHIND
1070
     0
1002
}
1002
{
1000
REACTOR
1002
}
1002
{
1000
OTHER
1070
     1
1002
}
1001
GENIUS_GENBH_13
1002
{
1000
FGO
1005
EC3
1002
}
  0
POINT
  5
EC5
100
AcDbEntity
  8
0
 60
     1
100
AcDbPoint
 10
246.855672
 20
204.578034
 30
0.0
1001
GENIUS_GENOBJ-NBEHI-BHF_13
1002
{
1000
OWNER
1000
GENBEHI
1002
}
1001
GENIUS_GENOENT_13
1002
{
1000
MYREF
1005
EC5
1002
}
1002
{
1000
GRP
1005
0
1002
}
1001
GENIUS_GENOLIS_13
1002
{
1000
ENT
1005
0
1002
}
1001
GENIUS_GENBH_13
1002
{
1000
OIUMAP
1000
OIU
1002
}
1002
{
1000
FLAGS
1070
    32
1002
}
1002
{
1000
BGO
1005
EC6
1002
}
1001
GENIUS_GENODEF_13
1002
{
1000
HIER
1070
     1
1002
}
1002
{
1000
MANEDIT
1070
     1
1002
}
1002
{
1000
NOSEL
1070
     1
1002
}
1002
{
1000
BEHIND
1070
     0
1002
}
1002
{
1000
REACTOR
1002
}
  0
POINT
  5
EC6
100
AcDbEntity
  8
0
 60
     1
100
AcDbPoint
 10
246.855672
 20
204.578034
 30
0.0
1001
GENIUS_GENOBJ-NBEHI-BHB_13
1002
{
1000
OWNER
1000
GENBEHI
1002
}
1001
GENIUS_GENOENT_13
1002
{
1000
MYREF
1005
EC6
1002
}
1002
{
1000
GRP
1005
0
1002
}
1001
GENIUS_GENOLIS_13
1002
{
1000
ENT
1005
0
1002
}
1001
GENIUS_GENODEF_13
1002
{
1000
HIER
1070
     1
1002
}
1002
{
1000
MANEDIT
1070
     0
1002
}
1002
{
1000
NOSEL
1070
     1
1002
}
1002
{
1000
BEHIND
1070
     0
1002
}
1002
{
1000
REACTOR
1002
}
1002
{
1000
OTHER
1070
     1
1002
}
1001
GENIUS_GENBH_13
1002
{
1000
FGO
1005
EC5
1002
}
  0
POINT
  5
EC7
100
AcDbEntity
  8
0
 60
     1
100
AcDbPoint
 10
246.855672
 20
204.578034
 30
0.0
1001
GENIUS_GENOBJ-F-SCPASSM_13
1002
{
1000
OWNER
1000
GEF
1002
}
1001
GENIUS_GENOENT_13
1002
{
1000
MYREF
1005
EC7
1002
}
1002
{
1000
GRP
1005
0
1002
}
1001
GENIUS_GENOLIS_13
1002
{
1000
ENT
1005
0
1005
0
1002
}
1001
GENIUS_GENODEF_13
1002
{
1000
HIER
1070
   200
1002
}
1002
{
1000
MANEDIT
1070
     1
1002
}
1002
{
1000
NOSEL
1070
     0
1002
}
1002
{
1000
BEHIND
1070
     0
1002
}
1002
{
1000
REACTOR
1002
}
  0
POINT
  5
EC8
100
AcDbEntity
  8
0
 60
     1
100
AcDbPoint
 10
246.855672
 20
204.578034
 30
0.0
1001
GENIUS_GENOBJ-NBEHI-BHB_13
1002
{
1000
OWNER
1000
GENBEHI
1002
}
1001
GENIUS_GENOENT_13
1002
{
1000
MYREF
1005
EC8
1002
}
1002
{
1000
GRP
1005
0
1002
}
1001
GENIUS_GENOLIS_13
1002
{
1000
ENT
1002
}
1001
GENIUS_GENODEF_13
1002
{
1000
HIER
1070
     1
1002
}
1002
{
1000
MANEDIT
1070
     0
1002
}
1002
{
1000
NOSEL
1070
     1
1002
}
1002
{
1000
BEHIND
1070
     0
1002
}
1002
{
1000
REACTOR
1002
}
1002
{
1000
OTHER
1070
     1
1002
}
1001
GENIUS_GENBH_13
1002
{
1000
FGO
1005
0
1002
}
  0
POINT
  5
EC9
100
AcDbEntity
  8
0
 60
     1
100
AcDbPoint
 10
246.855672
 20
204.578034
 30
0.0
1001
GENIUS_GENOBJ-NBEHI-BHF_13
1002
{
1000
OWNER
1000
GENBEHI
1002
}
1001
GENIUS_GENOENT_13
1002
{
1000
MYREF
1005
EC9
1002
}
1002
{
1000
GRP
1005
0
1002
}
1001
GENIUS_GENOLIS_13
1002
{
1000
ENT
1005
0
1002
}
1001
GENIUS_GENBH_13
1002
{
1000
OIUMAP
1000
OIU
1002
}
1002
{
1000
FLAGS
1070
    32
1002
}
1002
{
1000
BGO
1005
0
1002
}
1001
GENIUS_GENODEF_13
1002
{
1000
HIER
1070
     1
1002
}
1002
{
1000
MANEDIT
1070
     1
1002
}
1002
{
1000
NOSEL
1070
     1
1002
}
1002
{
1000
BEHIND
1070
     0
1002
}
1002
{
1000
REACTOR
1002
}
  0
POINT
  5
ECA
100
AcDbEntity
  8
0
 60
     1
100
AcDbPoint
 10
246.855672
 20
204.578034
 30
0.0
1001
GENIUS_GENOBJ-NBEHI-BHF_13
1002
{
1000
OWNER
1000
GENBEHI
1002
}
1001
GENIUS_GENOENT_13
1002
{
1000
MYREF
1005
ECA
1002
}
1002
{
1000
GRP
1005
0
1002
}
1001
GENIUS_GENOLIS_13
1002
{
1000
ENT
1005
0
1002
}
1001
GENIUS_GENODEF_13
1002
{
1000
HIER
1070
     1
1002
}
1002
{
1000
MANEDIT
1070
     0
1002
}
1002
{
1000
NOSEL
1070
     1
1002
}
1002
{
1000
BEHIND
1070
     0
1002
}
1002
{
1000
REACTOR
1002
}
1001
GENIUS_GENBH_13
1002
{
1000
OIUMAP
1000
OIU
1002
}
1002
{
1000
FLAGS
1070
    32
1002
}
1002
{
1000
BGO
1005
ECB
1002
}
  0
POINT
  5
ECB
100
AcDbEntity
  8
0
 60
     1
100
AcDbPoint
 10
246.855672
 20
204.578034
 30
0.0
1001
GENIUS_GENOBJ-NBEHI-BHB_13
1002
{
1000
OWNER
1000
GENBEHI
1002
}
1001
GENIUS_GENOENT_13
1002
{
1000
MYREF
1005
ECB
1002
}
1002
{
1000
GRP
1005
0
1002
}
1001
GENIUS_GENOLIS_13
1002
{
1000
ENT
1002
}
1001
GENIUS_GENODEF_13
1002
{
1000
HIER
1070
     1
1002
}
1002
{
1000
MANEDIT
1070
     0
1002
}
1002
{
1000
NOSEL
1070
     1
1002
}
1002
{
1000
BEHIND
1070
     0
1002
}
1002
{
1000
REACTOR
1002
}
1002
{
1000
OTHER
1070
     1
1002
}
1001
GENIUS_GENBH_13
1002
{
1000
FGO
1005
ECA
1002
}
  0
POINT
  5
ECC
100
AcDbEntity
  8
0
 60
     1
100
AcDbPoint
 10
246.855672
 20
204.578034
 30
0.0
1001
GENIUS_GENOBJ-NBEHI-BHF_13
1002
{
1000
OWNER
1000
GENBEHI
1002
}
1001
GENIUS_GENOENT_13
1002
{
1000
MYREF
1005
ECC
1002
}
1002
{
1000
GRP
1005
0
1002
}
1001
GENIUS_GENOLIS_13
1002
{
1000
ENT
1005
0
1002
}
1001
GENIUS_GENBH_13
1002
{
1000
OIUMAP
1000
OIU
1002
}
1002
{
1000
FLAGS
1070
    32
1002
}
1002
{
1000
BGO
1005
ECD
1002
}
1001
GENIUS_GENODEF_13
1002
{
1000
HIER
1070
     1
1002
}
1002
{
1000
MANEDIT
1070
     1
1002
}
1002
{
1000
NOSEL
1070
     1
1002
}
1002
{
1000
BEHIND
1070
     0
1002
}
1002
{
1000
REACTOR
1002
}
  0
POINT
  5
ECD
100
AcDbEntity
  8
0
 60
     1
100
AcDbPoint
 10
246.855672
 20
204.578034
 30
0.0
1001
GENIUS_GENOBJ-NBEHI-BHB_13
1002
{
1000
OWNER
1000
GENBEHI
1002
}
1001
GENIUS_GENOENT_13
1002
{
1000
MYREF
1005
ECD
1002
}
1002
{
1000
GRP
1005
0
1002
}
1001
GENIUS_GENOLIS_13
1002
{
1000
ENT
1005
0
1002
}
1001
GENIUS_GENODEF_13
1002
{
1000
HIER
1070
     1
1002
}
1002
{
1000
MANEDIT
1070
     0
1002
}
1002
{
1000
NOSEL
1070
     1
1002
}
1002
{
1000
BEHIND
1070
     0
1002
}
1002
{
1000
REACTOR
1002
}
1002
{
1000
OTHER
1070
     1
1002
}
1001
GENIUS_GENBH_13
1002
{
1000
FGO
1005
ECC
1002
}
  0
POINT
  5
ECE
100
AcDbEntity
  8
0
 60
     1
100
AcDbPoint
 10
246.855672
 20
204.578034
 30
0.0
1001
GENIUS_GENOBJ-F-SCPASSM_13
1002
{
1000
OWNER
1000
GEF
1002
}
1001
GENIUS_GENOENT_13
1002
{
1000
MYREF
1005
ECE
1002
}
1002
{
1000
GRP
1005
0
1002
}
1001
GENIUS_GENOLIS_13
1002
{
1000
ENT
1005
0
1005
0
1002
}
1001
GENIUS_GENODEF_13
1002
{
1000
HIER
1070
   200
1002
}
1002
{
1000
MANEDIT
1070
     1
1002
}
1002
{
1000
NOSEL
1070
     0
1002
}
1002
{
1000
BEHIND
1070
     0
1002
}
1002
{
1000
REACTOR
1002
}
  0
LINE
  5
ECF
100
AcDbEntity
  8
0
  6
HIDDEN
100
AcDbLine
 10
126.413654
 20
179.963113
 30
0.0
 11
126.413654
 21
179.963113
 31
0.0
1001
GENIUS_GENOREF_13
1005
ECC
1005
ECE
  0
LINE
  5
ED0
100
AcDbEntity
  8
0
  6
HIDDEN
100
AcDbLine
 10
121.013654
 20
169.963113
 30
0.0
 11
126.413654
 21
169.963113
 31
0.0
1001
GENIUS_GENOREF_13
1005
ECC
1005
ECE
  0
LINE
  5
ED1
100
AcDbEntity
  8
0
  6
HIDDEN
100
AcDbLine
 10
120.413654
 20
170.563113
 30
0.0
 11
120.413654
 21
175.963113
 31
0.0
1001
GENIUS_GENOREF_13
1005
ECC
1005
ECE
  0
ARC
  5
ED2
100
AcDbEntity
  8
0
100
AcDbCircle
 10
121.013654
 20
170.563113
 30
0.0
 40
0.6
100
AcDbArc
 50
180.0
 51
270.0
1001
GENIUS_GENOREF_13
1005
ECC
1005
ECE
  0
ARC
  5
ED3
100
AcDbEntity
  8
0
100
AcDbCircle
 10
121.013654
 20
179.363113
 30
0.0
 40
0.6
100
AcDbArc
 50
90.0
 51
180.0
1001
GENIUS_GENOREF_13
1005
ECC
1005
ECE
  0
LINE
  5
ED4
100
AcDbEntity
  8
0
  6
HIDDEN
100
AcDbLine
 10
160.210114
 20
172.576563
 30
0.0
 11
139.413654
 21
172.576563
 31
0.0
1001
GENIUS_GENOREF_13
1005
ECC
1005
ECE
  0
LINE
  5
ED5
100
AcDbEntity
  8
0
  6
HIDDEN
100
AcDbLine
 10
154.398743
 20
177.349663
 30
0.0
 11
139.413654
 21
177.349663
 31
0.0
1001
GENIUS_GENOREF_13
1005
ECC
1005
ECE
  0
LINE
  5
ED6
100
AcDbEntity
  8
0
100
AcDbLine
 10
150.800204
 20
171.963113
 30
0.0
 11
151.413654
 21
172.576563
 31
0.0
1001
GENIUS_GENOREF_13
1005
ECC
1005
ECE
  0
LINE
  5
ED7
100
AcDbEntity
  8
0
100
AcDbLine
 10
150.800204
 20
177.963113
 30
0.0
 11
151.413654
 21
177.349663
 31
0.0
1001
GENIUS_GENOREF_13
1005
ECC
1005
ECE
  0
LINE
  5
ED8
100
AcDbEntity
  8
0
  6
HIDDEN
100
AcDbLine
 10
126.413654
 20
171.963113
 30
0.0
 11
137.413654
 21
171.963113
 31
0.0
1001
GENIUS_GENOREF_13
1005
ECC
1005
ECE
  0
LINE
  5
ED9
100
AcDbEntity
  8
0
  6
HIDDEN
100
AcDbLine
 10
126.413654
 20
177.963113
 30
0.0
 11
137.413654
 21
177.963113
 31
0.0
1001
GENIUS_GENOREF_13
1005
ECC
1005
ECE
  0
LINE
  5
EDB
100
AcDbEntity
  8
0
100
AcDbLine
 10
128.913654
 20
177.963113
 30
0.0
 11
128.913654
 21
171.963113
 31
0.0
1001
GENIUS_GENOREF_13
1005
ECC
1005
ECE
  0
LINE
  5
EDC
100
AcDbEntity
  8
0
100
AcDbLine
 10
128.913654
 20
172.576563
 30
0.0
 11
128.300204
 21
171.963113
 31
0.0
1001
GENIUS_GENOREF_13
1005
ECC
1005
ECE
  0
LINE
  5
EDD
100
AcDbEntity
  8
0
100
AcDbLine
 10
128.913654
 20
177.349663
 30
0.0
 11
128.300204
 21
177.963113
 31
0.0
1001
GENIUS_GENOREF_13
1005
ECC
1005
ECE
  0
LINE
  5
EDE
100
AcDbEntity
  8
0
  6
HIDDEN
100
AcDbLine
 10
150.800204
 20
177.963113
 30
0.0
 11
150.800204
 21
171.963113
 31
0.0
1001
GENIUS_GENOREF_13
1005
ECC
1005
ECE
  0
LINE
  5
EDF
100
AcDbEntity
  8
0
  6
HIDDEN
100
AcDbLine
 10
151.413654
 20
177.349663
 30
0.0
 11
151.413654
 21
172.576563
 31
0.0
1001
GENIUS_GENOREF_13
1005
ECC
1005
ECE
  0
POINT
  5
EE0
100
AcDbEntity
  8
0
 60
     1
100
AcDbPoint
 10
246.855672
 20
204.578034
 30
0.0
1001
GENIUS_GENOBJ-NBEHI-BHF_13
1002
{
1000
OWNER
1000
GENBEHI
1002
}
1001
GENIUS_GENOENT_13
1002
{
1000
MYREF
1005
EE0
1002
}
1002
{
1000
GRP
1005
0
1002
}
1001
GENIUS_GENOLIS_13
1002
{
1000
ENT
1005
0
1002
}
1001
GENIUS_GENODEF_13
1002
{
1000
HIER
1070
     1
1002
}
1002
{
1000
MANEDIT
1070
     0
1002
}
1002
{
1000
NOSEL
1070
     1
1002
}
1002
{
1000
BEHIND
1070
     0
1002
}
1002
{
1000
REACTOR
1002
}
1001
GENIUS_GENBH_13
1002
{
1000
OIUMAP
1000
OIU
1002
}
1002
{
1000
FLAGS
1070
    32
1002
}
1002
{
1000
BGO
1005
EE1
1002
}
  0
POINT
  5
EE1
100
AcDbEntity
  8
0
 60
     1
100
AcDbPoint
 10
246.855672
 20
204.578034
 30
0.0
1001
GENIUS_GENOBJ-NBEHI-BHB_13
1002
{
1000
OWNER
1000
GENBEHI
1002
}
1001
GENIUS_GENOENT_13
1002
{
1000
MYREF
1005
EE1
1002
}
1002
{
1000
GRP
1005
0
1002
}
1001
GENIUS_GENOLIS_13
1002
{
1000
ENT
1002
}
1001
GENIUS_GENODEF_13
1002
{
1000
HIER
1070
     1
1002
}
1002
{
1000
MANEDIT
1070
     0
1002
}
1002
{
1000
NOSEL
1070
     1
1002
}
1002
{
1000
BEHIND
1070
     0
1002
}
1002
{
1000
REACTOR
1002
}
1002
{
1000
OTHER
1070
     1
1002
}
1001
GENIUS_GENBH_13
1002
{
1000
FGO
1005
EE0
1002
}
  0
POINT
  5
EE2
100
AcDbEntity
  8
0
 60
     1
100
AcDbPoint
 10
246.855672
 20
204.578034
 30
0.0
1001
GENIUS_GENOBJ-NBEHI-BHF_13
1002
{
1000
OWNER
1000
GENBEHI
1002
}
1001
GENIUS_GENOENT_13
1002
{
1000
MYREF
1005
EE2
1002
}
1002
{
1000
GRP
1005
0
1002
}
1001
GENIUS_GENOLIS_13
1002
{
1000
ENT
1005
0
1002
}
1001
GENIUS_GENBH_13
1002
{
1000
OIUMAP
1000
OIU
1002
}
1002
{
1000
FLAGS
1070
    32
1002
}
1002
{
1000
BGO
1005
EE3
1002
}
1001
GENIUS_GENODEF_13
1002
{
1000
HIER
1070
     1
1002
}
1002
{
1000
MANEDIT
1070
     1
1002
}
1002
{
1000
NOSEL
1070
     1
1002
}
1002
{
1000
BEHIND
1070
     0
1002
}
1002
{
1000
REACTOR
1002
}
  0
POINT
  5
EE3
100
AcDbEntity
  8
0
 60
     1
100
AcDbPoint
 10
246.855672
 20
204.578034
 30
0.0
1001
GENIUS_GENOBJ-NBEHI-BHB_13
1002
{
1000
OWNER
1000
GENBEHI
1002
}
1001
GENIUS_GENOENT_13
1002
{
1000
MYREF
1005
EE3
1002
}
1002
{
1000
GRP
1005
0
1002
}
1001
GENIUS_GENOLIS_13
1002
{
1000
ENT
1005
0
1002
}
1001
GENIUS_GENODEF_13
1002
{
1000
HIER
1070
     1
1002
}
1002
{
1000
MANEDIT
1070
     0
1002
}
1002
{
1000
NOSEL
1070
     1
1002
}
1002
{
1000
BEHIND
1070
     0
1002
}
1002
{
1000
REACTOR
1002
}
1002
{
1000
OTHER
1070
     1
1002
}
1001
GENIUS_GENBH_13
1002
{
1000
FGO
1005
EE2
1002
}
  0
POINT
  5
EE4
100
AcDbEntity
  8
0
 60
     1
100
AcDbPoint
 10
246.855672
 20
204.578034
 30
0.0
1001
GENIUS_GENOBJ-F-SCPASSM_13
1002
{
1000
OWNER
1000
GEF
1002
}
1001
GENIUS_GENOENT_13
1002
{
1000
MYREF
1005
EE4
1002
}
1002
{
1000
GRP
1005
0
1002
}
1001
GENIUS_GENOLIS_13
1002
{
1000
ENT
1005
0
1005
0
1002
}
1001
GENIUS_GENODEF_13
1002
{
1000
HIER
1070
   200
1002
}
1002
{
1000
MANEDIT
1070
     1
1002
}
1002
{
1000
NOSEL
1070
     0
1002
}
1002
{
1000
BEHIND
1070
     0
1002
}
1002
{
1000
REACTOR
1002
}
  0
CIRCLE
  5
EE5
100
AcDbEntity
  8
0
100
AcDbCircle
 10
63.303747
 20
174.963113
 30
0.0
 40
5.0
1001
GENIUS_GENOREF_13
1005
EE2
1005
EE4
  0
LINE
  5
EE6
100
AcDbEntity
  8
0
100
AcDbLine
 10
65.803747
 20
176.406489
 30
0.0
 11
63.303747
 21
177.849865
 31
0.0
1001
GENIUS_GENOREF_13
1005
EE2
1005
EE4
  0
LINE
  5
EE7
100
AcDbEntity
  8
0
100
AcDbLine
 10
63.303747
 20
172.076362
 30
0.0
 11
65.803747
 21
173.519738
 31
0.0
1001
GENIUS_GENOREF_13
1005
EE2
1005
EE4
  0
LINE
  5
EE8
100
AcDbEntity
  8
0
100
AcDbLine
 10
65.803747
 20
173.519738
 30
0.0
 11
65.803747
 21
176.406489
 31
0.0
1001
GENIUS_GENOREF_13
1005
EE2
1005
EE4
  0
LINE
  5
EE9
100
AcDbEntity
  8
0
100
AcDbLine
 10
60.803747
 20
176.406489
 30
0.0
 11
60.803747
 21
173.519738
 31
0.0
1001
GENIUS_GENOREF_13
1005
EE2
1005
EE4
  0
LINE
  5
EEA
100
AcDbEntity
  8
0
100
AcDbLine
 10
60.803747
 20
173.519738
 30
0.0
 11
63.303747
 21
172.076362
 31
0.0
1001
GENIUS_GENOREF_13
1005
EE2
1005
EE4
  0
LINE
  5
EEB
100
AcDbEntity
  8
0
100
AcDbLine
 10
63.303747
 20
177.849865
 30
0.0
 11
60.803747
 21
176.406489
 31
0.0
1001
GENIUS_GENOREF_13
1005
EE2
1005
EE4
  0
LINE
  5
EEC
100
AcDbEntity
  8
0
100
AcDbLine
 10
120.413654
 20
175.963113
 30
0.0
 11
120.413654
 21
179.363113
 31
0.0
  0
LINE
  5
EED
100
AcDbEntity
  8
0
100
AcDbLine
 10
121.013654
 20
179.963113
 30
0.0
 11
126.413654
 21
179.963113
 31
0.0
  0
LINE
  5
EEE
100
AcDbEntity
  8
0
100
AcDbLine
 10
121.013654
 20
123.963113
 30
0.0
 11
126.413654
 21
123.963113
 31
0.0
  0
LINE
  5
EEF
100
AcDbEntity
  8
0
  6
HIDDEN
100
AcDbLine
 10
121.013654
 20
133.963113
 30
0.0
 11
126.413654
 21
133.963113
 31
0.0
1001
GENIUS_GENOREF_13
1005
ECC
1005
ECE
  0
LINE
  5
EF0
100
AcDbEntity
  8
0
  6
HIDDEN
100
AcDbLine
 10
113.69524
 20
134.963113
 30
0.0
 11
126.413654
 21
134.963113
 31
0.0
  0
LINE
  5
EF1
100
AcDbEntity
  8
0
  6
HIDDEN
100
AcDbLine
 10
120.413654
 20
133.363113
 30
0.0
 11
120.413654
 21
127.963113
 31
0.0
1001
GENIUS_GENOREF_13
1005
ECC
1005
ECE
  0
ARC
  5
EF2
100
AcDbEntity
  8
0
100
AcDbCircle
 10
121.013654
 20
133.363113
 30
0.0
 40
0.6
100
AcDbArc
 50
90.0
 51
180.0
1001
GENIUS_GENOREF_13
1005
ECC
1005
ECE
  0
LINE
  5
EF3
100
AcDbEntity
  8
0
100
AcDbLine
 10
120.413654
 20
127.963113
 30
0.0
 11
120.413654
 21
124.563113
 31
0.0
  0
ARC
  5
EF4
100
AcDbEntity
  8
0
100
AcDbCircle
 10
121.013654
 20
124.563113
 30
0.0
 40
0.6
100
AcDbArc
 50
180.0
 51
270.0
1001
GENIUS_GENOREF_13
1005
ECC
1005
ECE
  0
LINE
  5
EF5
100
AcDbEntity
  8
0
  6
HIDDEN
 62
     3
100
AcDbLine
 10
150.800204
 20
131.963113
 30
0.0
 11
160.774334
 21
131.963113
 31
0.0
  0
LINE
  5
EF6
100
AcDbEntity
  8
0
  6
HIDDEN
100
AcDbLine
 10
160.210114
 20
131.349663
 30
0.0
 11
139.413654
 21
131.349663
 31
0.0
1001
GENIUS_GENOREF_13
1005
ECC
1005
ECE
  0
LINE
  5
EF7
100
AcDbEntity
  8
0
  6
HIDDEN
100
AcDbLine
 10
126.413654
 20
123.963113
 30
0.0
 11
126.413654
 21
134.963113
 31
0.0
  0
LINE
  5
EF8
100
AcDbEntity
  8
0
  6
HIDDEN
100
AcDbLine
 10
126.413654
 20
132.463113
 30
0.0
 11
137.413654
 21
132.463113
 31
0.0
  0
LINE
  5
EF9
100
AcDbEntity
  8
0
  6
HIDDEN
100
AcDbLine
 10
126.413654
 20
131.963113
 30
0.0
 11
137.413654
 21
131.963113
 31
0.0
1001
GENIUS_GENOREF_13
1005
ECC
1005
ECE
  0
LINE
  5
EFA
100
AcDbEntity
  8
0
  6
HIDDEN
100
AcDbLine
 10
154.398743
 20
126.576563
 30
0.0
 11
139.413654
 21
126.576563
 31
0.0
1001
GENIUS_GENOREF_13
1005
ECC
1005
ECE
  0
LINE
  5
EFB
100
AcDbEntity
  8
0
  6
HIDDEN
100
AcDbLine
 10
126.413654
 20
125.963113
 30
0.0
 11
137.413654
 21
125.963113
 31
0.0
1001
GENIUS_GENOREF_13
1005
ECC
1005
ECE
  0
LINE
  5
EFC
100
AcDbEntity
  8
0
  6
HIDDEN
100
AcDbLine
 10
126.413654
 20
125.463113
 30
0.0
 11
137.413654
 21
125.463113
 31
0.0
  0
LINE
  5
EFD
100
AcDbEntity
  8
0
100
AcDbLine
 10
128.913654
 20
126.576563
 30
0.0
 11
128.300204
 21
125.963113
 31
0.0
1001
GENIUS_GENOREF_13
1005
ECC
1005
ECE
  0
LINE
  5
EFE
100
AcDbEntity
  8
0
100
AcDbLine
 10
128.913654
 20
125.963113
 30
0.0
 11
128.913654
 21
131.963113
 31
0.0
1001
GENIUS_GENOREF_13
1005
ECC
1005
ECE
  0
LINE
  5
EFF
100
AcDbEntity
  8
0
100
AcDbLine
 10
128.913654
 20
131.349663
 30
0.0
 11
128.300204
 21
131.963113
 31
0.0
1001
GENIUS_GENOREF_13
1005
ECC
1005
ECE
  0
LINE
  5
F00
100
AcDbEntity
  8
0
  6
HIDDEN
100
AcDbLine
 10
126.413654
 20
123.963113
 30
0.0
 11
126.413654
 21
123.963113
 31
0.0
1001
GENIUS_GENOREF_13
1005
ECC
1005
ECE
  0
LINE
  5
F01
100
AcDbEntity
  8
0
100
AcDbLine
 10
150.800204
 20
125.963113
 30
0.0
 11
151.413654
 21
126.576563
 31
0.0
1001
GENIUS_GENOREF_13
1005
ECC
1005
ECE
  0
LINE
  5
F02
100
AcDbEntity
  8
0
  6
HIDDEN
100
AcDbLine
 10
150.800204
 20
125.963113
 30
0.0
 11
150.800204
 21
131.963113
 31
0.0
1001
GENIUS_GENOREF_13
1005
ECC
1005
ECE
  0
LINE
  5
F03
100
AcDbEntity
  8
0
100
AcDbLine
 10
150.800204
 20
131.963113
 30
0.0
 11
151.413654
 21
131.349663
 31
0.0
1001
GENIUS_GENOREF_13
1005
ECC
1005
ECE
  0
LINE
  5
F04
100
AcDbEntity
  8
0
  6
HIDDEN
100
AcDbLine
 10
151.413654
 20
126.576563
 30
0.0
 11
151.413654
 21
131.349663
 31
0.0
1001
GENIUS_GENOREF_13
1005
ECC
1005
ECE
  0
LINE
  5
F05
100
AcDbEntity
  8
0
  6
HIDDEN
 62
     3
100
AcDbLine
 10
150.800204
 20
125.963113
 30
0.0
 11
153.380283
 21
125.963113
 31
0.0
  0
LINE
  5
F06
100
AcDbEntity
  8
0
  6
HIDDEN
100
AcDbLine
 10
139.413654
 20
177.963113
 30
0.0
 11
150.800204
 21
177.963113
 31
0.0
1001
GENIUS_GENOREF_13
1005
ECC
1005
ECE
  0
LINE
  5
F07
100
AcDbEntity
  8
0
  6
HIDDEN
100
AcDbLine
 10
137.413654
 20
177.349663
 30
0.0
 11
128.913654
 21
177.349663
 31
0.0
1001
GENIUS_GENOREF_13
1005
ECC
1005
ECE
  0
LINE
  5
F08
100
AcDbEntity
  8
0
  6
HIDDEN
100
AcDbLine
 10
137.413654
 20
172.576563
 30
0.0
 11
128.913654
 21
172.576563
 31
0.0
1001
GENIUS_GENOREF_13
1005
ECC
1005
ECE
  0
LINE
  5
F09
100
AcDbEntity
  8
0
  6
HIDDEN
100
AcDbLine
 10
139.413654
 20
171.963113
 30
0.0
 11
150.800204
 21
171.963113
 31
0.0
1001
GENIUS_GENOREF_13
1005
ECC
1005
ECE
  0
LINE
  5
F0A
100
AcDbEntity
  8
0
100
AcDbLine
 10
137.413654
 20
177.963113
 30
0.0
 11
139.413654
 21
177.963113
 31
0.0
  0
LINE
  5
F0C
100
AcDbEntity
  8
0
100
AcDbLine
 10
137.413654
 20
177.349663
 30
0.0
 11
139.413654
 21
177.349663
 31
0.0
  0
LINE
  5
F0D
100
AcDbEntity
  8
0
100
AcDbLine
 10
137.413654
 20
172.576563
 30
0.0
 11
139.413654
 21
172.576563
 31
0.0
  0
LINE
  5
F0E
100
AcDbEntity
  8
0
100
AcDbLine
 10
137.413654
 20
171.963113
 30
0.0
 11
139.413654
 21
171.963113
 31
0.0
  0
LINE
  5
F0F
100
AcDbEntity
  8
0
  6
HIDDEN
100
AcDbLine
 10
137.413654
 20
131.349663
 30
0.0
 11
128.913654
 21
131.349663
 31
0.0
1001
GENIUS_GENOREF_13
1005
ECC
1005
ECE
  0
LINE
  5
F10
100
AcDbEntity
  8
0
  6
HIDDEN
100
AcDbLine
 10
139.413654
 20
131.963113
 30
0.0
 11
150.800204
 21
131.963113
 31
0.0
1001
GENIUS_GENOREF_13
1005
ECC
1005
ECE
  0
LINE
  5
F11
100
AcDbEntity
  8
0
  6
HIDDEN
100
AcDbLine
 10
137.413654
 20
126.576563
 30
0.0
 11
128.913654
 21
126.576563
 31
0.0
1001
GENIUS_GENOREF_13
1005
ECC
1005
ECE
  0
LINE
  5
F12
100
AcDbEntity
  8
0
  6
HIDDEN
100
AcDbLine
 10
139.413654
 20
125.963113
 30
0.0
 11
150.800204
 21
125.963113
 31
0.0
1001
GENIUS_GENOREF_13
1005
ECC
1005
ECE
  0
LINE
  5
F13
100
AcDbEntity
  8
0
100
AcDbLine
 10
137.413654
 20
131.963113
 30
0.0
 11
139.413654
 21
131.963113
 31
0.0
  0
LINE
  5
F14
100
AcDbEntity
  8
0
100
AcDbLine
 10
137.413654
 20
131.349663
 30
0.0
 11
139.413654
 21
131.349663
 31
0.0
  0
LINE
  5
F15
100
AcDbEntity
  8
0
100
AcDbLine
 10
137.413654
 20
126.576563
 30
0.0
 11
139.413654
 21
126.576563
 31
0.0
  0
LINE
  5
F16
100
AcDbEntity
  8
0
100
AcDbLine
 10
137.413654
 20
125.963113
 30
0.0
 11
139.413654
 21
125.963113
 31
0.0
  0
LINE
  5
F17
100
AcDbEntity
  8
0
100
AcDbLine
 10
61.114936
 20
179.458567
 30
0.0
 11
57.303747
 21
179.458567
 31
0.0
  0
CIRCLE
  5
F18
100
AcDbEntity
  8
0
100
AcDbCircle
 10
63.303747
 20
128.963113
 30
0.0
 40
5.0
1001
GENIUS_GENOREF_13
1005
EE2
1005
EE4
  0
LINE
  5
F19
100
AcDbEntity
  8
0
100
AcDbLine
 10
69.803747
 20
134.463113
 30
0.0
 11
70.803747
 21
133.463113
 31
0.0
  0
LINE
  5
F1A
100
AcDbEntity
  8
0
100
AcDbLine
 10
69.303747
 20
124.467659
 30
0.0
 11
65.492557
 21
124.467659
 31
0.0
  0
LINE
  5
F1B
100
AcDbEntity
  8
0
100
AcDbLine
 10
63.303747
 20
126.076362
 30
0.0
 11
60.803747
 21
127.519738
 31
0.0
1001
GENIUS_GENOREF_13
1005
EE2
1005
EE4
  0
LINE
  5
F1C
100
AcDbEntity
  8
0
100
AcDbLine
 10
65.803747
 20
127.519738
 30
0.0
 11
63.303747
 21
126.076362
 31
0.0
1001
GENIUS_GENOREF_13
1005
EE2
1005
EE4
  0
LINE
  5
F1D
100
AcDbEntity
  8
0
100
AcDbLine
 10
63.303747
 20
131.849865
 30
0.0
 11
65.803747
 21
130.406489
 31
0.0
1001
GENIUS_GENOREF_13
1005
EE2
1005
EE4
  0
LINE
  5
F1E
100
AcDbEntity
  8
0
100
AcDbLine
 10
60.803747
 20
130.406489
 30
0.0
 11
63.303747
 21
131.849865
 31
0.0
1001
GENIUS_GENOREF_13
1005
EE2
1005
EE4
  0
LINE
  5
F1F
100
AcDbEntity
  8
0
100
AcDbLine
 10
60.803747
 20
127.519738
 30
0.0
 11
60.803747
 21
130.406489
 31
0.0
1001
GENIUS_GENOREF_13
1005
EE2
1005
EE4
  0
LINE
  5
F20
100
AcDbEntity
  8
0
100
AcDbLine
 10
65.803747
 20
130.406489
 30
0.0
 11
65.803747
 21
127.519738
 31
0.0
1001
GENIUS_GENOREF_13
1005
EE2
1005
EE4
  0
LINE
  5
F21
100
AcDbEntity
  8
0
100
AcDbLine
 10
69.303747
 20
128.963113
 30
0.0
 11
69.303747
 21
124.467659
 31
0.0
  0
LINE
  5
F22
100
AcDbEntity
  8
0
100
AcDbLine
 10
70.803747
 20
122.963113
 30
0.0
 11
69.803747
 21
121.963113
 31
0.0
  0
LINE
  5
F23
100
AcDbEntity
  8
0
100
AcDbLine
 10
61.114936
 20
124.467659
 30
0.0
 11
57.303747
 21
124.467659
 31
0.0
  0
ARC
  5
F24
100
AcDbEntity
  8
0
100
AcDbCircle
 10
63.303747
 20
128.963113
 30
0.0
 40
6.0
100
AcDbArc
 50
360.0
 51
180.0
  0
LINE
  5
F25
100
AcDbEntity
  8
0
100
AcDbLine
 10
57.303747
 20
128.963113
 30
0.0
 11
57.303747
 21
124.467659
 31
0.0
  0
LINE
  5
F29
100
AcDbEntity
  8
0
100
AcDbLine
 10
-16.997371
 20
170.463113
 30
0.0
 11
-16.997371
 21
180.963113
 31
0.0
  0
LINE
  5
F2D
100
AcDbEntity
  8
0
100
AcDbLine
 10
-31.997371
 20
133.463113
 30
0.0
 11
-31.997371
 21
122.963113
 31
0.0
  0
CIRCLE
  5
F30
100
AcDbEntity
  8
0
  6
HIDDEN
100
AcDbCircle
 10
-24.497371
 20
128.963113
 30
0.0
 40
5.0
1001
GENIUS_GENOREF_13
1005
EE2
1005
EE4
  0
CIRCLE
  5
F31
100
AcDbEntity
  8
0
  6
HIDDEN
100
AcDbCircle
 10
-24.497371
 20
174.963113
 30
0.0
 40
5.0
1001
GENIUS_GENOREF_13
1005
EE2
1005
EE4
  0
ENDSEC
  0
SECTION
  2
OBJECTS
  0
DICTIONARY
  5
C
100
AcDbDictionary
  3
ACAD_GROUP
350
D
  3
ACAD_LAYOUT
350
C61
  3
ACAD_MLINESTYLE
350
1B
  3
ACAD_PLOTSETTINGS
350
C62
  3
ADE_QUERY_LIBRARY
350
F55
  3
CONTENTDICTIONARY
350
23
1001
ADE
1000
ADE02C004
1000
[Query]
1000
CaseSensitiveMatch=0
1000
SaveCurrQueryInSession=1
1000
MkSelSetWithQryObj=0
1000
ShowBlockAsInsPt=0
1000
CreateAssociativeHatchObjects=0
1000
ReferenceBoundaryForAreaLocation=1
1000
ShowImageAsBoundary=1
1000
DefaultJoinOperator=2
1000
ColorForAdd=red
1000
ColorForRemove=red
1000
BlockLocnForQuery=1
1000
TextLocnForQuery=1
1000
[Save Back]
1000
RedefineBlockDefinitions=1
1000
RedefineLayerDefinitions=1
1000
RedefineTextStyleDefinitions=1
1000
RemoveUnusedGroups=1
1000
EraseSavedBackObjects=1
1000
RemoveLockAfterSave=1
1000
CreateHistoryFileOfChanges=0
1000
CreateBackupFileOfSourceDwg=1
1000
DontAddObjectsToSaveSet=0
1000
MarkObjectsForEditingWithoutPrompting=0
1000
[Coordinate Transformation]
1000
RestoreLastActiveDwgsOnStartup=1
1000
ActivateDwgsOnAttach=1
1000
AdjustSizesAndScalesForChangesInUnits=1
1000
AdjustRotationsForMapDistortions=1
1000
AdjustSizesAndScalesForMapDistortions=1
1000
AdjustElevations=1
1000
AdjustZeroRotationObjects=1
1000
ReconnectDbOnWSOpen=1
1000
NoOfSQLConditionsInHistory=10
1001
ACAD
1000
TREAT_AS_HARD
1070
     0
  0
DICTIONARY
  5
F59
100
AcDbDictionary
  3
ACAD_LAYOUTSELFREF
350
F5A
  0
DICTIONARY
  5
F57
100
AcDbDictionary
  3
ACAD_LAYOUTSELFREF
350
F58
  0
DICTIONARY
  5
D
102
{ACAD_REACTORS
330
C
102
}
100
AcDbDictionary
1001
ACAD
1000
TREAT_AS_HARD
1070
     0
  0
DICTIONARY
  5
C61
102
{ACAD_REACTORS
330
C
102
}
100
AcDbDictionary
1001
ACAD
1000
TREAT_AS_HARD
1070
     0
  0
DICTIONARY
  5
1B
102
{ACAD_REACTORS
330
C
102
}
100
AcDbDictionary
  3
STANDARD
350
1C
1001
ACAD
1000
TREAT_AS_HARD
1070
     0
  0
DICTIONARY
  5
C62
102
{ACAD_REACTORS
330
C
102
}
100
AcDbDictionary
1001
ACAD
1000
TREAT_AS_HARD
1070
     0
  0
DICTIONARY
  5
F55
102
{ACAD_REACTORS
330
C
102
}
100
AcDbDictionary
  3
_CURRQRY
350
F56
1001
ACAD
1000
TREAT_AS_HARD
1070
     0
  0
DICTIONARY
  5
23
102
{ACAD_REACTORS
330
C
102
}
100
AcDbDictionary
1001
ACAD
1000
TREAT_AS_HARD
1070
     0
  0
XRECORD
  5
F5A
102
{ACAD_REACTORS
330
F59
102
}
100
AcDbXrecord
340
18
  0
XRECORD
  5
F58
102
{ACAD_REACTORS
330
F57
102
}
100
AcDbXrecord
340
15
  0
MLINESTYLE
  5
1C
102
{ACAD_REACTORS
330
1B
102
}
100
AcDbMlineStyle
  2
STANDARD
 70
     0
  3

 62
   256
 51
90.0
 52
90.0
 71
     2
 49
0.5
 62
   256
  6
BYLAYER
 49
-0.5
 62
   256
  6
BYLAYER
  0
XRECORD
  5
F56
102
{ACAD_REACTORS
330
F55
102
}
100
AcDbXrecord
1000
ADE02C001
1070
     1
1070
     0
1002
{
1002
}
1002
{
1002
}
1002
{
1002
}
1000

  0
ENDSEC
  0
EOF
