  0
SECTION
  2
HEADER
  9
$ACADVER
  1
AC1014
  9
$ACADMAINTVER
 70
     0
  9
$DWGCODEPAGE
  3
ANSI_932
  9
$INSBASE
 10
0.0
 20
0.0
 30
0.0
  9
$EXTMIN
 10
-10.380247
 20
109.135924
 30
0.0
  9
$EXTMAX
 10
177.784667
 20
180.22547
 30
0.0
  9
$LIMMIN
 10
0.0
 20
0.0
  9
$LIMMAX
 10
420.0
 20
297.0
  9
$ORTHOMODE
 70
     0
  9
$REGENMODE
 70
     1
  9
$FILLMODE
 70
     1
  9
$QTEXTMODE
 70
     0
  9
$MIRRTEXT
 70
     1
  9
$DRAGMODE
 70
     2
  9
$LTSCALE
 40
0.3
  9
$OSMODE
 70
    37
  9
$ATTMODE
 70
     1
  9
$TEXTSIZE
 40
10.0
  9
$TRACEWID
 40
1.0
  9
$TEXTSTYLE
  7
BIGFONT
  9
$CLAYER
  8
図枠部品表
  9
$CELTYPE
  6
BYLAYER
  9
$CECOLOR
 62
   256
  9
$CELTSCALE
 40
1.0
  9
$DELOBJ
 70
     1
  9
$DISPSILH
 70
     0
  9
$DIMSCALE
 40
1.0
  9
$DIMASZ
 40
2.5
  9
$DIMEXO
 40
0.625
  9
$DIMDLI
 40
3.75
  9
$DIMRND
 40
0.0
  9
$DIMDLE
 40
0.0
  9
$DIMEXE
 40
1.25
  9
$DIMTP
 40
0.0
  9
$DIMTM
 40
0.0
  9
$DIMTXT
 40
2.5
  9
$DIMCEN
 40
0.5
  9
$DIMTSZ
 40
0.0
  9
$DIMTOL
 70
     0
  9
$DIMLIM
 70
     0
  9
$DIMTIH
 70
     0
  9
$DIMTOH
 70
     0
  9
$DIMSE1
 70
     0
  9
$DIMSE2
 70
     0
  9
$DIMTAD
 70
     3
  9
$DIMZIN
 70
     8
  9
$DIMBLK
  1

  9
$DIMASO
 70
     1
  9
$DIMSHO
 70
     1
  9
$DIMPOST
  1

  9
$DIMAPOST
  1

  9
$DIMALT
 70
     0
  9
$DIMALTD
 70
     4
  9
$DIMALTF
 40
0.0394
  9
$DIMLFAC
 40
1.0
  9
$DIMTOFL
 70
     1
  9
$DIMTVP
 40
0.0
  9
$DIMTIX
 70
     0
  9
$DIMSOXD
 70
     0
  9
$DIMSAH
 70
     0
  9
$DIMBLK1
  1

  9
$DIMBLK2
  1

  9
$DIMSTYLE
  2
STANDARD_WS
  9
$DIMCLRD
 70
     0
  9
$DIMCLRE
 70
     0
  9
$DIMCLRT
 70
   256
  9
$DIMTFAC
 40
1.0
  9
$DIMGAP
 40
1.2
  9
$DIMJUST
 70
     0
  9
$DIMSD1
 70
     0
  9
$DIMSD2
 70
     0
  9
$DIMTOLJ
 70
     1
  9
$DIMTZIN
 70
     0
  9
$DIMALTZ
 70
     0
  9
$DIMALTTZ
 70
     0
  9
$DIMFIT
 70
     3
  9
$DIMUPT
 70
     0
  9
$DIMUNIT
 70
     2
  9
$DIMDEC
 70
     4
  9
$DIMTDEC
 70
     4
  9
$DIMALTU
 70
     8
  9
$DIMALTTD
 70
     4
  9
$DIMTXSTY
  7
BIGFONT
  9
$DIMAUNIT
 70
     0
  9
$LUNITS
 70
     2
  9
$LUPREC
 70
     4
  9
$SKETCHINC
 40
1.0
  9
$FILLETRAD
 40
0.0
  9
$AUNITS
 70
     0
  9
$AUPREC
 70
     0
  9
$MENU
  1
acad
  9
$ELEVATION
 40
0.0
  9
$PELEVATION
 40
0.0
  9
$THICKNESS
 40
0.0
  9
$LIMCHECK
 70
     0
  9
$BLIPMODE
 70
     0
  9
$CHAMFERA
 40
1.0
  9
$CHAMFERB
 40
1.0
  9
$CHAMFERC
 40
20.0
  9
$CHAMFERD
 40
0.0
  9
$SKPOLY
 70
     0
  9
$TDCREATE
 40
2451225.415346065
  9
$TDUPDATE
 40
2453594.475245034
  9
$TDINDWG
 40
0.1747562731
  9
$TDUSRTIMER
 40
0.1747562731
  9
$USRTIMER
 70
     1
  9
$ANGBASE
 50
0.0
  9
$ANGDIR
 70
     0
  9
$PDMODE
 70
     0
  9
$PDSIZE
 40
0.0
  9
$PLINEWID
 40
0.0
  9
$COORDS
 70
     1
  9
$SPLFRAME
 70
     0
  9
$SPLINETYPE
 70
     6
  9
$SPLINESEGS
 70
     8
  9
$ATTDIA
 70
     0
  9
$ATTREQ
 70
     1
  9
$HANDLING
 70
     1
  9
$HANDSEED
  5
EC3
  9
$SURFTAB1
 70
     6
  9
$SURFTAB2
 70
     6
  9
$SURFTYPE
 70
     6
  9
$SURFU
 70
     6
  9
$SURFV
 70
     6
  9
$UCSNAME
  2

  9
$UCSORG
 10
0.0
 20
0.0
 30
0.0
  9
$UCSXDIR
 10
1.0
 20
0.0
 30
0.0
  9
$UCSYDIR
 10
0.0
 20
1.0
 30
0.0
  9
$PUCSNAME
  2

  9
$PUCSORG
 10
0.0
 20
0.0
 30
0.0
  9
$PUCSXDIR
 10
1.0
 20
0.0
 30
0.0
  9
$PUCSYDIR
 10
0.0
 20
1.0
 30
0.0
  9
$USERI1
 70
     0
  9
$USERI2
 70
     0
  9
$USERI3
 70
     0
  9
$USERI4
 70
     0
  9
$USERI5
 70
     0
  9
$USERR1
 40
0.0
  9
$USERR2
 40
0.0
  9
$USERR3
 40
0.0
  9
$USERR4
 40
0.0
  9
$USERR5
 40
0.0
  9
$WORLDVIEW
 70
     1
  9
$SHADEDGE
 70
     3
  9
$SHADEDIF
 70
    70
  9
$TILEMODE
 70
     1
  9
$MAXACTVP
 70
    48
  9
$PINSBASE
 10
0.0
 20
0.0
 30
0.0
  9
$PLIMCHECK
 70
     0
  9
$PEXTMIN
 10
1.000000E+20
 20
1.000000E+20
 30
1.000000E+20
  9
$PEXTMAX
 10
-1.000000E+20
 20
-1.000000E+20
 30
-1.000000E+20
  9
$PLIMMIN
 10
0.0
 20
0.0
  9
$PLIMMAX
 10
420.0
 20
297.0
  9
$UNITMODE
 70
     0
  9
$VISRETAIN
 70
     1
  9
$PLINEGEN
 70
     0
  9
$PSLTSCALE
 70
     0
  9
$TREEDEPTH
 70
  3020
  9
$PICKSTYLE
 70
     1
  9
$CMLSTYLE
  2
STANDARD
  9
$CMLJUST
 70
     0
  9
$CMLSCALE
 40
20.0
  9
$PROXYGRAPHICS
 70
     1
  9
$MEASUREMENT
 70
     0
  0
ENDSEC
  0
SECTION
  2
CLASSES
  0
CLASS
  1
DICTIONARYVAR
  2
AcDbDictionaryVar
  3
"AutoCAD"
 90
        0
280
     0
281
     0
  0
CLASS
  1
HATCH
  2
AcDbHatch
  3
"ACAD_SEDONA"
 90
        0
280
     0
281
     1
  0
CLASS
  1
LWPOLYLINE
  2
AcDbPolyline
  3
"AutoCAD"
 90
        0
280
     0
281
     1
  0
CLASS
  1
ACDBDICTIONARYWDFLT
  2
AcDbDictionaryWithDefault
  3
AutoCAD 2000
 90
        0
280
     0
281
     0
  0
CLASS
  1
ACDBPLACEHOLDER
  2
AcDbPlaceHolder
  3
AutoCAD 2000
 90
        0
280
     0
281
     0
  0
CLASS
  1
LAYOUT
  2
AcDbLayout
  3
AutoCAD 2000
 90
        0
280
     0
281
     0
  0
CLASS
  1
LONG_TRANSACTION
  2
AcDbLongTransaction
  3
AutoCAD 2000
 90
        0
280
     0
281
     0
  0
CLASS
  1
LWPOLYLINE
  2
AcDbPolyline
  3
"AutoCAD"
 90
        0
280
     0
281
     1
  0
CLASS
  1
HATCH
  2
AcDbHatch
  3
"ACAD_SEDONA"
 90
        0
280
     0
281
     1
  0
CLASS
  1
XRECORD
  2
AcDbXrecord
  3
"<Built In>"
 90
        0
280
     0
281
     0
  0
ENDSEC
  0
SECTION
  2
TABLES
  0
TABLE
  2
VPORT
  5
8
100
AcDbSymbolTable
 70
     2
  0
VPORT
  5
EC2
100
AcDbSymbolTableRecord
100
AcDbViewportTableRecord
  2
*ACTIVE
 70
     0
 10
0.0
 20
0.0
 11
1.0
 21
1.0
 12
204.809877
 22
148.5
 13
0.0
 23
0.0
 14
10.0
 24
10.0
 15
10.0
 25
10.0
 16
0.0
 26
0.0
 36
1.0
 17
0.0
 27
0.0
 37
0.0
 40
301.480312
 41
1.434944
 42
50.0
 43
0.0
 44
0.0
 50
0.0
 51
0.0
 71
     0
 72
   100
 73
     1
 74
     0
 75
     0
 76
     0
 77
     0
 78
     0
  0
ENDTAB
  0
TABLE
  2
LTYPE
  5
5
100
AcDbSymbolTable
 70
     3
  0
LTYPE
  5
12
100
AcDbSymbolTableRecord
100
AcDbLinetypeTableRecord
  2
BYBLOCK
 70
     0
  3

 72
    65
 73
     0
 40
0.0
  0
LTYPE
  5
13
100
AcDbSymbolTableRecord
100
AcDbLinetypeTableRecord
  2
BYLAYER
 70
     0
  3

 72
    65
 73
     0
 40
0.0
  0
LTYPE
  5
14
100
AcDbSymbolTableRecord
100
AcDbLinetypeTableRecord
  2
CONTINUOUS
 70
     0
  3
Solid line
 72
    65
 73
     0
 40
0.0
  0
LTYPE
  5
11A
100
AcDbSymbolTableRecord
100
AcDbLinetypeTableRecord
  2
CENTER
 70
     0
  3
Center ____ _ ____ _ ____ _ ____ _ ____ _ ____
 72
    65
 73
     4
 40
50.8
 49
31.75
 74
     0
 49
-6.35
 74
     0
 49
6.35
 74
     0
 49
-6.35
 74
     0
  0
LTYPE
  5
11B
100
AcDbSymbolTableRecord
100
AcDbLinetypeTableRecord
  2
HIDDEN
 70
     0
  3
Hidden __ __ __ __ __ __ __ __ __ __ __ __ __ _
 72
    65
 73
     2
 40
9.525
 49
6.35
 74
     0
 49
-3.175
 74
     0
  0
ENDTAB
  0
TABLE
  2
LAYER
  5
2
100
AcDbSymbolTable
 70
     6
  0
LAYER
  5
E
100
AcDbSymbolTableRecord
100
AcDbLayerTableRecord
  2
0
 70
     0
 62
     7
  6
CONTINUOUS
  0
LAYER
  5
37
100
AcDbSymbolTableRecord
100
AcDbLayerTableRecord
  2
図枠
 70
     0
 62
     7
  6
CONTINUOUS
  0
LAYER
  5
38
100
AcDbSymbolTableRecord
100
AcDbLayerTableRecord
  2
図枠部品表
 70
     0
 62
     7
  6
CONTINUOUS
  0
LAYER
  5
215
100
AcDbSymbolTableRecord
100
AcDbLayerTableRecord
  2
CENTER
 70
     0
 62
     2
  6
CENTER
  0
LAYER
  5
216
100
AcDbSymbolTableRecord
100
AcDbLayerTableRecord
  2
DIM
 70
     0
 62
     4
  6
CONTINUOUS
  0
LAYER
  5
21F
100
AcDbSymbolTableRecord
100
AcDbLayerTableRecord
  2
DEFPOINTS
 70
     0
 62
     7
  6
CONTINUOUS
  0
ENDTAB
  0
TABLE
  2
STYLE
  5
3
100
AcDbSymbolTable
 70
     3
  0
STYLE
  5
F
100
AcDbSymbolTableRecord
100
AcDbTextStyleTableRecord
  2
STANDARD
 70
     0
 40
0.0
 41
1.0
 50
0.0
 71
     0
 42
2.5
  3
txt
  4

  0
STYLE
  5
39
100
AcDbSymbolTableRecord
100
AcDbTextStyleTableRecord
  2
BIGFONT
 70
     0
 40
0.0
 41
1.0
 50
0.0
 71
     0
 42
10.0
  3
txt.shx
  4
bigfont.shx
  0
STYLE
  5
3B
100
AcDbSymbolTableRecord
100
AcDbTextStyleTableRecord
  2
KANJI
 70
     0
 40
0.0
 41
1.0
 50
0.0
 71
     0
 42
3.0
  3
TXT
  4
BIGFONT
  0
ENDTAB
  0
TABLE
  2
VIEW
  5
6
100
AcDbSymbolTable
 70
     0
  0
ENDTAB
  0
TABLE
  2
UCS
  5
7
100
AcDbSymbolTable
 70
     0
  0
ENDTAB
  0
TABLE
  2
APPID
  5
9
100
AcDbSymbolTable
 70
    34
  0
APPID
  5
10
100
AcDbSymbolTableRecord
100
AcDbRegAppTableRecord
  2
ACAD
 70
     0
  0
APPID
  5
24
100
AcDbSymbolTableRecord
100
AcDbRegAppTableRecord
  2
CONTENTTABDATA
 70
     0
  0
APPID
  5
25
100
AcDbSymbolTableRecord
100
AcDbRegAppTableRecord
  2
CONTENTCURRENTTAB
 70
     0
  0
APPID
  5
422
100
AcDbSymbolTableRecord
100
AcDbRegAppTableRecord
  2
CONTENTBLOCKDESCRIPTION
 70
     0
  0
APPID
  5
DA0
100
AcDbSymbolTableRecord
100
AcDbRegAppTableRecord
  2
MCAD_NO_VIS
 70
     0
  0
APPID
  5
DA1
100
AcDbSymbolTableRecord
100
AcDbRegAppTableRecord
  2
ACAD_TEMP_GRAPHIC
 70
     0
  0
APPID
  5
DA2
100
AcDbSymbolTableRecord
100
AcDbRegAppTableRecord
  2
GEVID966397200
 70
     0
  0
APPID
  5
DA3
100
AcDbSymbolTableRecord
100
AcDbRegAppTableRecord
  2
GEVDC
 70
     0
  0
APPID
  5
DA4
100
AcDbSymbolTableRecord
100
AcDbRegAppTableRecord
  2
GEVCON
 70
     0
  0
APPID
  5
DA5
100
AcDbSymbolTableRecord
100
AcDbRegAppTableRecord
  2
GEVID966397201
 70
     0
  0
APPID
  5
DA6
100
AcDbSymbolTableRecord
100
AcDbRegAppTableRecord
  2
GEVID966397202
 70
     0
  0
APPID
  5
DA7
100
AcDbSymbolTableRecord
100
AcDbRegAppTableRecord
  2
GEVID966397203
 70
     0
  0
APPID
  5
DA8
100
AcDbSymbolTableRecord
100
AcDbRegAppTableRecord
  2
GEVID966397204
 70
     0
  0
APPID
  5
DA9
100
AcDbSymbolTableRecord
100
AcDbRegAppTableRecord
  2
GEVID966397205
 70
     0
  0
APPID
  5
DAA
100
AcDbSymbolTableRecord
100
AcDbRegAppTableRecord
  2
GEVID966397206
 70
     0
  0
APPID
  5
DAB
100
AcDbSymbolTableRecord
100
AcDbRegAppTableRecord
  2
GENIUS_GENBH_13
 70
     0
  0
APPID
  5
DAC
100
AcDbSymbolTableRecord
100
AcDbRegAppTableRecord
  2
GENIUS_GENODEF_13
 70
     0
  0
APPID
  5
DAD
100
AcDbSymbolTableRecord
100
AcDbRegAppTableRecord
  2
GENIUS_GENOBJ-NBEHI-BHF_13
 70
     0
  0
APPID
  5
DAE
100
AcDbSymbolTableRecord
100
AcDbRegAppTableRecord
  2
GENIUS_GENOENT_13
 70
     0
  0
APPID
  5
DAF
100
AcDbSymbolTableRecord
100
AcDbRegAppTableRecord
  2
GENIUS_GENOREF_13
 70
     0
  0
APPID
  5
DB0
100
AcDbSymbolTableRecord
100
AcDbRegAppTableRecord
  2
GENIUS_GENOLIS_13
 70
     0
  0
APPID
  5
DB1
100
AcDbSymbolTableRecord
100
AcDbRegAppTableRecord
  2
GENIUS_GENOBJ-NBEHI-BHB_13
 70
     0
  0
APPID
  5
DB2
100
AcDbSymbolTableRecord
100
AcDbRegAppTableRecord
  2
GEVID966397207
 70
     0
  0
APPID
  5
DB3
100
AcDbSymbolTableRecord
100
AcDbRegAppTableRecord
  2
GENIUS_GENOBJ-F-SCPASSM_13
 70
     0
  0
APPID
  5
DB4
100
AcDbSymbolTableRecord
100
AcDbRegAppTableRecord
  2
GENIUS_GENDTOL_13
 70
     0
  0
APPID
  5
DB5
100
AcDbSymbolTableRecord
100
AcDbRegAppTableRecord
  2
GEVID966521051
 70
     0
  0
APPID
  5
DB6
100
AcDbSymbolTableRecord
100
AcDbRegAppTableRecord
  2
GEVID966521052
 70
     0
  0
APPID
  5
DB7
100
AcDbSymbolTableRecord
100
AcDbRegAppTableRecord
  2
GEVID966521054
 70
     0
  0
APPID
  5
DB8
100
AcDbSymbolTableRecord
100
AcDbRegAppTableRecord
  2
GEVID966521055
 70
     0
  0
APPID
  5
DB9
100
AcDbSymbolTableRecord
100
AcDbRegAppTableRecord
  2
GEVID966521056
 70
     0
  0
APPID
  5
DBA
100
AcDbSymbolTableRecord
100
AcDbRegAppTableRecord
  2
GEVID966521057
 70
     0
  0
APPID
  5
DBB
100
AcDbSymbolTableRecord
100
AcDbRegAppTableRecord
  2
GEVID966521058
 70
     0
  0
APPID
  5
DBC
100
AcDbSymbolTableRecord
100
AcDbRegAppTableRecord
  2
GEVID966521059
 70
     0
  0
APPID
  5
E9D
100
AcDbSymbolTableRecord
100
AcDbRegAppTableRecord
  2
ADE
 70
     0
  0
ENDTAB
  0
TABLE
  2
DIMSTYLE
  5
A
100
AcDbSymbolTable
 70
     1
  0
DIMSTYLE
105
35
100
AcDbSymbolTableRecord
100
AcDbDimStyleTableRecord
  2
STANDARD_WS
 70
     0
  3

  4

  5

  6

  7

 40
1.0
 41
2.5
 42
0.625
 43
3.75
 44
1.25
 45
0.0
 46
0.0
 47
0.0
 48
0.0
140
2.5
141
2.5
142
0.0
143
0.0394
144
1.0
145
0.0
146
1.0
147
0.625
 71
     0
 72
     0
 73
     0
 74
     0
 75
     0
 76
     0
 77
     1
 78
     8
170
     0
171
     4
172
     1
173
     0
174
     0
175
     0
176
     0
177
     0
178
     0
270
     2
271
     4
272
     4
273
     8
274
     4
340
F
275
     0
280
     0
281
     0
282
     0
283
     1
284
     0
285
     0
286
     0
287
     3
288
     0
  0
ENDTAB
  0
TABLE
  2
BLOCK_RECORD
  5
1
100
AcDbSymbolTable
 70
    12
  0
BLOCK_RECORD
  5
18
102
{ACAD_XDICTIONARY
360
EA2
102
}
100
AcDbSymbolTableRecord
100
AcDbBlockTableRecord
  2
*MODEL_SPACE
  0
BLOCK_RECORD
  5
15
102
{ACAD_XDICTIONARY
360
EA0
102
}
100
AcDbSymbolTableRecord
100
AcDbBlockTableRecord
  2
*PAPER_SPACE
  0
BLOCK_RECORD
  5
D83
100
AcDbSymbolTableRecord
100
AcDbBlockTableRecord
  2
_OPEN30
  0
ENDTAB
  0
ENDSEC
  0
SECTION
  2
BLOCKS
  0
BLOCK
  5
19
100
AcDbEntity
  8
0
100
AcDbBlockBegin
  2
*MODEL_SPACE
 70
     2
 10
0.0
 20
0.0
 30
0.0
  3
*MODEL_SPACE
  1

  0
ENDBLK
  5
1A
100
AcDbEntity
  8
0
100
AcDbBlockEnd
  0
BLOCK
  5
16
100
AcDbEntity
 67
     1
  8
0
100
AcDbBlockBegin
  2
*PAPER_SPACE
 70
     0
 10
0.0
 20
0.0
 30
0.0
  3
*PAPER_SPACE
  1

  0
ENDBLK
  5
17
100
AcDbEntity
 67
     1
  8
0
100
AcDbBlockEnd
  0
BLOCK
  5
D87
100
AcDbEntity
  8
0
100
AcDbBlockBegin
  2
_OPEN30
 70
     0
 10
0.0
 20
0.0
 30
0.0
  3
_OPEN30
  1

  0
LINE
  5
D84
100
AcDbEntity
  8
0
 62
     0
100
AcDbLine
 10
-1.0
 20
0.267949
 30
0.0
 11
0.0
 21
0.0
 31
0.0
  0
LINE
  5
D85
100
AcDbEntity
  8
0
 62
     0
100
AcDbLine
 10
0.0
 20
0.0
 30
0.0
 11
-1.0
 21
-0.267949
 31
0.0
  0
LINE
  5
D86
100
AcDbEntity
  8
0
 62
     0
100
AcDbLine
 10
0.0
 20
0.0
 30
0.0
 11
-1.0
 21
0.0
 31
0.0
  0
ENDBLK
  5
D88
100
AcDbEntity
  8
0
100
AcDbBlockEnd
  0
ENDSEC
  0
SECTION
  2
ENTITIES
  0
TEXT
  5
3E9
100
AcDbEntity
  8
図枠部品表
 62
     3
100
AcDbText
 10
403.65269
 20
422.521663
 30
0.0
 40
2.4325
  1

 41
0.8
  7
KANJI
 72
     1
 11
403.65269
 21
423.737913
 31
0.0
100
AcDbText
 73
     2
  0
TEXT
  5
A9F
100
AcDbEntity
  8
図枠
 62
     7
100
AcDbText
 10
162.933452
 20
10.11536
 30
0.0
 40
2.6
  1

  7
KANJI
 72
     1
 11
162.933452
 21
11.41536
 31
0.0
100
AcDbText
 73
     2
  0
LINE
  5
AFC
100
AcDbEntity
  8
CENTER
100
AcDbLine
 10
112.784667
 20
147.72547
 30
0.0
 11
177.784667
 21
147.72547
 31
0.0
  0
LINE
  5
AFD
100
AcDbEntity
  8
CENTER
100
AcDbLine
 10
145.284667
 20
109.135924
 30
0.0
 11
145.284667
 21
180.22547
 31
0.0
  0
ARC
  5
AFF
100
AcDbEntity
  8
0
100
AcDbCircle
 10
145.284667
 20
147.72547
 30
0.0
 40
27.5
100
AcDbArc
 50
271.562806
 51
88.437194
  0
ARC
  5
B00
100
AcDbEntity
  8
0
100
AcDbCircle
 10
145.284667
 20
147.72547
 30
0.0
 40
15.0
100
AcDbArc
 50
272.865984
 51
87.134016
  0
ARC
  5
B01
100
AcDbEntity
  8
0
100
AcDbCircle
 10
145.284667
 20
147.72547
 30
0.0
 40
26.5
100
AcDbArc
 50
271.621795
 51
88.378205
  0
ARC
  5
B02
100
AcDbEntity
  8
0
100
AcDbCircle
 10
145.284667
 20
147.72547
 30
0.0
 40
16.0
100
AcDbArc
 50
272.686724
 51
87.313276
  0
LINE
  5
B04
100
AcDbEntity
  8
0
100
AcDbLine
 10
146.034667
 20
120.235699
 30
0.0
 11
146.034667
 21
132.744232
 31
0.0
  0
LINE
  5
B06
100
AcDbEntity
  8
0
100
AcDbLine
 10
144.534667
 20
175.215241
 30
0.0
 11
144.534667
 21
162.706708
 31
0.0
  0
LINE
  5
B08
100
AcDbEntity
  8
CENTER
100
AcDbLine
 10
119.66729
 20
127.72547
 30
0.0
 11
170.902044
 21
127.72547
 31
0.0
  0
LINE
  5
B1A
100
AcDbEntity
  8
CENTER
 48
0.5
100
AcDbLine
 10
62.973747
 20
136.348048
 30
0.0
 11
62.973747
 21
119.102893
 31
0.0
  0
LINE
  5
B1C
100
AcDbEntity
  8
0
100
AcDbLine
 10
69.473747
 20
175.22547
 30
0.0
 11
56.473747
 21
175.22547
 31
0.0
  0
LINE
  5
B1F
100
AcDbEntity
  8
0
100
AcDbLine
 10
56.473747
 20
120.22547
 30
0.0
 11
69.473747
 21
120.22547
 31
0.0
  0
LINE
  5
B21
100
AcDbEntity
  8
0
100
AcDbLine
 10
70.473747
 20
121.22547
 30
0.0
 11
70.473747
 21
174.22547
 31
0.0
  0
LINE
  5
B23
100
AcDbEntity
  8
0
100
AcDbLine
 10
55.473747
 20
174.22547
 30
0.0
 11
55.473747
 21
121.22547
 31
0.0
  0
LINE
  5
B24
100
AcDbEntity
  8
0
100
AcDbLine
 10
70.473747
 20
174.22547
 30
0.0
 11
69.473747
 21
175.22547
 31
0.0
  0
LINE
  5
B25
100
AcDbEntity
  8
0
100
AcDbLine
 10
56.473747
 20
175.22547
 30
0.0
 11
55.473747
 21
174.22547
 31
0.0
  0
LINE
  5
B26
100
AcDbEntity
  8
0
100
AcDbLine
 10
55.473747
 20
121.22547
 30
0.0
 11
56.473747
 21
120.22547
 31
0.0
  0
LINE
  5
B27
100
AcDbEntity
  8
0
100
AcDbLine
 10
69.473747
 20
120.22547
 30
0.0
 11
70.473747
 21
121.22547
 31
0.0
  0
LINE
  5
B28
100
AcDbEntity
  8
0
100
AcDbLine
 10
69.473747
 20
175.22547
 30
0.0
 11
69.473747
 21
120.22547
 31
0.0
  0
LINE
  5
B29
100
AcDbEntity
  8
0
100
AcDbLine
 10
56.473747
 20
120.22547
 30
0.0
 11
56.473747
 21
175.22547
 31
0.0
  0
LINE
  5
B2A
100
AcDbEntity
  8
0
  6
HIDDEN
100
AcDbLine
 10
69.473747
 20
162.72547
 30
0.0
 11
56.473747
 21
162.72547
 31
0.0
  0
LINE
  5
B2B
100
AcDbEntity
  8
CENTER
 48
0.5
100
AcDbLine
 10
72.973747
 20
147.72547
 30
0.0
 11
52.973747
 21
147.72547
 31
0.0
  0
LINE
  5
B30
100
AcDbEntity
  8
CENTER
 48
0.5
100
AcDbLine
 10
71.596324
 20
127.72547
 30
0.0
 11
54.351169
 21
127.72547
 31
0.0
  0
LINE
  5
B32
100
AcDbEntity
  8
0
  6
HIDDEN
100
AcDbLine
 10
56.473747
 20
132.72547
 30
0.0
 11
69.473747
 21
132.72547
 31
0.0
  0
LINE
  5
B3E
100
AcDbEntity
  8
0
100
AcDbLine
 10
69.473747
 20
132.72547
 30
0.0
 11
70.473747
 21
131.72547
 31
0.0
  0
LINE
  5
B3F
100
AcDbEntity
  8
0
100
AcDbLine
 10
56.473747
 20
132.72547
 30
0.0
 11
55.473747
 21
131.72547
 31
0.0
  0
LINE
  5
B40
100
AcDbEntity
  8
0
100
AcDbLine
 10
69.473747
 20
162.72547
 30
0.0
 11
70.473747
 21
163.72547
 31
0.0
  0
LINE
  5
B41
100
AcDbEntity
  8
0
100
AcDbLine
 10
56.473747
 20
162.72547
 30
0.0
 11
55.473747
 21
163.72547
 31
0.0
  0
LINE
  5
CE6
100
AcDbEntity
  8
0
  6
HIDDEN
100
AcDbLine
 10
135.284667
 20
164.22547
 30
0.0
 11
144.534667
 21
164.22547
 31
0.0
  0
LINE
  5
CE7
100
AcDbEntity
  8
0
  6
HIDDEN
100
AcDbLine
 10
135.284667
 20
171.22547
 30
0.0
 11
144.534667
 21
171.22547
 31
0.0
  0
LINE
  5
CE8
100
AcDbEntity
  8
CENTER
100
AcDbLine
 10
119.66729
 20
167.72547
 30
0.0
 11
170.902044
 21
167.72547
 31
0.0
  0
LINE
  5
CE9
100
AcDbEntity
  8
0
  6
HIDDEN
100
AcDbLine
 10
135.284667
 20
173.342847
 30
0.0
 11
135.284667
 21
161.72547
 31
0.0
  0
LINE
  5
CEA
100
AcDbEntity
  8
0
  6
HIDDEN
100
AcDbLine
 10
121.615066
 20
161.72547
 30
0.0
 11
135.284667
 21
161.72547
 31
0.0
  0
LINE
  5
CEB
100
AcDbEntity
  8
CENTER
  6
HIDDEN
 62
     3
100
AcDbLine
 10
159.671217
 20
170.72547
 30
0.0
 11
160.359481
 21
170.72547
 31
0.0
  0
LINE
  5
CEE
100
AcDbEntity
  8
CENTER
  6
HIDDEN
 62
     3
100
AcDbLine
 10
159.671217
 20
164.72547
 30
0.0
 11
166.900633
 21
164.72547
 31
0.0
  0
ARC
  5
CFC
100
AcDbEntity
  8
0
100
AcDbCircle
 10
145.284667
 20
147.72547
 30
0.0
 40
26.5
100
AcDbArc
 50
91.621795
 51
268.378205
  0
ARC
  5
CFD
100
AcDbEntity
  8
0
100
AcDbCircle
 10
145.284667
 20
147.72547
 30
0.0
 40
27.5
100
AcDbArc
 50
91.562806
 51
268.437194
  0
ARC
  5
CFE
100
AcDbEntity
  8
0
100
AcDbCircle
 10
145.284667
 20
147.72547
 30
0.0
 40
16.0
100
AcDbArc
 50
92.686724
 51
267.313276
  0
ARC
  5
CFF
100
AcDbEntity
  8
0
100
AcDbCircle
 10
145.284667
 20
147.72547
 30
0.0
 40
15.0
100
AcDbArc
 50
92.865984
 51
267.134016
  0
LINE
  5
D00
100
AcDbEntity
  8
0
100
AcDbLine
 10
144.534667
 20
132.744232
 30
0.0
 11
144.534667
 21
120.235699
 31
0.0
  0
LINE
  5
D01
100
AcDbEntity
  8
0
100
AcDbLine
 10
146.034667
 20
162.706708
 30
0.0
 11
146.034667
 21
175.215241
 31
0.0
  0
ARC
  5
D08
100
AcDbEntity
  8
0
100
AcDbCircle
 10
62.973747
 20
167.72547
 30
0.0
 40
6.0
100
AcDbArc
 50
180.0
 51
0.0
  0
LINE
  5
D09
100
AcDbEntity
  8
CENTER
 48
0.5
100
AcDbLine
 10
71.596324
 20
167.72547
 30
0.0
 11
54.351169
 21
167.72547
 31
0.0
  0
LINE
  5
D0D
100
AcDbEntity
  8
CENTER
 48
0.5
100
AcDbLine
 10
62.973747
 20
159.102893
 30
0.0
 11
62.973747
 21
176.348048
 31
0.0
  0
LINE
  5
D0E
100
AcDbEntity
  8
0
100
AcDbLine
 10
68.973747
 20
173.342847
 30
0.0
 11
56.973747
 21
173.342847
 31
0.0
  0
LINE
  5
D0F
100
AcDbEntity
  8
0
100
AcDbLine
 10
56.973747
 20
167.72547
 30
0.0
 11
56.973747
 21
173.342847
 31
0.0
  0
LINE
  5
D10
100
AcDbEntity
  8
0
100
AcDbLine
 10
68.973747
 20
167.72547
 30
0.0
 11
68.973747
 21
173.342847
 31
0.0
  0
LINE
  5
D48
100
AcDbEntity
  8
0
100
AcDbLine
 10
-7.880247
 20
174.22547
 30
0.0
 11
-7.880247
 21
163.72547
 31
0.0
  0
LINE
  5
D49
100
AcDbEntity
  8
0
100
AcDbLine
 10
7.119753
 20
121.22547
 30
0.0
 11
7.119753
 21
131.72547
 31
0.0
  0
LINE
  5
D4C
100
AcDbEntity
  8
CENTER
 48
0.5
100
AcDbLine
 10
-0.380247
 20
136.348048
 30
0.0
 11
-0.380247
 21
119.102893
 31
0.0
  0
LINE
  5
D4E
100
AcDbEntity
  8
0
100
AcDbLine
 10
-6.880247
 20
120.22547
 30
0.0
 11
6.119753
 21
120.22547
 31
0.0
  0
LINE
  5
D4F
100
AcDbEntity
  8
0
100
AcDbLine
 10
-7.880247
 20
121.22547
 30
0.0
 11
-6.880247
 21
120.22547
 31
0.0
  0
LINE
  5
D50
100
AcDbEntity
  8
0
100
AcDbLine
 10
6.119753
 20
120.22547
 30
0.0
 11
7.119753
 21
121.22547
 31
0.0
  0
LINE
  5
D52
100
AcDbEntity
  8
0
100
AcDbLine
 10
-6.880247
 20
132.72547
 30
0.0
 11
6.119753
 21
132.72547
 31
0.0
  0
LINE
  5
D53
100
AcDbEntity
  8
CENTER
 48
0.5
100
AcDbLine
 10
8.242331
 20
127.72547
 30
0.0
 11
-9.002824
 21
127.72547
 31
0.0
  0
LINE
  5
D54
100
AcDbEntity
  8
0
100
AcDbLine
 10
-6.880247
 20
132.72547
 30
0.0
 11
-7.880247
 21
131.72547
 31
0.0
  0
CIRCLE
  5
D55
100
AcDbEntity
  8
0
100
AcDbCircle
 10
-0.380247
 20
127.72547
 30
0.0
 40
3.0
  0
CIRCLE
  5
D56
100
AcDbEntity
  8
0
100
AcDbCircle
 10
-0.380247
 20
127.72547
 30
0.0
 40
3.5
  0
CIRCLE
  5
D57
100
AcDbEntity
  8
0
 62
     3
100
AcDbCircle
 10
-0.380247
 20
127.72547
 30
0.0
 40
2.4585
  0
LINE
  5
D58
100
AcDbEntity
  8
0
100
AcDbLine
 10
6.119753
 20
132.72547
 30
0.0
 11
7.119753
 21
131.72547
 31
0.0
  0
LINE
  5
D5B
100
AcDbEntity
  8
CENTER
 48
0.5
100
AcDbLine
 10
-0.380247
 20
159.102893
 30
0.0
 11
-0.380247
 21
176.348048
 31
0.0
  0
CIRCLE
  5
D5C
100
AcDbEntity
  8
0
100
AcDbCircle
 10
-0.380247
 20
167.72547
 30
0.0
 40
3.5
  0
CIRCLE
  5
D5D
100
AcDbEntity
  8
0
100
AcDbCircle
 10
-0.380247
 20
167.72547
 30
0.0
 40
3.0
  0
LINE
  5
D5E
100
AcDbEntity
  8
CENTER
 48
0.5
100
AcDbLine
 10
8.242331
 20
167.72547
 30
0.0
 11
-9.002824
 21
167.72547
 31
0.0
  0
LINE
  5
D60
100
AcDbEntity
  8
CENTER
 48
0.5
100
AcDbLine
 10
9.619753
 20
147.72547
 30
0.0
 11
-10.380247
 21
147.72547
 31
0.0
  0
LINE
  5
D61
100
AcDbEntity
  8
0
100
AcDbLine
 10
6.119753
 20
162.72547
 30
0.0
 11
-6.880247
 21
162.72547
 31
0.0
  0
LINE
  5
D62
100
AcDbEntity
  8
0
100
AcDbLine
 10
-6.880247
 20
162.72547
 30
0.0
 11
-7.880247
 21
163.72547
 31
0.0
  0
CIRCLE
  5
D63
100
AcDbEntity
  8
0
 62
     3
100
AcDbCircle
 10
-0.380247
 20
167.72547
 30
0.0
 40
2.4585
  0
LINE
  5
D64
100
AcDbEntity
  8
0
100
AcDbLine
 10
6.119753
 20
162.72547
 30
0.0
 11
7.119753
 21
163.72547
 31
0.0
  0
LINE
  5
D66
100
AcDbEntity
  8
0
100
AcDbLine
 10
6.119753
 20
175.22547
 30
0.0
 11
-6.880247
 21
175.22547
 31
0.0
  0
LINE
  5
D67
100
AcDbEntity
  8
0
100
AcDbLine
 10
-6.880247
 20
175.22547
 30
0.0
 11
-7.880247
 21
174.22547
 31
0.0
  0
LINE
  5
D68
100
AcDbEntity
  8
0
100
AcDbLine
 10
7.119753
 20
174.22547
 30
0.0
 11
6.119753
 21
175.22547
 31
0.0
  0
POINT
  5
DFE
100
AcDbEntity
  8
0
 60
     1
100
AcDbPoint
 10
227.398635
 20
168.227595
 30
0.0
1001
GENIUS_GENOBJ-NBEHI-BHF_13
1002
{
1000
OWNER
1000
GENBEHI
1002
}
1001
GENIUS_GENOENT_13
1002
{
1000
MYREF
1005
DFE
1002
}
1002
{
1000
GRP
1005
0
1002
}
1001
GENIUS_GENOLIS_13
1002
{
1000
ENT
1005
0
1002
}
1001
GENIUS_GENBH_13
1002
{
1000
OIUMAP
1000
OIU
1002
}
1002
{
1000
FLAGS
1070
    32
1002
}
1002
{
1000
BGO
1005
DFF
1002
}
1001
GENIUS_GENODEF_13
1002
{
1000
HIER
1070
     1
1002
}
1002
{
1000
MANEDIT
1070
     1
1002
}
1002
{
1000
NOSEL
1070
     1
1002
}
1002
{
1000
BEHIND
1070
     0
1002
}
1002
{
1000
REACTOR
1002
}
  0
POINT
  5
DFF
100
AcDbEntity
  8
0
 60
     1
100
AcDbPoint
 10
227.398635
 20
168.227595
 30
0.0
1001
GENIUS_GENOBJ-NBEHI-BHB_13
1002
{
1000
OWNER
1000
GENBEHI
1002
}
1001
GENIUS_GENOENT_13
1002
{
1000
MYREF
1005
DFF
1002
}
1002
{
1000
GRP
1005
0
1002
}
1001
GENIUS_GENOLIS_13
1002
{
1000
ENT
1002
}
1001
GENIUS_GENODEF_13
1002
{
1000
HIER
1070
     1
1002
}
1002
{
1000
MANEDIT
1070
     0
1002
}
1002
{
1000
NOSEL
1070
     1
1002
}
1002
{
1000
BEHIND
1070
     0
1002
}
1002
{
1000
REACTOR
1002
}
1002
{
1000
OTHER
1070
     1
1002
}
1001
GENIUS_GENBH_13
1002
{
1000
FGO
1005
DFE
1002
}
  0
POINT
  5
E00
100
AcDbEntity
  8
0
 60
     1
100
AcDbPoint
 10
227.398635
 20
168.227595
 30
0.0
1001
GENIUS_GENOBJ-NBEHI-BHF_13
1002
{
1000
OWNER
1000
GENBEHI
1002
}
1001
GENIUS_GENOENT_13
1002
{
1000
MYREF
1005
E00
1002
}
1002
{
1000
GRP
1005
0
1002
}
1001
GENIUS_GENOLIS_13
1002
{
1000
ENT
1005
0
1002
}
1001
GENIUS_GENODEF_13
1002
{
1000
HIER
1070
     1
1002
}
1002
{
1000
MANEDIT
1070
     0
1002
}
1002
{
1000
NOSEL
1070
     1
1002
}
1002
{
1000
BEHIND
1070
     0
1002
}
1002
{
1000
REACTOR
1002
}
1001
GENIUS_GENBH_13
1002
{
1000
OIUMAP
1000
OIU
1002
}
1002
{
1000
FLAGS
1070
    32
1002
}
1002
{
1000
BGO
1005
E01
1002
}
  0
POINT
  5
E01
100
AcDbEntity
  8
0
 60
     1
100
AcDbPoint
 10
227.398635
 20
168.227595
 30
0.0
1001
GENIUS_GENOBJ-NBEHI-BHB_13
1002
{
1000
OWNER
1000
GENBEHI
1002
}
1001
GENIUS_GENOENT_13
1002
{
1000
MYREF
1005
E01
1002
}
1002
{
1000
GRP
1005
0
1002
}
1001
GENIUS_GENOLIS_13
1002
{
1000
ENT
1002
}
1001
GENIUS_GENODEF_13
1002
{
1000
HIER
1070
     1
1002
}
1002
{
1000
MANEDIT
1070
     0
1002
}
1002
{
1000
NOSEL
1070
     1
1002
}
1002
{
1000
BEHIND
1070
     0
1002
}
1002
{
1000
REACTOR
1002
}
1002
{
1000
OTHER
1070
     1
1002
}
1001
GENIUS_GENBH_13
1002
{
1000
FGO
1005
E00
1002
}
  0
POINT
  5
E02
100
AcDbEntity
  8
0
 60
     1
100
AcDbPoint
 10
227.398635
 20
168.227595
 30
0.0
1001
GENIUS_GENOBJ-NBEHI-BHF_13
1002
{
1000
OWNER
1000
GENBEHI
1002
}
1001
GENIUS_GENOENT_13
1002
{
1000
MYREF
1005
E02
1002
}
1002
{
1000
GRP
1005
0
1002
}
1001
GENIUS_GENOLIS_13
1002
{
1000
ENT
1005
0
1002
}
1001
GENIUS_GENBH_13
1002
{
1000
OIUMAP
1000
OIU
1002
}
1002
{
1000
FLAGS
1070
    32
1002
}
1002
{
1000
BGO
1005
E03
1002
}
1001
GENIUS_GENODEF_13
1002
{
1000
HIER
1070
     1
1002
}
1002
{
1000
MANEDIT
1070
     1
1002
}
1002
{
1000
NOSEL
1070
     1
1002
}
1002
{
1000
BEHIND
1070
     0
1002
}
1002
{
1000
REACTOR
1002
}
  0
POINT
  5
E03
100
AcDbEntity
  8
0
 60
     1
100
AcDbPoint
 10
227.398635
 20
168.227595
 30
0.0
1001
GENIUS_GENOBJ-NBEHI-BHB_13
1002
{
1000
OWNER
1000
GENBEHI
1002
}
1001
GENIUS_GENOENT_13
1002
{
1000
MYREF
1005
E03
1002
}
1002
{
1000
GRP
1005
0
1002
}
1001
GENIUS_GENOLIS_13
1002
{
1000
ENT
1002
}
1001
GENIUS_GENODEF_13
1002
{
1000
HIER
1070
     1
1002
}
1002
{
1000
MANEDIT
1070
     0
1002
}
1002
{
1000
NOSEL
1070
     1
1002
}
1002
{
1000
BEHIND
1070
     0
1002
}
1002
{
1000
REACTOR
1002
}
1002
{
1000
OTHER
1070
     1
1002
}
1001
GENIUS_GENBH_13
1002
{
1000
FGO
1005
E02
1002
}
  0
POINT
  5
E04
100
AcDbEntity
  8
0
 60
     1
100
AcDbPoint
 10
227.398635
 20
168.227595
 30
0.0
1001
GENIUS_GENOBJ-F-SCPASSM_13
1002
{
1000
OWNER
1000
GEF
1002
}
1001
GENIUS_GENOENT_13
1002
{
1000
MYREF
1005
E04
1002
}
1002
{
1000
GRP
1005
0
1002
}
1001
GENIUS_GENOLIS_13
1002
{
1000
ENT
1005
0
1005
0
1002
}
1001
GENIUS_GENODEF_13
1002
{
1000
HIER
1070
   200
1002
}
1002
{
1000
MANEDIT
1070
     1
1002
}
1002
{
1000
NOSEL
1070
     0
1002
}
1002
{
1000
BEHIND
1070
     0
1002
}
1002
{
1000
REACTOR
1002
}
  0
POINT
  5
E05
100
AcDbEntity
  8
0
 60
     1
100
AcDbPoint
 10
227.398635
 20
168.227595
 30
0.0
1001
GENIUS_GENOBJ-NBEHI-BHF_13
1002
{
1000
OWNER
1000
GENBEHI
1002
}
1001
GENIUS_GENOENT_13
1002
{
1000
MYREF
1005
E05
1002
}
1002
{
1000
GRP
1005
0
1002
}
1001
GENIUS_GENOLIS_13
1002
{
1000
ENT
1005
0
1002
}
1001
GENIUS_GENODEF_13
1002
{
1000
HIER
1070
     1
1002
}
1002
{
1000
MANEDIT
1070
     0
1002
}
1002
{
1000
NOSEL
1070
     1
1002
}
1002
{
1000
BEHIND
1070
     0
1002
}
1002
{
1000
REACTOR
1002
}
1001
GENIUS_GENBH_13
1002
{
1000
OIUMAP
1000
OIU
1002
}
1002
{
1000
FLAGS
1070
    32
1002
}
1002
{
1000
BGO
1005
E06
1002
}
  0
POINT
  5
E06
100
AcDbEntity
  8
0
 60
     1
100
AcDbPoint
 10
227.398635
 20
168.227595
 30
0.0
1001
GENIUS_GENOBJ-NBEHI-BHB_13
1002
{
1000
OWNER
1000
GENBEHI
1002
}
1001
GENIUS_GENOENT_13
1002
{
1000
MYREF
1005
E06
1002
}
1002
{
1000
GRP
1005
0
1002
}
1001
GENIUS_GENOLIS_13
1002
{
1000
ENT
1002
}
1001
GENIUS_GENODEF_13
1002
{
1000
HIER
1070
     1
1002
}
1002
{
1000
MANEDIT
1070
     0
1002
}
1002
{
1000
NOSEL
1070
     1
1002
}
1002
{
1000
BEHIND
1070
     0
1002
}
1002
{
1000
REACTOR
1002
}
1002
{
1000
OTHER
1070
     1
1002
}
1001
GENIUS_GENBH_13
1002
{
1000
FGO
1005
E05
1002
}
  0
POINT
  5
E07
100
AcDbEntity
  8
0
 60
     1
100
AcDbPoint
 10
227.398635
 20
168.227595
 30
0.0
1001
GENIUS_GENOBJ-NBEHI-BHF_13
1002
{
1000
OWNER
1000
GENBEHI
1002
}
1001
GENIUS_GENOENT_13
1002
{
1000
MYREF
1005
E07
1002
}
1002
{
1000
GRP
1005
0
1002
}
1001
GENIUS_GENOLIS_13
1002
{
1000
ENT
1005
0
1002
}
1001
GENIUS_GENBH_13
1002
{
1000
OIUMAP
1000
OIU
1002
}
1002
{
1000
FLAGS
1070
    32
1002
}
1002
{
1000
BGO
1005
E08
1002
}
1001
GENIUS_GENODEF_13
1002
{
1000
HIER
1070
     1
1002
}
1002
{
1000
MANEDIT
1070
     1
1002
}
1002
{
1000
NOSEL
1070
     1
1002
}
1002
{
1000
BEHIND
1070
     0
1002
}
1002
{
1000
REACTOR
1002
}
  0
POINT
  5
E08
100
AcDbEntity
  8
0
 60
     1
100
AcDbPoint
 10
227.398635
 20
168.227595
 30
0.0
1001
GENIUS_GENOBJ-NBEHI-BHB_13
1002
{
1000
OWNER
1000
GENBEHI
1002
}
1001
GENIUS_GENOENT_13
1002
{
1000
MYREF
1005
E08
1002
}
1002
{
1000
GRP
1005
0
1002
}
1001
GENIUS_GENOLIS_13
1002
{
1000
ENT
1005
0
1002
}
1001
GENIUS_GENODEF_13
1002
{
1000
HIER
1070
     1
1002
}
1002
{
1000
MANEDIT
1070
     0
1002
}
1002
{
1000
NOSEL
1070
     1
1002
}
1002
{
1000
BEHIND
1070
     0
1002
}
1002
{
1000
REACTOR
1002
}
1002
{
1000
OTHER
1070
     1
1002
}
1001
GENIUS_GENBH_13
1002
{
1000
FGO
1005
E07
1002
}
  0
POINT
  5
E09
100
AcDbEntity
  8
0
 60
     1
100
AcDbPoint
 10
227.398635
 20
168.227595
 30
0.0
1001
GENIUS_GENOBJ-F-SCPASSM_13
1002
{
1000
OWNER
1000
GEF
1002
}
1001
GENIUS_GENOENT_13
1002
{
1000
MYREF
1005
E09
1002
}
1002
{
1000
GRP
1005
0
1002
}
1001
GENIUS_GENOLIS_13
1002
{
1000
ENT
1005
0
1005
0
1002
}
1001
GENIUS_GENODEF_13
1002
{
1000
HIER
1070
   200
1002
}
1002
{
1000
MANEDIT
1070
     1
1002
}
1002
{
1000
NOSEL
1070
     0
1002
}
1002
{
1000
BEHIND
1070
     0
1002
}
1002
{
1000
REACTOR
1002
}
  0
POINT
  5
E0A
100
AcDbEntity
  8
0
 60
     1
100
AcDbPoint
 10
227.398635
 20
168.227595
 30
0.0
1001
GENIUS_GENOBJ-NBEHI-BHF_13
1002
{
1000
OWNER
1000
GENBEHI
1002
}
1001
GENIUS_GENOENT_13
1002
{
1000
MYREF
1005
E0A
1002
}
1002
{
1000
GRP
1005
0
1002
}
1001
GENIUS_GENOLIS_13
1002
{
1000
ENT
1005
0
1002
}
1001
GENIUS_GENODEF_13
1002
{
1000
HIER
1070
     1
1002
}
1002
{
1000
MANEDIT
1070
     0
1002
}
1002
{
1000
NOSEL
1070
     1
1002
}
1002
{
1000
BEHIND
1070
     0
1002
}
1002
{
1000
REACTOR
1002
}
1001
GENIUS_GENBH_13
1002
{
1000
OIUMAP
1000
OIU
1002
}
1002
{
1000
FLAGS
1070
    32
1002
}
1002
{
1000
BGO
1005
E0B
1002
}
  0
POINT
  5
E0B
100
AcDbEntity
  8
0
 60
     1
100
AcDbPoint
 10
227.398635
 20
168.227595
 30
0.0
1001
GENIUS_GENOBJ-NBEHI-BHB_13
1002
{
1000
OWNER
1000
GENBEHI
1002
}
1001
GENIUS_GENOENT_13
1002
{
1000
MYREF
1005
E0B
1002
}
1002
{
1000
GRP
1005
0
1002
}
1001
GENIUS_GENOLIS_13
1002
{
1000
ENT
1002
}
1001
GENIUS_GENODEF_13
1002
{
1000
HIER
1070
     1
1002
}
1002
{
1000
MANEDIT
1070
     0
1002
}
1002
{
1000
NOSEL
1070
     1
1002
}
1002
{
1000
BEHIND
1070
     0
1002
}
1002
{
1000
REACTOR
1002
}
1002
{
1000
OTHER
1070
     1
1002
}
1001
GENIUS_GENBH_13
1002
{
1000
FGO
1005
E0A
1002
}
  0
POINT
  5
E0C
100
AcDbEntity
  8
0
 60
     1
100
AcDbPoint
 10
227.398635
 20
168.227595
 30
0.0
1001
GENIUS_GENOBJ-NBEHI-BHF_13
1002
{
1000
OWNER
1000
GENBEHI
1002
}
1001
GENIUS_GENOENT_13
1002
{
1000
MYREF
1005
E0C
1002
}
1002
{
1000
GRP
1005
0
1002
}
1001
GENIUS_GENOLIS_13
1002
{
1000
ENT
1005
0
1002
}
1001
GENIUS_GENBH_13
1002
{
1000
OIUMAP
1000
OIU
1002
}
1002
{
1000
FLAGS
1070
    32
1002
}
1002
{
1000
BGO
1005
E0D
1002
}
1001
GENIUS_GENODEF_13
1002
{
1000
HIER
1070
     1
1002
}
1002
{
1000
MANEDIT
1070
     1
1002
}
1002
{
1000
NOSEL
1070
     1
1002
}
1002
{
1000
BEHIND
1070
     0
1002
}
1002
{
1000
REACTOR
1002
}
  0
POINT
  5
E0D
100
AcDbEntity
  8
0
 60
     1
100
AcDbPoint
 10
227.398635
 20
168.227595
 30
0.0
1001
GENIUS_GENOBJ-NBEHI-BHB_13
1002
{
1000
OWNER
1000
GENBEHI
1002
}
1001
GENIUS_GENOENT_13
1002
{
1000
MYREF
1005
E0D
1002
}
1002
{
1000
GRP
1005
0
1002
}
1001
GENIUS_GENOLIS_13
1002
{
1000
ENT
1005
0
1002
}
1001
GENIUS_GENODEF_13
1002
{
1000
HIER
1070
     1
1002
}
1002
{
1000
MANEDIT
1070
     0
1002
}
1002
{
1000
NOSEL
1070
     1
1002
}
1002
{
1000
BEHIND
1070
     0
1002
}
1002
{
1000
REACTOR
1002
}
1002
{
1000
OTHER
1070
     1
1002
}
1001
GENIUS_GENBH_13
1002
{
1000
FGO
1005
E0C
1002
}
  0
POINT
  5
E0E
100
AcDbEntity
  8
0
 60
     1
100
AcDbPoint
 10
227.398635
 20
168.227595
 30
0.0
1001
GENIUS_GENOBJ-F-SCPASSM_13
1002
{
1000
OWNER
1000
GEF
1002
}
1001
GENIUS_GENOENT_13
1002
{
1000
MYREF
1005
E0E
1002
}
1002
{
1000
GRP
1005
0
1002
}
1001
GENIUS_GENOLIS_13
1002
{
1000
ENT
1005
0
1005
0
1002
}
1001
GENIUS_GENODEF_13
1002
{
1000
HIER
1070
   200
1002
}
1002
{
1000
MANEDIT
1070
     1
1002
}
1002
{
1000
NOSEL
1070
     0
1002
}
1002
{
1000
BEHIND
1070
     0
1002
}
1002
{
1000
REACTOR
1002
}
  0
POINT
  5
E0F
100
AcDbEntity
  8
0
 60
     1
100
AcDbPoint
 10
227.398635
 20
168.227595
 30
0.0
1001
GENIUS_GENOBJ-NBEHI-BHF_13
1002
{
1000
OWNER
1000
GENBEHI
1002
}
1001
GENIUS_GENOENT_13
1002
{
1000
MYREF
1005
E0F
1002
}
1002
{
1000
GRP
1005
0
1002
}
1001
GENIUS_GENOLIS_13
1002
{
1000
ENT
1005
0
1002
}
1001
GENIUS_GENODEF_13
1002
{
1000
HIER
1070
     1
1002
}
1002
{
1000
MANEDIT
1070
     0
1002
}
1002
{
1000
NOSEL
1070
     1
1002
}
1002
{
1000
BEHIND
1070
     0
1002
}
1002
{
1000
REACTOR
1002
}
1001
GENIUS_GENBH_13
1002
{
1000
OIUMAP
1000
OIU
1002
}
1002
{
1000
FLAGS
1070
    32
1002
}
1002
{
1000
BGO
1005
E10
1002
}
  0
POINT
  5
E10
100
AcDbEntity
  8
0
 60
     1
100
AcDbPoint
 10
227.398635
 20
168.227595
 30
0.0
1001
GENIUS_GENOBJ-NBEHI-BHB_13
1002
{
1000
OWNER
1000
GENBEHI
1002
}
1001
GENIUS_GENOENT_13
1002
{
1000
MYREF
1005
E10
1002
}
1002
{
1000
GRP
1005
0
1002
}
1001
GENIUS_GENOLIS_13
1002
{
1000
ENT
1002
}
1001
GENIUS_GENODEF_13
1002
{
1000
HIER
1070
     1
1002
}
1002
{
1000
MANEDIT
1070
     0
1002
}
1002
{
1000
NOSEL
1070
     1
1002
}
1002
{
1000
BEHIND
1070
     0
1002
}
1002
{
1000
REACTOR
1002
}
1002
{
1000
OTHER
1070
     1
1002
}
1001
GENIUS_GENBH_13
1002
{
1000
FGO
1005
E0F
1002
}
  0
POINT
  5
E11
100
AcDbEntity
  8
0
 60
     1
100
AcDbPoint
 10
227.398635
 20
168.227595
 30
0.0
1001
GENIUS_GENOBJ-NBEHI-BHF_13
1002
{
1000
OWNER
1000
GENBEHI
1002
}
1001
GENIUS_GENOENT_13
1002
{
1000
MYREF
1005
E11
1002
}
1002
{
1000
GRP
1005
0
1002
}
1001
GENIUS_GENOLIS_13
1002
{
1000
ENT
1005
0
1002
}
1001
GENIUS_GENBH_13
1002
{
1000
OIUMAP
1000
OIU
1002
}
1002
{
1000
FLAGS
1070
    32
1002
}
1002
{
1000
BGO
1005
E12
1002
}
1001
GENIUS_GENODEF_13
1002
{
1000
HIER
1070
     1
1002
}
1002
{
1000
MANEDIT
1070
     1
1002
}
1002
{
1000
NOSEL
1070
     1
1002
}
1002
{
1000
BEHIND
1070
     0
1002
}
1002
{
1000
REACTOR
1002
}
  0
POINT
  5
E12
100
AcDbEntity
  8
0
 60
     1
100
AcDbPoint
 10
227.398635
 20
168.227595
 30
0.0
1001
GENIUS_GENOBJ-NBEHI-BHB_13
1002
{
1000
OWNER
1000
GENBEHI
1002
}
1001
GENIUS_GENOENT_13
1002
{
1000
MYREF
1005
E12
1002
}
1002
{
1000
GRP
1005
0
1002
}
1001
GENIUS_GENOLIS_13
1002
{
1000
ENT
1005
0
1002
}
1001
GENIUS_GENODEF_13
1002
{
1000
HIER
1070
     1
1002
}
1002
{
1000
MANEDIT
1070
     0
1002
}
1002
{
1000
NOSEL
1070
     1
1002
}
1002
{
1000
BEHIND
1070
     0
1002
}
1002
{
1000
REACTOR
1002
}
1002
{
1000
OTHER
1070
     1
1002
}
1001
GENIUS_GENBH_13
1002
{
1000
FGO
1005
E11
1002
}
  0
POINT
  5
E13
100
AcDbEntity
  8
0
 60
     1
100
AcDbPoint
 10
227.398635
 20
168.227595
 30
0.0
1001
GENIUS_GENOBJ-F-SCPASSM_13
1002
{
1000
OWNER
1000
GEF
1002
}
1001
GENIUS_GENOENT_13
1002
{
1000
MYREF
1005
E13
1002
}
1002
{
1000
GRP
1005
0
1002
}
1001
GENIUS_GENOLIS_13
1002
{
1000
ENT
1005
0
1005
0
1002
}
1001
GENIUS_GENODEF_13
1002
{
1000
HIER
1070
   200
1002
}
1002
{
1000
MANEDIT
1070
     1
1002
}
1002
{
1000
NOSEL
1070
     0
1002
}
1002
{
1000
BEHIND
1070
     0
1002
}
1002
{
1000
REACTOR
1002
}
  0
POINT
  5
E14
100
AcDbEntity
  8
0
 60
     1
100
AcDbPoint
 10
227.398635
 20
168.227595
 30
0.0
1001
GENIUS_GENOBJ-NBEHI-BHB_13
1002
{
1000
OWNER
1000
GENBEHI
1002
}
1001
GENIUS_GENOENT_13
1002
{
1000
MYREF
1005
E14
1002
}
1002
{
1000
GRP
1005
0
1002
}
1001
GENIUS_GENOLIS_13
1002
{
1000
ENT
1002
}
1001
GENIUS_GENODEF_13
1002
{
1000
HIER
1070
     1
1002
}
1002
{
1000
MANEDIT
1070
     0
1002
}
1002
{
1000
NOSEL
1070
     1
1002
}
1002
{
1000
BEHIND
1070
     0
1002
}
1002
{
1000
REACTOR
1002
}
1002
{
1000
OTHER
1070
     1
1002
}
1001
GENIUS_GENBH_13
1002
{
1000
FGO
1005
0
1002
}
  0
POINT
  5
E15
100
AcDbEntity
  8
0
 60
     1
100
AcDbPoint
 10
227.398635
 20
168.227595
 30
0.0
1001
GENIUS_GENOBJ-NBEHI-BHF_13
1002
{
1000
OWNER
1000
GENBEHI
1002
}
1001
GENIUS_GENOENT_13
1002
{
1000
MYREF
1005
E15
1002
}
1002
{
1000
GRP
1005
0
1002
}
1001
GENIUS_GENOLIS_13
1002
{
1000
ENT
1005
0
1002
}
1001
GENIUS_GENBH_13
1002
{
1000
OIUMAP
1000
OIU
1002
}
1002
{
1000
FLAGS
1070
    32
1002
}
1002
{
1000
BGO
1005
0
1002
}
1001
GENIUS_GENODEF_13
1002
{
1000
HIER
1070
     1
1002
}
1002
{
1000
MANEDIT
1070
     1
1002
}
1002
{
1000
NOSEL
1070
     1
1002
}
1002
{
1000
BEHIND
1070
     0
1002
}
1002
{
1000
REACTOR
1002
}
  0
POINT
  5
E16
100
AcDbEntity
  8
0
 60
     1
100
AcDbPoint
 10
227.398635
 20
168.227595
 30
0.0
1001
GENIUS_GENOBJ-NBEHI-BHF_13
1002
{
1000
OWNER
1000
GENBEHI
1002
}
1001
GENIUS_GENOENT_13
1002
{
1000
MYREF
1005
E16
1002
}
1002
{
1000
GRP
1005
0
1002
}
1001
GENIUS_GENOLIS_13
1002
{
1000
ENT
1005
0
1002
}
1001
GENIUS_GENODEF_13
1002
{
1000
HIER
1070
     1
1002
}
1002
{
1000
MANEDIT
1070
     0
1002
}
1002
{
1000
NOSEL
1070
     1
1002
}
1002
{
1000
BEHIND
1070
     0
1002
}
1002
{
1000
REACTOR
1002
}
1001
GENIUS_GENBH_13
1002
{
1000
OIUMAP
1000
OIU
1002
}
1002
{
1000
FLAGS
1070
    32
1002
}
1002
{
1000
BGO
1005
E17
1002
}
  0
POINT
  5
E17
100
AcDbEntity
  8
0
 60
     1
100
AcDbPoint
 10
227.398635
 20
168.227595
 30
0.0
1001
GENIUS_GENOBJ-NBEHI-BHB_13
1002
{
1000
OWNER
1000
GENBEHI
1002
}
1001
GENIUS_GENOENT_13
1002
{
1000
MYREF
1005
E17
1002
}
1002
{
1000
GRP
1005
0
1002
}
1001
GENIUS_GENOLIS_13
1002
{
1000
ENT
1002
}
1001
GENIUS_GENODEF_13
1002
{
1000
HIER
1070
     1
1002
}
1002
{
1000
MANEDIT
1070
     0
1002
}
1002
{
1000
NOSEL
1070
     1
1002
}
1002
{
1000
BEHIND
1070
     0
1002
}
1002
{
1000
REACTOR
1002
}
1002
{
1000
OTHER
1070
     1
1002
}
1001
GENIUS_GENBH_13
1002
{
1000
FGO
1005
E16
1002
}
  0
POINT
  5
E18
100
AcDbEntity
  8
0
 60
     1
100
AcDbPoint
 10
227.398635
 20
168.227595
 30
0.0
1001
GENIUS_GENOBJ-NBEHI-BHF_13
1002
{
1000
OWNER
1000
GENBEHI
1002
}
1001
GENIUS_GENOENT_13
1002
{
1000
MYREF
1005
E18
1002
}
1002
{
1000
GRP
1005
0
1002
}
1001
GENIUS_GENOLIS_13
1002
{
1000
ENT
1005
0
1002
}
1001
GENIUS_GENBH_13
1002
{
1000
OIUMAP
1000
OIU
1002
}
1002
{
1000
FLAGS
1070
    32
1002
}
1002
{
1000
BGO
1005
E19
1002
}
1001
GENIUS_GENODEF_13
1002
{
1000
HIER
1070
     1
1002
}
1002
{
1000
MANEDIT
1070
     1
1002
}
1002
{
1000
NOSEL
1070
     1
1002
}
1002
{
1000
BEHIND
1070
     0
1002
}
1002
{
1000
REACTOR
1002
}
  0
POINT
  5
E19
100
AcDbEntity
  8
0
 60
     1
100
AcDbPoint
 10
227.398635
 20
168.227595
 30
0.0
1001
GENIUS_GENOBJ-NBEHI-BHB_13
1002
{
1000
OWNER
1000
GENBEHI
1002
}
1001
GENIUS_GENOENT_13
1002
{
1000
MYREF
1005
E19
1002
}
1002
{
1000
GRP
1005
0
1002
}
1001
GENIUS_GENOLIS_13
1002
{
1000
ENT
1005
0
1002
}
1001
GENIUS_GENODEF_13
1002
{
1000
HIER
1070
     1
1002
}
1002
{
1000
MANEDIT
1070
     0
1002
}
1002
{
1000
NOSEL
1070
     1
1002
}
1002
{
1000
BEHIND
1070
     0
1002
}
1002
{
1000
REACTOR
1002
}
1002
{
1000
OTHER
1070
     1
1002
}
1001
GENIUS_GENBH_13
1002
{
1000
FGO
1005
E18
1002
}
  0
POINT
  5
E1A
100
AcDbEntity
  8
0
 60
     1
100
AcDbPoint
 10
227.398635
 20
168.227595
 30
0.0
1001
GENIUS_GENOBJ-F-SCPASSM_13
1002
{
1000
OWNER
1000
GEF
1002
}
1001
GENIUS_GENOENT_13
1002
{
1000
MYREF
1005
E1A
1002
}
1002
{
1000
GRP
1005
0
1002
}
1001
GENIUS_GENOLIS_13
1002
{
1000
ENT
1005
0
1005
0
1002
}
1001
GENIUS_GENODEF_13
1002
{
1000
HIER
1070
   200
1002
}
1002
{
1000
MANEDIT
1070
     1
1002
}
1002
{
1000
NOSEL
1070
     0
1002
}
1002
{
1000
BEHIND
1070
     0
1002
}
1002
{
1000
REACTOR
1002
}
  0
LINE
  5
E1B
100
AcDbEntity
  8
0
  6
HIDDEN
100
AcDbLine
 10
133.828228
 20
172.72547
 30
0.0
 11
135.284667
 21
172.72547
 31
0.0
1001
GENIUS_GENOREF_13
1005
E18
1005
E1A
  0
LINE
  5
E1C
100
AcDbEntity
  8
0
  6
HIDDEN
100
AcDbLine
 10
129.884667
 20
162.72547
 30
0.0
 11
135.284667
 21
162.72547
 31
0.0
1001
GENIUS_GENOREF_13
1005
E18
1005
E1A
  0
LINE
  5
E1D
100
AcDbEntity
  8
0
  6
HIDDEN
100
AcDbLine
 10
129.284667
 20
163.32547
 30
0.0
 11
129.284667
 21
170.091739
 31
0.0
1001
GENIUS_GENOREF_13
1005
E18
1005
E1A
  0
ARC
  5
E1E
100
AcDbEntity
  8
0
100
AcDbCircle
 10
129.884667
 20
163.32547
 30
0.0
 40
0.6
100
AcDbArc
 50
180.0
 51
270.0
1001
GENIUS_GENOREF_13
1005
E18
1005
E1A
  0
ARC
  5
E1F
100
AcDbEntity
  8
0
100
AcDbCircle
 10
129.884667
 20
172.12547
 30
0.0
 40
0.6
100
AcDbArc
 50
90.0
 51
180.0
1001
GENIUS_GENOREF_13
1005
E18
1005
E1A
  0
LINE
  5
E20
100
AcDbEntity
  8
0
  6
HIDDEN
100
AcDbLine
 10
166.403767
 20
165.33892
 30
0.0
 11
146.034667
 21
165.33892
 31
0.0
1001
GENIUS_GENOREF_13
1005
E18
1005
E1A
  0
LINE
  5
E21
100
AcDbEntity
  8
0
  6
HIDDEN
100
AcDbLine
 10
161.256279
 20
170.11202
 30
0.0
 11
146.034667
 21
170.11202
 31
0.0
1001
GENIUS_GENOREF_13
1005
E18
1005
E1A
  0
LINE
  5
E22
100
AcDbEntity
  8
0
100
AcDbLine
 10
159.671217
 20
164.72547
 30
0.0
 11
160.284667
 21
165.33892
 31
0.0
1001
GENIUS_GENOREF_13
1005
E18
1005
E1A
  0
LINE
  5
E23
100
AcDbEntity
  8
0
100
AcDbLine
 10
159.671217
 20
170.72547
 30
0.0
 11
160.284667
 21
170.11202
 31
0.0
1001
GENIUS_GENOREF_13
1005
E18
1005
E1A
  0
LINE
  5
E24
100
AcDbEntity
  8
0
  6
HIDDEN
100
AcDbLine
 10
135.284667
 20
164.72547
 30
0.0
 11
144.534667
 21
164.72547
 31
0.0
1001
GENIUS_GENOREF_13
1005
E18
1005
E1A
  0
LINE
  5
E25
100
AcDbEntity
  8
0
  6
HIDDEN
100
AcDbLine
 10
135.284667
 20
170.72547
 30
0.0
 11
144.534667
 21
170.72547
 31
0.0
1001
GENIUS_GENOREF_13
1005
E18
1005
E1A
  0
LINE
  5
E27
100
AcDbEntity
  8
0
  6
HIDDEN
100
AcDbLine
 10
137.784667
 20
170.72547
 30
0.0
 11
137.784667
 21
164.72547
 31
0.0
1001
GENIUS_GENOREF_13
1005
E18
1005
E1A
  0
LINE
  5
E28
100
AcDbEntity
  8
0
100
AcDbLine
 10
137.784667
 20
165.33892
 30
0.0
 11
137.171217
 21
164.72547
 31
0.0
1001
GENIUS_GENOREF_13
1005
E18
1005
E1A
  0
LINE
  5
E29
100
AcDbEntity
  8
0
100
AcDbLine
 10
137.784667
 20
170.11202
 30
0.0
 11
137.171217
 21
170.72547
 31
0.0
1001
GENIUS_GENOREF_13
1005
E18
1005
E1A
  0
LINE
  5
E2A
100
AcDbEntity
  8
0
  6
HIDDEN
100
AcDbLine
 10
159.671217
 20
170.72547
 30
0.0
 11
159.671217
 21
164.72547
 31
0.0
1001
GENIUS_GENOREF_13
1005
E18
1005
E1A
  0
LINE
  5
E2B
100
AcDbEntity
  8
0
  6
HIDDEN
100
AcDbLine
 10
160.284667
 20
170.11202
 30
0.0
 11
160.284667
 21
165.33892
 31
0.0
1001
GENIUS_GENOREF_13
1005
E18
1005
E1A
  0
POINT
  5
E2C
100
AcDbEntity
  8
0
 60
     1
100
AcDbPoint
 10
227.398635
 20
168.227595
 30
0.0
1001
GENIUS_GENOBJ-NBEHI-BHF_13
1002
{
1000
OWNER
1000
GENBEHI
1002
}
1001
GENIUS_GENOENT_13
1002
{
1000
MYREF
1005
E2C
1002
}
1002
{
1000
GRP
1005
0
1002
}
1001
GENIUS_GENOLIS_13
1002
{
1000
ENT
1005
0
1002
}
1001
GENIUS_GENODEF_13
1002
{
1000
HIER
1070
     1
1002
}
1002
{
1000
MANEDIT
1070
     0
1002
}
1002
{
1000
NOSEL
1070
     1
1002
}
1002
{
1000
BEHIND
1070
     0
1002
}
1002
{
1000
REACTOR
1002
}
1001
GENIUS_GENBH_13
1002
{
1000
OIUMAP
1000
OIU
1002
}
1002
{
1000
FLAGS
1070
    32
1002
}
1002
{
1000
BGO
1005
E2D
1002
}
  0
POINT
  5
E2D
100
AcDbEntity
  8
0
 60
     1
100
AcDbPoint
 10
227.398635
 20
168.227595
 30
0.0
1001
GENIUS_GENOBJ-NBEHI-BHB_13
1002
{
1000
OWNER
1000
GENBEHI
1002
}
1001
GENIUS_GENOENT_13
1002
{
1000
MYREF
1005
E2D
1002
}
1002
{
1000
GRP
1005
0
1002
}
1001
GENIUS_GENOLIS_13
1002
{
1000
ENT
1002
}
1001
GENIUS_GENODEF_13
1002
{
1000
HIER
1070
     1
1002
}
1002
{
1000
MANEDIT
1070
     0
1002
}
1002
{
1000
NOSEL
1070
     1
1002
}
1002
{
1000
BEHIND
1070
     0
1002
}
1002
{
1000
REACTOR
1002
}
1002
{
1000
OTHER
1070
     1
1002
}
1001
GENIUS_GENBH_13
1002
{
1000
FGO
1005
E2C
1002
}
  0
POINT
  5
E2E
100
AcDbEntity
  8
0
 60
     1
100
AcDbPoint
 10
227.398635
 20
168.227595
 30
0.0
1001
GENIUS_GENOBJ-NBEHI-BHF_13
1002
{
1000
OWNER
1000
GENBEHI
1002
}
1001
GENIUS_GENOENT_13
1002
{
1000
MYREF
1005
E2E
1002
}
1002
{
1000
GRP
1005
0
1002
}
1001
GENIUS_GENOLIS_13
1002
{
1000
ENT
1005
0
1002
}
1001
GENIUS_GENBH_13
1002
{
1000
OIUMAP
1000
OIU
1002
}
1002
{
1000
FLAGS
1070
    32
1002
}
1002
{
1000
BGO
1005
E2F
1002
}
1001
GENIUS_GENODEF_13
1002
{
1000
HIER
1070
     1
1002
}
1002
{
1000
MANEDIT
1070
     1
1002
}
1002
{
1000
NOSEL
1070
     1
1002
}
1002
{
1000
BEHIND
1070
     0
1002
}
1002
{
1000
REACTOR
1002
}
  0
POINT
  5
E2F
100
AcDbEntity
  8
0
 60
     1
100
AcDbPoint
 10
227.398635
 20
168.227595
 30
0.0
1001
GENIUS_GENOBJ-NBEHI-BHB_13
1002
{
1000
OWNER
1000
GENBEHI
1002
}
1001
GENIUS_GENOENT_13
1002
{
1000
MYREF
1005
E2F
1002
}
1002
{
1000
GRP
1005
0
1002
}
1001
GENIUS_GENOLIS_13
1002
{
1000
ENT
1005
0
1002
}
1001
GENIUS_GENODEF_13
1002
{
1000
HIER
1070
     1
1002
}
1002
{
1000
MANEDIT
1070
     0
1002
}
1002
{
1000
NOSEL
1070
     1
1002
}
1002
{
1000
BEHIND
1070
     0
1002
}
1002
{
1000
REACTOR
1002
}
1002
{
1000
OTHER
1070
     1
1002
}
1001
GENIUS_GENBH_13
1002
{
1000
FGO
1005
E2E
1002
}
  0
POINT
  5
E30
100
AcDbEntity
  8
0
 60
     1
100
AcDbPoint
 10
227.398635
 20
168.227595
 30
0.0
1001
GENIUS_GENOBJ-F-SCPASSM_13
1002
{
1000
OWNER
1000
GEF
1002
}
1001
GENIUS_GENOENT_13
1002
{
1000
MYREF
1005
E30
1002
}
1002
{
1000
GRP
1005
0
1002
}
1001
GENIUS_GENOLIS_13
1002
{
1000
ENT
1005
0
1005
0
1002
}
1001
GENIUS_GENODEF_13
1002
{
1000
HIER
1070
   200
1002
}
1002
{
1000
MANEDIT
1070
     1
1002
}
1002
{
1000
NOSEL
1070
     0
1002
}
1002
{
1000
BEHIND
1070
     0
1002
}
1002
{
1000
REACTOR
1002
}
  0
CIRCLE
  5
E31
100
AcDbEntity
  8
0
100
AcDbCircle
 10
62.973747
 20
167.72547
 30
0.0
 40
5.0
1001
GENIUS_GENOREF_13
1005
E2E
1005
E30
  0
LINE
  5
E32
100
AcDbEntity
  8
0
100
AcDbLine
 10
65.473747
 20
169.168846
 30
0.0
 11
62.973747
 21
170.612222
 31
0.0
1001
GENIUS_GENOREF_13
1005
E2E
1005
E30
  0
LINE
  5
E33
100
AcDbEntity
  8
0
100
AcDbLine
 10
62.973747
 20
164.838719
 30
0.0
 11
65.473747
 21
166.282094
 31
0.0
1001
GENIUS_GENOREF_13
1005
E2E
1005
E30
  0
LINE
  5
E34
100
AcDbEntity
  8
0
100
AcDbLine
 10
65.473747
 20
166.282094
 30
0.0
 11
65.473747
 21
169.168846
 31
0.0
1001
GENIUS_GENOREF_13
1005
E2E
1005
E30
  0
LINE
  5
E35
100
AcDbEntity
  8
0
100
AcDbLine
 10
60.473747
 20
169.168846
 30
0.0
 11
60.473747
 21
166.282094
 31
0.0
1001
GENIUS_GENOREF_13
1005
E2E
1005
E30
  0
LINE
  5
E36
100
AcDbEntity
  8
0
100
AcDbLine
 10
60.473747
 20
166.282094
 30
0.0
 11
62.973747
 21
164.838719
 31
0.0
1001
GENIUS_GENOREF_13
1005
E2E
1005
E30
  0
LINE
  5
E37
100
AcDbEntity
  8
0
100
AcDbLine
 10
62.973747
 20
170.612222
 30
0.0
 11
60.473747
 21
169.168846
 31
0.0
1001
GENIUS_GENOREF_13
1005
E2E
1005
E30
  0
LINE
  5
E38
100
AcDbEntity
  8
0
100
AcDbLine
 10
129.284667
 20
170.091739
 30
0.0
 11
129.284667
 21
172.12547
 31
0.0
  0
LINE
  5
E39
100
AcDbEntity
  8
0
100
AcDbLine
 10
129.884667
 20
172.72547
 30
0.0
 11
133.828228
 21
172.72547
 31
0.0
  0
LINE
  5
E3A
100
AcDbEntity
  8
0
  6
HIDDEN
100
AcDbLine
 10
135.284667
 20
124.72547
 30
0.0
 11
144.534667
 21
124.72547
 31
0.0
1001
GENIUS_GENOREF_13
1005
E18
1005
E1A
  0
LINE
  5
E3B
100
AcDbEntity
  8
0
  6
HIDDEN
100
AcDbLine
 10
135.284667
 20
130.72547
 30
0.0
 11
144.534667
 21
130.72547
 31
0.0
1001
GENIUS_GENOREF_13
1005
E18
1005
E1A
  0
LINE
  5
E3C
100
AcDbEntity
  8
0
100
AcDbLine
 10
137.784667
 20
130.11202
 30
0.0
 11
137.171217
 21
130.72547
 31
0.0
1001
GENIUS_GENOREF_13
1005
E18
1005
E1A
  0
LINE
  5
E3D
100
AcDbEntity
  8
0
100
AcDbLine
 10
137.784667
 20
125.33892
 30
0.0
 11
137.171217
 21
124.72547
 31
0.0
1001
GENIUS_GENOREF_13
1005
E18
1005
E1A
  0
LINE
  5
E3E
100
AcDbEntity
  8
0
  6
HIDDEN
100
AcDbLine
 10
135.284667
 20
124.22547
 30
0.0
 11
144.534667
 21
124.22547
 31
0.0
  0
LINE
  5
E3F
100
AcDbEntity
  8
0
  6
HIDDEN
100
AcDbLine
 10
135.284667
 20
131.22547
 30
0.0
 11
144.534667
 21
131.22547
 31
0.0
  0
LINE
  5
E40
100
AcDbEntity
  8
0
100
AcDbLine
 10
129.284667
 20
125.359201
 30
0.0
 11
129.284667
 21
123.32547
 31
0.0
  0
LINE
  5
E41
100
AcDbEntity
  8
0
  6
HIDDEN
100
AcDbLine
 10
135.284667
 20
122.108093
 30
0.0
 11
135.284667
 21
133.72547
 31
0.0
  0
LINE
  5
E42
100
AcDbEntity
  8
0
  6
HIDDEN
100
AcDbLine
 10
121.615066
 20
133.72547
 30
0.0
 11
135.284667
 21
133.72547
 31
0.0
  0
LINE
  5
E43
100
AcDbEntity
  8
0
  6
HIDDEN
100
AcDbLine
 10
129.284667
 20
132.12547
 30
0.0
 11
129.284667
 21
125.359201
 31
0.0
1001
GENIUS_GENOREF_13
1005
E18
1005
E1A
  0
LINE
  5
E44
100
AcDbEntity
  8
0
  6
HIDDEN
100
AcDbLine
 10
129.884667
 20
132.72547
 30
0.0
 11
135.284667
 21
132.72547
 31
0.0
1001
GENIUS_GENOREF_13
1005
E18
1005
E1A
  0
ARC
  5
E45
100
AcDbEntity
  8
0
100
AcDbCircle
 10
129.884667
 20
132.12547
 30
0.0
 40
0.6
100
AcDbArc
 50
90.0
 51
180.0
1001
GENIUS_GENOREF_13
1005
E18
1005
E1A
  0
LINE
  5
E46
100
AcDbEntity
  8
0
100
AcDbLine
 10
129.884667
 20
122.72547
 30
0.0
 11
133.828228
 21
122.72547
 31
0.0
  0
ARC
  5
E47
100
AcDbEntity
  8
0
100
AcDbCircle
 10
129.884667
 20
123.32547
 30
0.0
 40
0.6
100
AcDbArc
 50
180.0
 51
270.0
1001
GENIUS_GENOREF_13
1005
E18
1005
E1A
  0
LINE
  5
E48
100
AcDbEntity
  8
0
  6
HIDDEN
100
AcDbLine
 10
133.828228
 20
122.72547
 30
0.0
 11
135.284667
 21
122.72547
 31
0.0
1001
GENIUS_GENOREF_13
1005
E18
1005
E1A
  0
LINE
  5
E49
100
AcDbEntity
  8
0
  6
HIDDEN
100
AcDbLine
 10
161.256279
 20
125.33892
 30
0.0
 11
146.034667
 21
125.33892
 31
0.0
1001
GENIUS_GENOREF_13
1005
E18
1005
E1A
  0
LINE
  5
E4A
100
AcDbEntity
  8
0
  6
HIDDEN
100
AcDbLine
 10
137.784667
 20
124.72547
 30
0.0
 11
137.784667
 21
130.72547
 31
0.0
1001
GENIUS_GENOREF_13
1005
E18
1005
E1A
  0
LINE
  5
E4B
100
AcDbEntity
  8
0
  6
HIDDEN
100
AcDbLine
 10
159.671217
 20
124.72547
 30
0.0
 11
159.671217
 21
130.72547
 31
0.0
1001
GENIUS_GENOREF_13
1005
E18
1005
E1A
  0
LINE
  5
E4C
100
AcDbEntity
  8
0
  6
HIDDEN
100
AcDbLine
 10
160.284667
 20
125.33892
 30
0.0
 11
160.284667
 21
130.11202
 31
0.0
1001
GENIUS_GENOREF_13
1005
E18
1005
E1A
  0
LINE
  5
E4D
100
AcDbEntity
  8
0
100
AcDbLine
 10
159.671217
 20
130.72547
 30
0.0
 11
160.284667
 21
130.11202
 31
0.0
1001
GENIUS_GENOREF_13
1005
E18
1005
E1A
  0
LINE
  5
E4E
100
AcDbEntity
  8
CENTER
  6
HIDDEN
 62
     3
100
AcDbLine
 10
159.671217
 20
124.72547
 30
0.0
 11
160.359481
 21
124.72547
 31
0.0
  0
LINE
  5
E4F
100
AcDbEntity
  8
0
100
AcDbLine
 10
159.671217
 20
124.72547
 30
0.0
 11
160.284667
 21
125.33892
 31
0.0
1001
GENIUS_GENOREF_13
1005
E18
1005
E1A
  0
LINE
  5
E50
100
AcDbEntity
  8
CENTER
  6
HIDDEN
 62
     3
100
AcDbLine
 10
159.671217
 20
130.72547
 30
0.0
 11
166.900633
 21
130.72547
 31
0.0
  0
LINE
  5
E51
100
AcDbEntity
  8
0
  6
HIDDEN
100
AcDbLine
 10
166.403767
 20
130.11202
 30
0.0
 11
146.034667
 21
130.11202
 31
0.0
1001
GENIUS_GENOREF_13
1005
E18
1005
E1A
  0
LINE
  5
E52
100
AcDbEntity
  8
0
  6
HIDDEN
100
AcDbLine
 10
146.034667
 20
170.72547
 30
0.0
 11
159.671217
 21
170.72547
 31
0.0
1001
GENIUS_GENOREF_13
1005
E18
1005
E1A
  0
LINE
  5
E53
100
AcDbEntity
  8
0
  6
HIDDEN
100
AcDbLine
 10
144.534667
 20
170.11202
 30
0.0
 11
137.784667
 21
170.11202
 31
0.0
1001
GENIUS_GENOREF_13
1005
E18
1005
E1A
  0
LINE
  5
E54
100
AcDbEntity
  8
0
  6
HIDDEN
100
AcDbLine
 10
144.534667
 20
165.33892
 30
0.0
 11
137.784667
 21
165.33892
 31
0.0
1001
GENIUS_GENOREF_13
1005
E18
1005
E1A
  0
LINE
  5
E55
100
AcDbEntity
  8
0
  6
HIDDEN
100
AcDbLine
 10
146.034667
 20
164.72547
 30
0.0
 11
159.671217
 21
164.72547
 31
0.0
1001
GENIUS_GENOREF_13
1005
E18
1005
E1A
  0
LINE
  5
E56
100
AcDbEntity
  8
0
100
AcDbLine
 10
144.534667
 20
170.72547
 30
0.0
 11
146.034667
 21
170.72547
 31
0.0
  0
LINE
  5
E57
100
AcDbEntity
  8
0
100
AcDbLine
 10
144.534667
 20
170.11202
 30
0.0
 11
146.034667
 21
170.11202
 31
0.0
  0
LINE
  5
E58
100
AcDbEntity
  8
0
100
AcDbLine
 10
144.534667
 20
165.33892
 30
0.0
 11
146.034667
 21
165.33892
 31
0.0
  0
LINE
  5
E59
100
AcDbEntity
  8
0
100
AcDbLine
 10
144.534667
 20
164.72547
 30
0.0
 11
146.034667
 21
164.72547
 31
0.0
  0
LINE
  5
E5A
100
AcDbEntity
  8
0
  6
HIDDEN
100
AcDbLine
 10
144.534667
 20
130.11202
 30
0.0
 11
137.784667
 21
130.11202
 31
0.0
1001
GENIUS_GENOREF_13
1005
E18
1005
E1A
  0
LINE
  5
E5B
100
AcDbEntity
  8
0
  6
HIDDEN
100
AcDbLine
 10
146.034667
 20
130.72547
 30
0.0
 11
159.671217
 21
130.72547
 31
0.0
1001
GENIUS_GENOREF_13
1005
E18
1005
E1A
  0
LINE
  5
E5C
100
AcDbEntity
  8
0
  6
HIDDEN
100
AcDbLine
 10
146.034667
 20
124.72547
 30
0.0
 11
159.671217
 21
124.72547
 31
0.0
1001
GENIUS_GENOREF_13
1005
E18
1005
E1A
  0
LINE
  5
E5D
100
AcDbEntity
  8
0
  6
HIDDEN
100
AcDbLine
 10
144.534667
 20
125.33892
 30
0.0
 11
137.784667
 21
125.33892
 31
0.0
1001
GENIUS_GENOREF_13
1005
E18
1005
E1A
  0
LINE
  5
E5E
100
AcDbEntity
  8
0
100
AcDbLine
 10
144.534667
 20
130.72547
 30
0.0
 11
146.034667
 21
130.72547
 31
0.0
  0
LINE
  5
E5F
100
AcDbEntity
  8
0
100
AcDbLine
 10
144.534667
 20
130.11202
 30
0.0
 11
146.034667
 21
130.11202
 31
0.0
  0
LINE
  5
E60
100
AcDbEntity
  8
0
100
AcDbLine
 10
144.534667
 20
125.33892
 30
0.0
 11
146.034667
 21
125.33892
 31
0.0
  0
LINE
  5
E61
100
AcDbEntity
  8
0
100
AcDbLine
 10
144.534667
 20
124.72547
 30
0.0
 11
146.034667
 21
124.72547
 31
0.0
  0
LINE
  5
E62
100
AcDbEntity
  8
0
100
AcDbLine
 10
70.473747
 20
121.22547
 30
0.0
 11
69.473747
 21
120.22547
 31
0.0
  0
LINE
  5
E63
100
AcDbEntity
  8
0
100
AcDbLine
 10
69.473747
 20
132.72547
 30
0.0
 11
70.473747
 21
131.72547
 31
0.0
  0
LINE
  5
E64
100
AcDbEntity
  8
0
100
AcDbLine
 10
68.973747
 20
127.72547
 30
0.0
 11
68.973747
 21
122.108093
 31
0.0
  0
LINE
  5
E65
100
AcDbEntity
  8
0
100
AcDbLine
 10
62.973747
 20
124.838719
 30
0.0
 11
60.473747
 21
126.282094
 31
0.0
1001
GENIUS_GENOREF_13
1005
E2E
1005
E30
  0
LINE
  5
E66
100
AcDbEntity
  8
0
100
AcDbLine
 10
60.473747
 20
129.168846
 30
0.0
 11
62.973747
 21
130.612222
 31
0.0
1001
GENIUS_GENOREF_13
1005
E2E
1005
E30
  0
LINE
  5
E67
100
AcDbEntity
  8
0
100
AcDbLine
 10
60.473747
 20
126.282094
 30
0.0
 11
60.473747
 21
129.168846
 31
0.0
1001
GENIUS_GENOREF_13
1005
E2E
1005
E30
  0
LINE
  5
E68
100
AcDbEntity
  8
0
100
AcDbLine
 10
62.973747
 20
130.612222
 30
0.0
 11
65.473747
 21
129.168846
 31
0.0
1001
GENIUS_GENOREF_13
1005
E2E
1005
E30
  0
LINE
  5
E69
100
AcDbEntity
  8
0
100
AcDbLine
 10
65.473747
 20
126.282094
 30
0.0
 11
62.973747
 21
124.838719
 31
0.0
1001
GENIUS_GENOREF_13
1005
E2E
1005
E30
  0
LINE
  5
E6A
100
AcDbEntity
  8
0
100
AcDbLine
 10
65.473747
 20
129.168846
 30
0.0
 11
65.473747
 21
126.282094
 31
0.0
1001
GENIUS_GENOREF_13
1005
E2E
1005
E30
  0
CIRCLE
  5
E6B
100
AcDbEntity
  8
0
100
AcDbCircle
 10
62.973747
 20
127.72547
 30
0.0
 40
5.0
1001
GENIUS_GENOREF_13
1005
E2E
1005
E30
  0
LINE
  5
E6C
100
AcDbEntity
  8
0
100
AcDbLine
 10
68.973747
 20
122.108093
 30
0.0
 11
56.973747
 21
122.108093
 31
0.0
  0
LINE
  5
E6D
100
AcDbEntity
  8
0
100
AcDbLine
 10
56.973747
 20
127.72547
 30
0.0
 11
56.973747
 21
122.108093
 31
0.0
  0
ARC
  5
E6E
100
AcDbEntity
  8
0
100
AcDbCircle
 10
62.973747
 20
127.72547
 30
0.0
 40
6.0
100
AcDbArc
 50
0.0
 51
180.0
  0
LINE
  5
E72
100
AcDbEntity
  8
0
100
AcDbLine
 10
7.119753
 20
163.72547
 30
0.0
 11
7.119753
 21
174.22547
 31
0.0
  0
LINE
  5
E75
100
AcDbEntity
  8
0
100
AcDbLine
 10
-7.880247
 20
131.72547
 30
0.0
 11
-7.880247
 21
121.22547
 31
0.0
  0
CIRCLE
  5
E77
100
AcDbEntity
  8
0
  6
HIDDEN
100
AcDbCircle
 10
-0.380247
 20
127.72547
 30
0.0
 40
5.0
1001
GENIUS_GENOREF_13
1005
E2E
1005
E30
  0
CIRCLE
  5
E79
100
AcDbEntity
  8
0
  6
HIDDEN
100
AcDbCircle
 10
-0.380247
 20
167.72547
 30
0.0
 40
5.0
1001
GENIUS_GENOREF_13
1005
E2E
1005
E30
  0
ENDSEC
  0
SECTION
  2
OBJECTS
  0
DICTIONARY
  5
C
100
AcDbDictionary
  3
ACAD_GROUP
350
D
  3
ACAD_LAYOUT
350
C36
  3
ACAD_MLINESTYLE
350
1B
  3
ACAD_PLOTSETTINGS
350
C37
  3
ADE_QUERY_LIBRARY
350
E9E
  3
CONTENTDICTIONARY
350
23
1001
ADE
1000
ADE02C004
1000
[Query]
1000
CaseSensitiveMatch=0
1000
SaveCurrQueryInSession=1
1000
MkSelSetWithQryObj=0
1000
ShowBlockAsInsPt=0
1000
CreateAssociativeHatchObjects=0
1000
ReferenceBoundaryForAreaLocation=1
1000
ShowImageAsBoundary=1
1000
DefaultJoinOperator=2
1000
ColorForAdd=red
1000
ColorForRemove=red
1000
BlockLocnForQuery=1
1000
TextLocnForQuery=1
1000
[Save Back]
1000
RedefineBlockDefinitions=1
1000
RedefineLayerDefinitions=1
1000
RedefineTextStyleDefinitions=1
1000
RemoveUnusedGroups=1
1000
EraseSavedBackObjects=1
1000
RemoveLockAfterSave=1
1000
CreateHistoryFileOfChanges=0
1000
CreateBackupFileOfSourceDwg=1
1000
DontAddObjectsToSaveSet=0
1000
MarkObjectsForEditingWithoutPrompting=0
1000
[Coordinate Transformation]
1000
RestoreLastActiveDwgsOnStartup=1
1000
ActivateDwgsOnAttach=1
1000
AdjustSizesAndScalesForChangesInUnits=1
1000
AdjustRotationsForMapDistortions=1
1000
AdjustSizesAndScalesForMapDistortions=1
1000
AdjustElevations=1
1000
AdjustZeroRotationObjects=1
1000
ReconnectDbOnWSOpen=1
1000
NoOfSQLConditionsInHistory=10
1001
ACAD
1000
TREAT_AS_HARD
1070
     0
  0
DICTIONARY
  5
EA2
100
AcDbDictionary
280
     1
  3
ACAD_LAYOUTSELFREF
360
EA3
  0
DICTIONARY
  5
EA0
100
AcDbDictionary
280
     1
  3
ACAD_LAYOUTSELFREF
360
EA1
  0
DICTIONARY
  5
D
102
{ACAD_REACTORS
330
C
102
}
100
AcDbDictionary
1001
ACAD
1000
TREAT_AS_HARD
1070
     0
  0
DICTIONARY
  5
C36
102
{ACAD_REACTORS
330
C
102
}
100
AcDbDictionary
1001
ACAD
1000
TREAT_AS_HARD
1070
     0
  0
DICTIONARY
  5
1B
102
{ACAD_REACTORS
330
C
102
}
100
AcDbDictionary
  3
STANDARD
350
1C
1001
ACAD
1000
TREAT_AS_HARD
1070
     0
  0
DICTIONARY
  5
C37
102
{ACAD_REACTORS
330
C
102
}
100
AcDbDictionary
1001
ACAD
1000
TREAT_AS_HARD
1070
     0
  0
DICTIONARY
  5
E9E
102
{ACAD_REACTORS
330
C
102
}
100
AcDbDictionary
  3
_CURRQRY
350
E9F
1001
ACAD
1000
TREAT_AS_HARD
1070
     0
  0
DICTIONARY
  5
23
102
{ACAD_REACTORS
330
C
102
}
100
AcDbDictionary
1001
ACAD
1000
TREAT_AS_HARD
1070
     0
  0
XRECORD
  5
EA3
102
{ACAD_REACTORS
330
EA2
102
}
100
AcDbXrecord
340
18
  0
XRECORD
  5
EA1
102
{ACAD_REACTORS
330
EA0
102
}
100
AcDbXrecord
340
15
  0
MLINESTYLE
  5
1C
102
{ACAD_REACTORS
330
1B
102
}
100
AcDbMlineStyle
  2
STANDARD
 70
     0
  3

 62
   256
 51
90.0
 52
90.0
 71
     2
 49
0.5
 62
   256
  6
BYLAYER
 49
-0.5
 62
   256
  6
BYLAYER
  0
XRECORD
  5
E9F
102
{ACAD_REACTORS
330
E9E
102
}
100
AcDbXrecord
1000
ADE02C001
1070
     1
1070
     0
1002
{
1002
}
1002
{
1002
}
1002
{
1002
}
1000

  0
ENDSEC
  0
EOF
